ISO-10303-21;
HEADER;
FILE_DESCRIPTION (( 'STEP AP203' ),
    '1' );
FILE_NAME ('dc91.STEP',
    '2022-06-20T09:17:10',
    ( '' ),
    ( '' ),
    'SwSTEP 2.0',
    'SolidWorks 2019',
    '' );
FILE_SCHEMA (( 'CONFIG_CONTROL_DESIGN' ));
ENDSEC;

DATA;
#1 = CC_DESIGN_PERSON_AND_ORGANIZATION_ASSIGNMENT ( #100, #227, ( #235 ) ) ;
#2 = EDGE_LOOP ( 'NONE', ( #261, #258, #147, #140 ) ) ;
#3 = DATE_AND_TIME ( #297, #22 ) ;
#4 = CARTESIAN_POINT ( 'NONE',  ( 0.000000000000000000, 0.000000000000000000, 10.00000000000000000 ) ) ;
#5 = EDGE_LOOP ( 'NONE', ( #116, #241 ) ) ;
#6 = DATE_TIME_ROLE ( 'classification_date' ) ;
#7 = CARTESIAN_POINT ( 'NONE',  ( 0.000000000000000000, 0.000000000000000000, 0.000000000000000000 ) ) ;
#8 = AXIS2_PLACEMENT_3D ( 'NONE', #240, #174, #176 ) ;
#9 = COORDINATED_UNIVERSAL_TIME_OFFSET ( 1, 0, .AHEAD. ) ;
#10 = APPROVAL_DATE_TIME ( #3, #237 ) ;
#11 = DIRECTION ( 'NONE',  ( -0.000000000000000000, -0.000000000000000000, -1.000000000000000000 ) ) ;
#12 = CARTESIAN_POINT ( 'NONE',  ( 0.000000000000000000, 0.000000000000000000, 0.000000000000000000 ) ) ;
#13 = VERTEX_POINT ( 'NONE', #206 ) ;
#14 = PERSON_AND_ORGANIZATION ( #67, #171 ) ;
#15 = CARTESIAN_POINT ( 'NONE',  ( -12.70000000000000107, 1.555301434917138630E-15, 10.19999999999998685 ) ) ;
#16 = CARTESIAN_POINT ( 'NONE',  ( 0.000000000000000000, 0.000000000000000000, 0.000000000000000000 ) ) ;
#17 = DIRECTION ( 'NONE',  ( -0.000000000000000000, -0.000000000000000000, -1.000000000000000000 ) ) ;
#18 = CC_DESIGN_APPROVAL ( #165, ( #68 ) ) ;
#19 = APPROVAL_STATUS ( 'not_yet_approved' ) ;
#20 = FACE_OUTER_BOUND ( 'NONE', #229, .T. ) ;
#21 = CARTESIAN_POINT ( 'NONE',  ( 16.00000000000000000, 1.959434878635765131E-15, 10.00000000000000000 ) ) ;
#22 = LOCAL_TIME ( 11, 17, 10.00000000000000000, #104 ) ;
#23 = CIRCLE ( 'NONE', #98, 12.50000000000000000 ) ;
#24 = LOCAL_TIME ( 11, 17, 10.00000000000000000, #196 ) ;
#25 = APPLICATION_CONTEXT ( 'configuration controlled 3d designs of mechanical parts and assemblies' ) ;
#26 = ADVANCED_FACE ( 'NONE', ( #20 ), #44, .F. ) ;
#27 = EDGE_CURVE ( 'NONE', #305, #119, #219, .T. ) ;
#28 = ORIENTED_EDGE ( 'NONE', *, *, #155, .T. ) ;
#29 = CALENDAR_DATE ( 2022, 20, 6 ) ;
#30 = VERTEX_POINT ( 'NONE', #251 ) ;
#31 = DIRECTION ( 'NONE',  ( -0.000000000000000000, -0.000000000000000000, -1.000000000000000000 ) ) ;
#32 = ORIENTED_EDGE ( 'NONE', *, *, #102, .F. ) ;
#33 = FACE_OUTER_BOUND ( 'NONE', #5, .T. ) ;
#34 = TOROIDAL_SURFACE ( 'NONE', #192, 12.70000000000000107, 0.2000000000000000111 ) ;
#35 = CARTESIAN_POINT ( 'NONE',  ( 0.000000000000000000, 0.000000000000000000, 10.00000000000000000 ) ) ;
#36 = SHAPE_DEFINITION_REPRESENTATION ( #277, #248 ) ;
#37 = DIRECTION ( 'NONE',  ( 0.000000000000000000, 0.000000000000000000, 1.000000000000000000 ) ) ;
#38 = EDGE_LOOP ( 'NONE', ( #42, #253 ) ) ;
#39 = DIRECTION ( 'NONE',  ( -0.000000000000000000, -0.000000000000000000, -1.000000000000000000 ) ) ;
#40 = ORIENTED_EDGE ( 'NONE', *, *, #61, .T. ) ;
#41 = DIRECTION ( 'NONE',  ( 1.000000000000000000, 0.000000000000000000, 0.000000000000000000 ) ) ;
#42 = ORIENTED_EDGE ( 'NONE', *, *, #281, .T. ) ;
#43 = PERSON_AND_ORGANIZATION_ROLE ( 'design_owner' ) ;
#44 = TOROIDAL_SURFACE ( 'NONE', #132, 12.70000000000000107, 0.2000000000000000111 ) ;
#45 = DIRECTION ( 'NONE',  ( 1.000000000000000000, 0.000000000000000000, 0.000000000000000000 ) ) ;
#46 = CIRCLE ( 'NONE', #115, 16.00000000000000000 ) ;
#47 = EDGE_CURVE ( 'NONE', #13, #30, #123, .T. ) ;
#48 = EDGE_LOOP ( 'NONE', ( #32, #127, #276, #189 ) ) ;
#49 = AXIS2_PLACEMENT_3D ( 'NONE', #299, #179, #136 ) ;
#50 = ORIENTED_EDGE ( 'NONE', *, *, #137, .F. ) ;
#51 = DIRECTION ( 'NONE',  ( -1.000000000000000000, 0.000000000000000000, 0.000000000000000000 ) ) ;
#52 = VECTOR ( 'NONE', #31, 1000.000000000000000 ) ;
#53 = ORIENTED_EDGE ( 'NONE', *, *, #212, .T. ) ;
#54 = CARTESIAN_POINT ( 'NONE',  ( 12.70000000000000107, 0.000000000000000000, 9.999999999999992895 ) ) ;
#55 = AXIS2_PLACEMENT_3D ( 'NONE', #35, #39, #41 ) ;
#56 = EDGE_LOOP ( 'NONE', ( #53, #96 ) ) ;
#57 = CARTESIAN_POINT ( 'NONE',  ( 0.000000000000000000, 0.000000000000000000, 1210.000000000000000 ) ) ;
#58 = APPROVAL_ROLE ( '' ) ;
#59 = CARTESIAN_POINT ( 'NONE',  ( 0.000000000000000000, 0.000000000000000000, 1210.000000000000000 ) ) ;
#60 = CC_DESIGN_PERSON_AND_ORGANIZATION_ASSIGNMENT ( #117, #217, ( #235 ) ) ;
#61 = EDGE_CURVE ( 'NONE', #172, #305, #213, .T. ) ;
#62 = EDGE_LOOP ( 'NONE', ( #208, #243 ) ) ;
#63 = DIRECTION ( 'NONE',  ( 1.224646799147353207E-16, 1.000000000000000000, -0.000000000000000000 ) ) ;
#64 = DIRECTION ( 'NONE',  ( 0.000000000000000000, 0.000000000000000000, 1.000000000000000000 ) ) ;
#65 = AXIS2_PLACEMENT_3D ( 'NONE', #242, #146, #262 ) ;
#66 = ORIENTED_EDGE ( 'NONE', *, *, #95, .T. ) ;
#67 = PERSON ( 'NEURÈENÝ', 'NEURÈENÝ', 'NEURÈENÝ', ('NEURÈENÝ'), ('NEURÈENÝ'), ('NEURÈENÝ') ) ;
#68 = PRODUCT_DEFINITION ( 'NEZNÁMÝ', '', #235, #70 ) ;
#69 = CIRCLE ( 'NONE', #252, 12.50000000000000000 ) ;
#70 = DESIGN_CONTEXT ( 'detailed design', #283, 'design' ) ;
#71 = ORIENTED_EDGE ( 'NONE', *, *, #256, .F. ) ;
#72 = CARTESIAN_POINT ( 'NONE',  ( 0.000000000000000000, 0.000000000000000000, 1210.000000000000000 ) ) ;
#73 = DATE_AND_TIME ( #193, #205 ) ;
#74 = DIRECTION ( 'NONE',  ( 1.000000000000000000, 0.000000000000000000, 0.000000000000000000 ) ) ;
#75 = CLOSED_SHELL ( 'NONE', ( #26, #211, #113, #112, #182, #228, #203, #306, #84 ) ) ;
#76 = SECURITY_CLASSIFICATION_LEVEL ( 'unclassified' ) ;
#77 = FACE_OUTER_BOUND ( 'NONE', #144, .T. ) ;
#78 = AXIS2_PLACEMENT_3D ( 'NONE', #149, #267, #270 ) ;
#79 = PERSON_AND_ORGANIZATION ( #67, #171 ) ;
#80 = APPROVAL ( #175, 'NEURÈENÝ' ) ;
#81 = CARTESIAN_POINT ( 'NONE',  ( -12.70000000000000107, 1.555301434917138630E-15, 9.999999999999992895 ) ) ;
#82 = LINE ( 'NONE', #296, #162 ) ;
#83 = ORIENTED_EDGE ( 'NONE', *, *, #61, .F. ) ;
#84 = ADVANCED_FACE ( 'NONE', ( #232 ), #34, .F. ) ;
#85 = VERTEX_POINT ( 'NONE', #153 ) ;
#86 = AXIS2_PLACEMENT_3D ( 'NONE', #16, #183, #304 ) ;
#87 = APPLICATION_PROTOCOL_DEFINITION ( 'international standard', 'config_control_design', 1994, #25 ) ;
#88 = CARTESIAN_POINT ( 'NONE',  ( -12.50000000000000000, 0.000000000000000000, 1210.000000000000000 ) ) ;
#89 = FACE_OUTER_BOUND ( 'NONE', #48, .T. ) ;
#90 = EDGE_CURVE ( 'NONE', #286, #172, #303, .T. ) ;
#91 = CIRCLE ( 'NONE', #209, 12.50000000000000000 ) ;
#92 = VERTEX_POINT ( 'NONE', #202 ) ;
#93 = COORDINATED_UNIVERSAL_TIME_OFFSET ( 1, 0, .AHEAD. ) ;
#94 = FACE_OUTER_BOUND ( 'NONE', #278, .T. ) ;
#95 = EDGE_CURVE ( 'NONE', #85, #172, #69, .T. ) ;
#96 = ORIENTED_EDGE ( 'NONE', *, *, #141, .T. ) ;
#97 = DIRECTION ( 'NONE',  ( 0.000000000000000000, 0.000000000000000000, 1.000000000000000000 ) ) ;
#98 = AXIS2_PLACEMENT_3D ( 'NONE', #57, #37, #148 ) ;
#99 = CARTESIAN_POINT ( 'NONE',  ( 0.000000000000000000, 0.000000000000000000, 10.00000000000000000 ) ) ;
#100 = PERSON_AND_ORGANIZATION ( #67, #171 ) ;
#101 = CYLINDRICAL_SURFACE ( 'NONE', #8, 12.50000000000000000 ) ;
#102 = EDGE_CURVE ( 'NONE', #13, #214, #158, .T. ) ;
#103 =( LENGTH_UNIT ( ) NAMED_UNIT ( * ) SI_UNIT ( .MILLI., .METRE. ) );
#104 = COORDINATED_UNIVERSAL_TIME_OFFSET ( 1, 0, .AHEAD. ) ;
#105 = DIRECTION ( 'NONE',  ( 0.000000000000000000, 0.000000000000000000, 1.000000000000000000 ) ) ;
#106 = DIRECTION ( 'NONE',  ( -0.000000000000000000, -0.000000000000000000, -1.000000000000000000 ) ) ;
#107 = DIRECTION ( 'NONE',  ( 1.000000000000000000, 0.000000000000000000, 0.000000000000000000 ) ) ;
#108 = CARTESIAN_POINT ( 'NONE',  ( 0.000000000000000000, 0.000000000000000000, 10.19999999999998685 ) ) ;
#109 = APPROVAL_ROLE ( '' ) ;
#110 = DIRECTION ( 'NONE',  ( 1.000000000000000000, 0.000000000000000000, 0.000000000000000000 ) ) ;
#111 = AXIS2_PLACEMENT_3D ( 'NONE', #178, #216, #269 ) ;
#112 = ADVANCED_FACE ( 'NONE', ( #89 ), #272, .T. ) ;
#113 = ADVANCED_FACE ( 'NONE', ( #197 ), #223, .T. ) ;
#114 = AXIS2_PLACEMENT_3D ( 'NONE', #194, #247, #292 ) ;
#115 = AXIS2_PLACEMENT_3D ( 'NONE', #99, #293, #180 ) ;
#116 = ORIENTED_EDGE ( 'NONE', *, *, #266, .F. ) ;
#117 = PERSON_AND_ORGANIZATION ( #67, #171 ) ;
#118 = DIRECTION ( 'NONE',  ( -0.000000000000000000, -0.000000000000000000, -1.000000000000000000 ) ) ;
#119 = VERTEX_POINT ( 'NONE', #54 ) ;
#120 = EDGE_CURVE ( 'NONE', #214, #264, #163, .T. ) ;
#121 = DATE_TIME_ROLE ( 'creation_date' ) ;
#122 = PLANE ( 'NONE',  #230 ) ;
#123 = CIRCLE ( 'NONE', #49, 16.00000000000000000 ) ;
#124 = CARTESIAN_POINT ( 'NONE',  ( 0.000000000000000000, 0.000000000000000000, 1210.000000000000000 ) ) ;
#125 = PERSON_AND_ORGANIZATION_ROLE ( 'classification_officer' ) ;
#126 = LINE ( 'NONE', #244, #52 ) ;
#127 = ORIENTED_EDGE ( 'NONE', *, *, #279, .F. ) ;
#128 = CALENDAR_DATE ( 2022, 20, 6 ) ;
#129 = DIRECTION ( 'NONE',  ( 0.000000000000000000, 0.000000000000000000, 1.000000000000000000 ) ) ;
#130 = DIRECTION ( 'NONE',  ( 1.000000000000000000, 0.000000000000000000, -0.000000000000000000 ) ) ;
#131 = CARTESIAN_POINT ( 'NONE',  ( 0.000000000000000000, 0.000000000000000000, 10.19999999999998685 ) ) ;
#132 = AXIS2_PLACEMENT_3D ( 'NONE', #250, #236, #224 ) ;
#133 = APPLICATION_PROTOCOL_DEFINITION ( 'international standard', 'config_control_design', 1994, #283 ) ;
#134 = DIRECTION ( 'NONE',  ( -0.000000000000000000, -0.000000000000000000, -1.000000000000000000 ) ) ;
#135 = AXIS2_PLACEMENT_3D ( 'NONE', #124, #222, #130 ) ;
#136 = DIRECTION ( 'NONE',  ( 1.000000000000000000, 0.000000000000000000, 0.000000000000000000 ) ) ;
#137 = EDGE_CURVE ( 'NONE', #85, #119, #186, .T. ) ;
#138 = AXIS2_PLACEMENT_3D ( 'NONE', #4, #118, #51 ) ;
#139 = PRODUCT_RELATED_PRODUCT_CATEGORY ( 'detail', '', ( #157 ) ) ;
#140 = ORIENTED_EDGE ( 'NONE', *, *, #161, .F. ) ;
#141 = EDGE_CURVE ( 'NONE', #92, #286, #91, .T. ) ;
#142 = DIRECTION ( 'NONE',  ( -1.000000000000000000, 0.000000000000000000, 0.000000000000000000 ) ) ;
#143 =( GEOMETRIC_REPRESENTATION_CONTEXT ( 3 ) GLOBAL_UNCERTAINTY_ASSIGNED_CONTEXT ( ( #188 ) ) GLOBAL_UNIT_ASSIGNED_CONTEXT ( ( #103, #249, #226 ) ) REPRESENTATION_CONTEXT ( 'NONE', 'WORKASPACE' ) );
#144 = EDGE_LOOP ( 'NONE', ( #166, #200, #66, #154 ) ) ;
#145 = CC_DESIGN_SECURITY_CLASSIFICATION ( #307, ( #235 ) ) ;
#146 = DIRECTION ( 'NONE',  ( 0.000000000000000000, -1.000000000000000000, 0.000000000000000000 ) ) ;
#147 = ORIENTED_EDGE ( 'NONE', *, *, #120, .T. ) ;
#148 = DIRECTION ( 'NONE',  ( 1.000000000000000000, 0.000000000000000000, 0.000000000000000000 ) ) ;
#149 = CARTESIAN_POINT ( 'NONE',  ( 0.000000000000000000, 0.000000000000000000, 0.000000000000000000 ) ) ;
#150 = DATE_AND_TIME ( #29, #210 ) ;
#151 = CARTESIAN_POINT ( 'NONE',  ( 16.00000000000000000, 1.959434878635765131E-15, 0.000000000000000000 ) ) ;
#152 = PLANE ( 'NONE',  #135 ) ;
#153 = CARTESIAN_POINT ( 'NONE',  ( 12.50000000000000000, 1.530808498934191521E-15, 10.19999999999998685 ) ) ;
#154 = ORIENTED_EDGE ( 'NONE', *, *, #90, .F. ) ;
#155 = EDGE_CURVE ( 'NONE', #172, #85, #245, .T. ) ;
#156 = PERSON_AND_ORGANIZATION ( #67, #171 ) ;
#157 = PRODUCT ( 'dc91', 'dc91', '', ( #275 ) ) ;
#158 = LINE ( 'NONE', #21, #159 ) ;
#159 = VECTOR ( 'NONE', #134, 1000.000000000000000 ) ;
#160 = ORIENTED_EDGE ( 'NONE', *, *, #155, .F. ) ;
#161 = EDGE_CURVE ( 'NONE', #30, #264, #126, .T. ) ;
#162 = VECTOR ( 'NONE', #207, 1000.000000000000000 ) ;
#163 = CIRCLE ( 'NONE', #231, 16.00000000000000000 ) ;
#164 = APPROVAL_PERSON_ORGANIZATION ( #79, #80, #58 ) ;
#165 = APPROVAL ( #19, 'NEURÈENÝ' ) ;
#166 = ORIENTED_EDGE ( 'NONE', *, *, #141, .F. ) ;
#167 = FACE_OUTER_BOUND ( 'NONE', #62, .T. ) ;
#168 = ORIENTED_EDGE ( 'NONE', *, *, #281, .F. ) ;
#169 = AXIS2_PLACEMENT_3D ( 'NONE', #59, #11, #142 ) ;
#170 = DIRECTION ( 'NONE',  ( 1.000000000000000000, 0.000000000000000000, 0.000000000000000000 ) ) ;
#171 = ORGANIZATION ( 'NEURÈENÝ', 'NEURÈENÝ', '' ) ;
#172 = VERTEX_POINT ( 'NONE', #289 ) ;
#173 = CALENDAR_DATE ( 2022, 20, 6 ) ;
#174 = DIRECTION ( 'NONE',  ( -0.000000000000000000, -0.000000000000000000, -1.000000000000000000 ) ) ;
#175 = APPROVAL_STATUS ( 'not_yet_approved' ) ;
#176 = DIRECTION ( 'NONE',  ( -1.000000000000000000, 0.000000000000000000, 0.000000000000000000 ) ) ;
#177 = APPROVAL_STATUS ( 'not_yet_approved' ) ;
#178 = CARTESIAN_POINT ( 'NONE',  ( 0.000000000000000000, 0.000000000000000000, 10.19999999999998685 ) ) ;
#179 = DIRECTION ( 'NONE',  ( 0.000000000000000000, 0.000000000000000000, 1.000000000000000000 ) ) ;
#180 = DIRECTION ( 'NONE',  ( 1.000000000000000000, 0.000000000000000000, 0.000000000000000000 ) ) ;
#181 = ORIENTED_EDGE ( 'NONE', *, *, #212, .F. ) ;
#182 = ADVANCED_FACE ( 'NONE', ( #190, #167 ), #298, .T. ) ;
#183 = DIRECTION ( 'NONE',  ( 0.000000000000000000, 0.000000000000000000, 1.000000000000000000 ) ) ;
#184 = CARTESIAN_POINT ( 'NONE',  ( 0.000000000000000000, 0.000000000000000000, 10.00000000000000000 ) ) ;
#185 = ORIENTED_EDGE ( 'NONE', *, *, #90, .T. ) ;
#186 = CIRCLE ( 'NONE', #65, 0.2000000000000005107 ) ;
#187 = CIRCLE ( 'NONE', #78, 16.00000000000000000 ) ;
#188 = UNCERTAINTY_MEASURE_WITH_UNIT (LENGTH_MEASURE( 1.000000000000000082E-05 ), #103, 'distance_accuracy_value', 'NONE');
#189 = ORIENTED_EDGE ( 'NONE', *, *, #266, .T. ) ;
#190 = FACE_BOUND ( 'NONE', #38, .T. ) ;
#191 = ORIENTED_EDGE ( 'NONE', *, *, #95, .F. ) ;
#192 = AXIS2_PLACEMENT_3D ( 'NONE', #131, #129, #107 ) ;
#193 = CALENDAR_DATE ( 2022, 20, 6 ) ;
#194 = CARTESIAN_POINT ( 'NONE',  ( 0.000000000000000000, 0.000000000000000000, 10.00000000000000000 ) ) ;
#195 = CC_DESIGN_APPROVAL ( #80, ( #307 ) ) ;
#196 = COORDINATED_UNIVERSAL_TIME_OFFSET ( 1, 0, .AHEAD. ) ;
#197 = FACE_OUTER_BOUND ( 'NONE', #2, .T. ) ;
#198 = APPROVAL_DATE_TIME ( #73, #165 ) ;
#199 = DIRECTION ( 'NONE',  ( 1.000000000000000000, 0.000000000000000000, -0.000000000000000000 ) ) ;
#200 = ORIENTED_EDGE ( 'NONE', *, *, #256, .T. ) ;
#201 = CC_DESIGN_PERSON_AND_ORGANIZATION_ASSIGNMENT ( #156, #43, ( #157 ) ) ;
#202 = CARTESIAN_POINT ( 'NONE',  ( 12.50000000000000000, 1.530808498934191521E-15, 1210.000000000000000 ) ) ;
#203 = ADVANCED_FACE ( 'NONE', ( #94 ), #259, .T. ) ;
#204 = FACE_OUTER_BOUND ( 'NONE', #56, .T. ) ;
#205 = LOCAL_TIME ( 11, 17, 10.00000000000000000, #9 ) ;
#206 = CARTESIAN_POINT ( 'NONE',  ( 16.00000000000000000, 1.959434878635765131E-15, 10.00000000000000000 ) ) ;
#207 = DIRECTION ( 'NONE',  ( -0.000000000000000000, -0.000000000000000000, -1.000000000000000000 ) ) ;
#208 = ORIENTED_EDGE ( 'NONE', *, *, #279, .T. ) ;
#209 = AXIS2_PLACEMENT_3D ( 'NONE', #72, #295, #74 ) ;
#210 = LOCAL_TIME ( 11, 17, 10.00000000000000000, #93 ) ;
#211 = ADVANCED_FACE ( 'NONE', ( #77 ), #101, .T. ) ;
#212 = EDGE_CURVE ( 'NONE', #286, #92, #23, .T. ) ;
#213 = CIRCLE ( 'NONE', #260, 0.2000000000000005107 ) ;
#214 = VERTEX_POINT ( 'NONE', #151 ) ;
#215 = COORDINATED_UNIVERSAL_TIME_OFFSET ( 1, 0, .AHEAD. ) ;
#216 = DIRECTION ( 'NONE',  ( 0.000000000000000000, 0.000000000000000000, 1.000000000000000000 ) ) ;
#217 = PERSON_AND_ORGANIZATION_ROLE ( 'creator' ) ;
#218 = DIRECTION ( 'NONE',  ( -1.000000000000000000, 0.000000000000000000, 0.000000000000000000 ) ) ;
#219 = CIRCLE ( 'NONE', #238, 12.70000000000000107 ) ;
#220 = PERSON_AND_ORGANIZATION ( #67, #171 ) ;
#221 = CARTESIAN_POINT ( 'NONE',  ( 0.000000000000000000, 0.000000000000000000, 10.00000000000000000 ) ) ;
#222 = DIRECTION ( 'NONE',  ( 0.000000000000000000, 0.000000000000000000, 1.000000000000000000 ) ) ;
#223 = CYLINDRICAL_SURFACE ( 'NONE', #138, 16.00000000000000000 ) ;
#224 = DIRECTION ( 'NONE',  ( 1.000000000000000000, 0.000000000000000000, 0.000000000000000000 ) ) ;
#225 = CC_DESIGN_DATE_AND_TIME_ASSIGNMENT ( #271, #121, ( #68 ) ) ;
#226 =( NAMED_UNIT ( * ) SI_UNIT ( $, .STERADIAN. ) SOLID_ANGLE_UNIT ( ) );
#227 = PERSON_AND_ORGANIZATION_ROLE ( 'design_supplier' ) ;
#228 = ADVANCED_FACE ( 'NONE', ( #33 ), #122, .F. ) ;
#229 = EDGE_LOOP ( 'NONE', ( #160, #40, #168, #50 ) ) ;
#230 = AXIS2_PLACEMENT_3D ( 'NONE', #12, #105, #199 ) ;
#231 = AXIS2_PLACEMENT_3D ( 'NONE', #7, #97, #170 ) ;
#232 = FACE_OUTER_BOUND ( 'NONE', #290, .T. ) ;
#233 = CC_DESIGN_APPROVAL ( #237, ( #235 ) ) ;
#234 = PERSON_AND_ORGANIZATION ( #67, #171 ) ;
#235 = PRODUCT_DEFINITION_FORMATION_WITH_SPECIFIED_SOURCE ( 'LIBOVOLNÝ', '', #157, .NOT_KNOWN. ) ;
#236 = DIRECTION ( 'NONE',  ( 0.000000000000000000, 0.000000000000000000, 1.000000000000000000 ) ) ;
#237 = APPROVAL ( #177, 'NEURÈENÝ' ) ;
#238 = AXIS2_PLACEMENT_3D ( 'NONE', #184, #106, #110 ) ;
#239 = ORIENTED_EDGE ( 'NONE', *, *, #27, .F. ) ;
#240 = CARTESIAN_POINT ( 'NONE',  ( 0.000000000000000000, 0.000000000000000000, 1210.000000000000000 ) ) ;
#241 = ORIENTED_EDGE ( 'NONE', *, *, #120, .F. ) ;
#242 = CARTESIAN_POINT ( 'NONE',  ( 12.70000000000000107, 0.000000000000000000, 10.19999999999998685 ) ) ;
#243 = ORIENTED_EDGE ( 'NONE', *, *, #47, .T. ) ;
#244 = CARTESIAN_POINT ( 'NONE',  ( -16.00000000000000000, 0.000000000000000000, 10.00000000000000000 ) ) ;
#245 = CIRCLE ( 'NONE', #111, 12.50000000000000000 ) ;
#246 = APPROVAL_DATE_TIME ( #150, #80 ) ;
#247 = DIRECTION ( 'NONE',  ( 0.000000000000000000, 0.000000000000000000, 1.000000000000000000 ) ) ;
#248 = ADVANCED_BREP_SHAPE_REPRESENTATION ( 'dc91', ( #285, #86 ), #143 ) ;
#249 =( NAMED_UNIT ( * ) PLANE_ANGLE_UNIT ( ) SI_UNIT ( $, .RADIAN. ) );
#250 = CARTESIAN_POINT ( 'NONE',  ( 0.000000000000000000, 0.000000000000000000, 10.19999999999998685 ) ) ;
#251 = CARTESIAN_POINT ( 'NONE',  ( -16.00000000000000000, 0.000000000000000000, 10.00000000000000000 ) ) ;
#252 = AXIS2_PLACEMENT_3D ( 'NONE', #108, #64, #45 ) ;
#253 = ORIENTED_EDGE ( 'NONE', *, *, #27, .T. ) ;
#254 = APPROVAL_PERSON_ORGANIZATION ( #291, #237, #268 ) ;
#255 = CC_DESIGN_DATE_AND_TIME_ASSIGNMENT ( #294, #6, ( #307 ) ) ;
#256 = EDGE_CURVE ( 'NONE', #92, #85, #82, .T. ) ;
#257 = VECTOR ( 'NONE', #17, 1000.000000000000000 ) ;
#258 = ORIENTED_EDGE ( 'NONE', *, *, #102, .T. ) ;
#259 = CYLINDRICAL_SURFACE ( 'NONE', #169, 12.50000000000000000 ) ;
#260 = AXIS2_PLACEMENT_3D ( 'NONE', #15, #63, #273 ) ;
#261 = ORIENTED_EDGE ( 'NONE', *, *, #47, .F. ) ;
#262 = DIRECTION ( 'NONE',  ( 0.000000000000000000, 0.000000000000000000, -1.000000000000000000 ) ) ;
#263 = CIRCLE ( 'NONE', #55, 12.70000000000000107 ) ;
#264 = VERTEX_POINT ( 'NONE', #302 ) ;
#265 = PERSON_AND_ORGANIZATION_ROLE ( 'creator' ) ;
#266 = EDGE_CURVE ( 'NONE', #264, #214, #187, .T. ) ;
#267 = DIRECTION ( 'NONE',  ( 0.000000000000000000, 0.000000000000000000, 1.000000000000000000 ) ) ;
#268 = APPROVAL_ROLE ( '' ) ;
#269 = DIRECTION ( 'NONE',  ( 1.000000000000000000, 0.000000000000000000, 0.000000000000000000 ) ) ;
#270 = DIRECTION ( 'NONE',  ( 1.000000000000000000, 0.000000000000000000, 0.000000000000000000 ) ) ;
#271 = DATE_AND_TIME ( #128, #282 ) ;
#272 = CYLINDRICAL_SURFACE ( 'NONE', #284, 16.00000000000000000 ) ;
#273 = DIRECTION ( 'NONE',  ( -1.000000000000000000, 1.224646799147353207E-16, 0.000000000000000000 ) ) ;
#274 = CARTESIAN_POINT ( 'NONE',  ( -12.50000000000000000, 0.000000000000000000, 1210.000000000000000 ) ) ;
#275 = MECHANICAL_CONTEXT ( 'NONE', #25, 'mechanical' ) ;
#276 = ORIENTED_EDGE ( 'NONE', *, *, #161, .T. ) ;
#277 = PRODUCT_DEFINITION_SHAPE ( 'NONE', 'NONE',  #68 ) ;
#278 = EDGE_LOOP ( 'NONE', ( #71, #181, #185, #28 ) ) ;
#279 = EDGE_CURVE ( 'NONE', #30, #13, #46, .T. ) ;
#280 = CC_DESIGN_PERSON_AND_ORGANIZATION_ASSIGNMENT ( #14, #125, ( #307 ) ) ;
#281 = EDGE_CURVE ( 'NONE', #119, #305, #263, .T. ) ;
#282 = LOCAL_TIME ( 11, 17, 10.00000000000000000, #215 ) ;
#283 = APPLICATION_CONTEXT ( 'configuration controlled 3d designs of mechanical parts and assemblies' ) ;
#284 = AXIS2_PLACEMENT_3D ( 'NONE', #221, #288, #218 ) ;
#285 = MANIFOLD_SOLID_BREP ( 'Zaoblit1', #75 ) ;
#286 = VERTEX_POINT ( 'NONE', #274 ) ;
#287 = CC_DESIGN_PERSON_AND_ORGANIZATION_ASSIGNMENT ( #220, #265, ( #68 ) ) ;
#288 = DIRECTION ( 'NONE',  ( -0.000000000000000000, -0.000000000000000000, -1.000000000000000000 ) ) ;
#289 = CARTESIAN_POINT ( 'NONE',  ( -12.50000000000000000, 0.000000000000000000, 10.19999999999998685 ) ) ;
#290 = EDGE_LOOP ( 'NONE', ( #83, #191, #300, #239 ) ) ;
#291 = PERSON_AND_ORGANIZATION ( #67, #171 ) ;
#292 = DIRECTION ( 'NONE',  ( 1.000000000000000000, 0.000000000000000000, -0.000000000000000000 ) ) ;
#293 = DIRECTION ( 'NONE',  ( 0.000000000000000000, 0.000000000000000000, 1.000000000000000000 ) ) ;
#294 = DATE_AND_TIME ( #173, #24 ) ;
#295 = DIRECTION ( 'NONE',  ( 0.000000000000000000, 0.000000000000000000, 1.000000000000000000 ) ) ;
#296 = CARTESIAN_POINT ( 'NONE',  ( 12.50000000000000000, 1.530808498934191521E-15, 1210.000000000000000 ) ) ;
#297 = CALENDAR_DATE ( 2022, 20, 6 ) ;
#298 = PLANE ( 'NONE',  #114 ) ;
#299 = CARTESIAN_POINT ( 'NONE',  ( 0.000000000000000000, 0.000000000000000000, 10.00000000000000000 ) ) ;
#300 = ORIENTED_EDGE ( 'NONE', *, *, #137, .T. ) ;
#301 = APPROVAL_PERSON_ORGANIZATION ( #234, #165, #109 ) ;
#302 = CARTESIAN_POINT ( 'NONE',  ( -16.00000000000000000, 0.000000000000000000, 0.000000000000000000 ) ) ;
#303 = LINE ( 'NONE', #88, #257 ) ;
#304 = DIRECTION ( 'NONE',  ( 1.000000000000000000, 0.000000000000000000, 0.000000000000000000 ) ) ;
#305 = VERTEX_POINT ( 'NONE', #81 ) ;
#306 = ADVANCED_FACE ( 'NONE', ( #204 ), #152, .T. ) ;
#307 = SECURITY_CLASSIFICATION ( '', '', #76 ) ;
ENDSEC;
END-ISO-10303-21;
