ISO-10303-21;
HEADER;
FILE_DESCRIPTION (( 'STEP AP203' ),
    '1' );
FILE_NAME ('cc93.STEP',
    '2022-06-20T09:19:26',
    ( '' ),
    ( '' ),
    'SwSTEP 2.0',
    'SolidWorks 2019',
    '' );
FILE_SCHEMA (( 'CONFIG_CONTROL_DESIGN' ));
ENDSEC;

DATA;
#1 = PERSON_AND_ORGANIZATION ( #213, #78 ) ;
#2 = ADVANCED_FACE ( 'NONE', ( #267 ), #302, .F. ) ;
#3 = VERTEX_POINT ( 'NONE', #196 ) ;
#4 = VECTOR ( 'NONE', #241, 1000.000000000000000 ) ;
#5 = ORIENTED_EDGE ( 'NONE', *, *, #226, .F. ) ;
#6 = ADVANCED_FACE ( 'NONE', ( #269 ), #294, .T. ) ;
#7 = ORIENTED_EDGE ( 'NONE', *, *, #46, .T. ) ;
#8 = CARTESIAN_POINT ( 'NONE',  ( -10.20000000000000107, 1.249139735130300365E-15, 8.199999999999985079 ) ) ;
#9 = ORIENTED_EDGE ( 'NONE', *, *, #144, .F. ) ;
#10 = CARTESIAN_POINT ( 'NONE',  ( 0.000000000000000000, 0.000000000000000000, 8.000000000000000000 ) ) ;
#11 = ORIENTED_EDGE ( 'NONE', *, *, #74, .F. ) ;
#12 = CC_DESIGN_APPROVAL ( #288, ( #301 ) ) ;
#13 = CARTESIAN_POINT ( 'NONE',  ( 0.000000000000000000, 0.000000000000000000, 0.000000000000000000 ) ) ;
#14 = DIRECTION ( 'NONE',  ( 0.000000000000000000, -1.000000000000000000, 0.000000000000000000 ) ) ;
#15 = PERSON_AND_ORGANIZATION ( #213, #78 ) ;
#16 = CARTESIAN_POINT ( 'NONE',  ( 0.000000000000000000, 0.000000000000000000, 8.199999999999985079 ) ) ;
#17 = APPLICATION_CONTEXT ( 'configuration controlled 3d designs of mechanical parts and assemblies' ) ;
#18 = FACE_OUTER_BOUND ( 'NONE', #73, .T. ) ;
#19 = CIRCLE ( 'NONE', #231, 0.2000000000000005107 ) ;
#20 = DIRECTION ( 'NONE',  ( 1.000000000000000000, 0.000000000000000000, 0.000000000000000000 ) ) ;
#21 = CC_DESIGN_PERSON_AND_ORGANIZATION_ASSIGNMENT ( #1, #95, ( #301 ) ) ;
#22 = ORIENTED_EDGE ( 'NONE', *, *, #156, .F. ) ;
#23 = CIRCLE ( 'NONE', #200, 10.00000000000000000 ) ;
#24 = ADVANCED_FACE ( 'NONE', ( #223 ), #107, .T. ) ;
#25 = ORIENTED_EDGE ( 'NONE', *, *, #186, .F. ) ;
#26 = DIRECTION ( 'NONE',  ( 0.000000000000000000, 0.000000000000000000, -1.000000000000000000 ) ) ;
#27 = AXIS2_PLACEMENT_3D ( 'NONE', #57, #130, #132 ) ;
#28 = VERTEX_POINT ( 'NONE', #109 ) ;
#29 = CARTESIAN_POINT ( 'NONE',  ( 0.000000000000000000, 0.000000000000000000, 8.199999999999985079 ) ) ;
#30 = PRODUCT_DEFINITION_SHAPE ( 'NONE', 'NONE',  #210 ) ;
#31 = DIRECTION ( 'NONE',  ( 1.000000000000000000, 0.000000000000000000, 0.000000000000000000 ) ) ;
#32 = COORDINATED_UNIVERSAL_TIME_OFFSET ( 1, 0, .AHEAD. ) ;
#33 = ORIENTED_EDGE ( 'NONE', *, *, #216, .T. ) ;
#34 = ORIENTED_EDGE ( 'NONE', *, *, #216, .F. ) ;
#35 = CIRCLE ( 'NONE', #98, 10.00000000000000000 ) ;
#36 = CC_DESIGN_DATE_AND_TIME_ASSIGNMENT ( #49, #104, ( #301 ) ) ;
#37 = DIRECTION ( 'NONE',  ( 0.000000000000000000, 0.000000000000000000, 1.000000000000000000 ) ) ;
#38 = DIRECTION ( 'NONE',  ( 0.000000000000000000, 0.000000000000000000, 1.000000000000000000 ) ) ;
#39 = CARTESIAN_POINT ( 'NONE',  ( -10.20000000000000107, 1.249139735130300365E-15, 7.999999999999992895 ) ) ;
#40 = DIRECTION ( 'NONE',  ( 0.000000000000000000, 0.000000000000000000, 1.000000000000000000 ) ) ;
#41 = ADVANCED_FACE ( 'NONE', ( #201 ), #62, .T. ) ;
#42 = DIRECTION ( 'NONE',  ( 1.000000000000000000, 0.000000000000000000, 0.000000000000000000 ) ) ;
#43 = AXIS2_PLACEMENT_3D ( 'NONE', #13, #110, #251 ) ;
#44 = CALENDAR_DATE ( 2022, 20, 6 ) ;
#45 = APPROVAL_ROLE ( '' ) ;
#46 = EDGE_CURVE ( 'NONE', #197, #298, #178, .T. ) ;
#47 = VECTOR ( 'NONE', #299, 1000.000000000000000 ) ;
#48 = EDGE_LOOP ( 'NONE', ( #151, #193 ) ) ;
#49 = DATE_AND_TIME ( #264, #284 ) ;
#50 = AXIS2_PLACEMENT_3D ( 'NONE', #278, #135, #20 ) ;
#51 = EDGE_LOOP ( 'NONE', ( #22, #70, #55, #219 ) ) ;
#52 = DIRECTION ( 'NONE',  ( -1.000000000000000000, 0.000000000000000000, 0.000000000000000000 ) ) ;
#53 = CIRCLE ( 'NONE', #50, 10.00000000000000000 ) ;
#54 = APPROVAL_STATUS ( 'not_yet_approved' ) ;
#55 = ORIENTED_EDGE ( 'NONE', *, *, #121, .T. ) ;
#56 = CARTESIAN_POINT ( 'NONE',  ( 10.00000000000000000, 1.224646799147353256E-15, 1008.000000000000000 ) ) ;
#57 = CARTESIAN_POINT ( 'NONE',  ( 0.000000000000000000, 0.000000000000000000, 1008.000000000000000 ) ) ;
#58 = EDGE_CURVE ( 'NONE', #221, #28, #272, .T. ) ;
#59 = DIRECTION ( 'NONE',  ( -0.000000000000000000, -0.000000000000000000, -1.000000000000000000 ) ) ;
#60 = DIRECTION ( 'NONE',  ( 0.000000000000000000, 0.000000000000000000, 1.000000000000000000 ) ) ;
#61 = AXIS2_PLACEMENT_3D ( 'NONE', #300, #304, #206 ) ;
#62 = CYLINDRICAL_SURFACE ( 'NONE', #285, 10.00000000000000000 ) ;
#63 = AXIS2_PLACEMENT_3D ( 'NONE', #8, #80, #105 ) ;
#64 = DIRECTION ( 'NONE',  ( -0.000000000000000000, -0.000000000000000000, -1.000000000000000000 ) ) ;
#65 = CC_DESIGN_PERSON_AND_ORGANIZATION_ASSIGNMENT ( #15, #205, ( #167 ) ) ;
#66 = FACE_BOUND ( 'NONE', #48, .T. ) ;
#67 = DATE_AND_TIME ( #118, #261 ) ;
#68 = CC_DESIGN_APPROVAL ( #283, ( #210 ) ) ;
#69 = AXIS2_PLACEMENT_3D ( 'NONE', #75, #79, #145 ) ;
#70 = ORIENTED_EDGE ( 'NONE', *, *, #263, .T. ) ;
#71 = CC_DESIGN_PERSON_AND_ORGANIZATION_ASSIGNMENT ( #162, #282, ( #125 ) ) ;
#72 = ORIENTED_EDGE ( 'NONE', *, *, #129, .F. ) ;
#73 = EDGE_LOOP ( 'NONE', ( #102, #286, #25, #11 ) ) ;
#74 = EDGE_CURVE ( 'NONE', #262, #199, #19, .T. ) ;
#75 = CARTESIAN_POINT ( 'NONE',  ( 0.000000000000000000, 0.000000000000000000, 8.000000000000000000 ) ) ;
#76 = EDGE_LOOP ( 'NONE', ( #97, #9, #149, #101 ) ) ;
#77 = CARTESIAN_POINT ( 'NONE',  ( 10.20000000000000107, 0.000000000000000000, 7.999999999999992895 ) ) ;
#78 = ORGANIZATION ( 'NEURÈENÝ', 'NEURÈENÝ', '' ) ;
#79 = DIRECTION ( 'NONE',  ( -0.000000000000000000, -0.000000000000000000, -1.000000000000000000 ) ) ;
#80 = DIRECTION ( 'NONE',  ( 1.224646799147353207E-16, 1.000000000000000000, -0.000000000000000000 ) ) ;
#81 = ORIENTED_EDGE ( 'NONE', *, *, #58, .T. ) ;
#82 = DIRECTION ( 'NONE',  ( 1.000000000000000000, 0.000000000000000000, -0.000000000000000000 ) ) ;
#83 = ORIENTED_EDGE ( 'NONE', *, *, #292, .F. ) ;
#84 =( LENGTH_UNIT ( ) NAMED_UNIT ( * ) SI_UNIT ( .MILLI., .METRE. ) );
#85 = APPROVAL_PERSON_ORGANIZATION ( #305, #283, #45 ) ;
#86 = DIRECTION ( 'NONE',  ( 0.000000000000000000, 0.000000000000000000, 1.000000000000000000 ) ) ;
#87 = CC_DESIGN_PERSON_AND_ORGANIZATION_ASSIGNMENT ( #163, #141, ( #125 ) ) ;
#88 = DIRECTION ( 'NONE',  ( 0.000000000000000000, 0.000000000000000000, 1.000000000000000000 ) ) ;
#89 = CALENDAR_DATE ( 2022, 20, 6 ) ;
#90 = CARTESIAN_POINT ( 'NONE',  ( 0.000000000000000000, 0.000000000000000000, 8.000000000000000000 ) ) ;
#91 = APPROVAL_STATUS ( 'not_yet_approved' ) ;
#92 = APPLICATION_CONTEXT ( 'configuration controlled 3d designs of mechanical parts and assemblies' ) ;
#93 = APPROVAL_ROLE ( '' ) ;
#94 = APPROVAL ( #158, 'NEURÈENÝ' ) ;
#95 = PERSON_AND_ORGANIZATION_ROLE ( 'classification_officer' ) ;
#96 = AXIS2_PLACEMENT_3D ( 'NONE', #138, #116, #250 ) ;
#97 = ORIENTED_EDGE ( 'NONE', *, *, #46, .F. ) ;
#98 = AXIS2_PLACEMENT_3D ( 'NONE', #209, #40, #212 ) ;
#99 = CC_DESIGN_PERSON_AND_ORGANIZATION_ASSIGNMENT ( #233, #139, ( #210 ) ) ;
#100 = ORIENTED_EDGE ( 'NONE', *, *, #144, .T. ) ;
#101 = ORIENTED_EDGE ( 'NONE', *, *, #129, .T. ) ;
#102 = ORIENTED_EDGE ( 'NONE', *, *, #166, .F. ) ;
#103 = ADVANCED_FACE ( 'NONE', ( #124 ), #157, .T. ) ;
#104 = DATE_TIME_ROLE ( 'classification_date' ) ;
#105 = DIRECTION ( 'NONE',  ( -1.000000000000000000, 1.224646799147353207E-16, 0.000000000000000000 ) ) ;
#106 = APPROVAL_PERSON_ORGANIZATION ( #190, #94, #93 ) ;
#107 = CYLINDRICAL_SURFACE ( 'NONE', #69, 13.00000000000000178 ) ;
#108 = MECHANICAL_CONTEXT ( 'NONE', #17, 'mechanical' ) ;
#109 = CARTESIAN_POINT ( 'NONE',  ( -10.00000000000000000, 0.000000000000000000, 8.199999999999985079 ) ) ;
#110 = DIRECTION ( 'NONE',  ( 0.000000000000000000, 0.000000000000000000, 1.000000000000000000 ) ) ;
#111 = DIRECTION ( 'NONE',  ( 0.000000000000000000, 0.000000000000000000, 1.000000000000000000 ) ) ;
#112 =( GEOMETRIC_REPRESENTATION_CONTEXT ( 3 ) GLOBAL_UNCERTAINTY_ASSIGNED_CONTEXT ( ( #257 ) ) GLOBAL_UNIT_ASSIGNED_CONTEXT ( ( #84, #271, #245 ) ) REPRESENTATION_CONTEXT ( 'NONE', 'WORKASPACE' ) );
#113 = CARTESIAN_POINT ( 'NONE',  ( 0.000000000000000000, 0.000000000000000000, 8.000000000000000000 ) ) ;
#114 = VECTOR ( 'NONE', #59, 1000.000000000000000 ) ;
#115 = MANIFOLD_SOLID_BREP ( 'Zaoblit1', #126 ) ;
#116 = DIRECTION ( 'NONE',  ( 0.000000000000000000, 0.000000000000000000, 1.000000000000000000 ) ) ;
#117 = EDGE_CURVE ( 'NONE', #244, #199, #123, .T. ) ;
#118 = CALENDAR_DATE ( 2022, 20, 6 ) ;
#119 = CIRCLE ( 'NONE', #161, 13.00000000000000178 ) ;
#120 = SECURITY_CLASSIFICATION_LEVEL ( 'unclassified' ) ;
#121 = EDGE_CURVE ( 'NONE', #262, #28, #35, .T. ) ;
#122 = ORIENTED_EDGE ( 'NONE', *, *, #166, .T. ) ;
#123 = CIRCLE ( 'NONE', #295, 10.20000000000000107 ) ;
#124 = FACE_OUTER_BOUND ( 'NONE', #225, .T. ) ;
#125 = PRODUCT_DEFINITION_FORMATION_WITH_SPECIFIED_SOURCE ( 'LIBOVOLNÝ', '', #167, .NOT_KNOWN. ) ;
#126 = CLOSED_SHELL ( 'NONE', ( #142, #41, #259, #24, #160, #203, #103, #6, #2 ) ) ;
#127 = EDGE_LOOP ( 'NONE', ( #100, #33 ) ) ;
#128 = FACE_OUTER_BOUND ( 'NONE', #217, .T. ) ;
#129 = EDGE_CURVE ( 'NONE', #265, #298, #119, .T. ) ;
#130 = DIRECTION ( 'NONE',  ( 0.000000000000000000, 0.000000000000000000, 1.000000000000000000 ) ) ;
#131 = CARTESIAN_POINT ( 'NONE',  ( 13.00000000000000178, 1.592040838891559293E-15, 8.000000000000000000 ) ) ;
#132 = DIRECTION ( 'NONE',  ( 1.000000000000000000, 0.000000000000000000, -0.000000000000000000 ) ) ;
#133 = LOCAL_TIME ( 11, 19, 26.00000000000000000, #32 ) ;
#134 = ORIENTED_EDGE ( 'NONE', *, *, #156, .T. ) ;
#135 = DIRECTION ( 'NONE',  ( 0.000000000000000000, 0.000000000000000000, 1.000000000000000000 ) ) ;
#136 = APPLICATION_PROTOCOL_DEFINITION ( 'international standard', 'config_control_design', 1994, #17 ) ;
#137 = CARTESIAN_POINT ( 'NONE',  ( 0.000000000000000000, 0.000000000000000000, 0.000000000000000000 ) ) ;
#138 = CARTESIAN_POINT ( 'NONE',  ( 0.000000000000000000, 0.000000000000000000, 8.000000000000000000 ) ) ;
#139 = PERSON_AND_ORGANIZATION_ROLE ( 'creator' ) ;
#140 = AXIS2_PLACEMENT_3D ( 'NONE', #276, #88, #198 ) ;
#141 = PERSON_AND_ORGANIZATION_ROLE ( 'design_supplier' ) ;
#142 = ADVANCED_FACE ( 'NONE', ( #18 ), #247, .F. ) ;
#143 = LOCAL_TIME ( 11, 19, 26.00000000000000000, #187 ) ;
#144 = EDGE_CURVE ( 'NONE', #204, #197, #230, .T. ) ;
#145 = DIRECTION ( 'NONE',  ( -1.000000000000000000, 0.000000000000000000, 0.000000000000000000 ) ) ;
#146 = CARTESIAN_POINT ( 'NONE',  ( 10.00000000000000000, 1.224646799147353256E-15, 8.199999999999985079 ) ) ;
#147 = PRODUCT_RELATED_PRODUCT_CATEGORY ( 'detail', '', ( #167 ) ) ;
#148 = VECTOR ( 'NONE', #246, 1000.000000000000000 ) ;
#149 = ORIENTED_EDGE ( 'NONE', *, *, #280, .T. ) ;
#150 = CARTESIAN_POINT ( 'NONE',  ( -13.00000000000000178, 0.000000000000000000, 8.000000000000000000 ) ) ;
#151 = ORIENTED_EDGE ( 'NONE', *, *, #186, .T. ) ;
#152 = CARTESIAN_POINT ( 'NONE',  ( 0.000000000000000000, 0.000000000000000000, 8.000000000000000000 ) ) ;
#153 = CARTESIAN_POINT ( 'NONE',  ( -10.00000000000000000, 0.000000000000000000, 1008.000000000000000 ) ) ;
#154 = CARTESIAN_POINT ( 'NONE',  ( 13.00000000000000178, 1.592040838891559293E-15, 0.000000000000000000 ) ) ;
#155 = DIRECTION ( 'NONE',  ( 0.000000000000000000, 0.000000000000000000, 1.000000000000000000 ) ) ;
#156 = EDGE_CURVE ( 'NONE', #3, #221, #53, .T. ) ;
#157 = CYLINDRICAL_SURFACE ( 'NONE', #188, 10.00000000000000000 ) ;
#158 = APPROVAL_STATUS ( 'not_yet_approved' ) ;
#159 = FACE_OUTER_BOUND ( 'NONE', #127, .T. ) ;
#160 = ADVANCED_FACE ( 'NONE', ( #66, #159 ), #254, .T. ) ;
#161 = AXIS2_PLACEMENT_3D ( 'NONE', #137, #38, #229 ) ;
#162 = PERSON_AND_ORGANIZATION ( #213, #78 ) ;
#163 = PERSON_AND_ORGANIZATION ( #213, #78 ) ;
#164 = AXIS2_PLACEMENT_3D ( 'NONE', #29, #176, #238 ) ;
#165 = ORIENTED_EDGE ( 'NONE', *, *, #280, .F. ) ;
#166 = EDGE_CURVE ( 'NONE', #28, #262, #23, .T. ) ;
#167 = PRODUCT ( 'cc93', 'cc93', '', ( #108 ) ) ;
#168 = ADVANCED_BREP_SHAPE_REPRESENTATION ( 'cc93', ( #115, #43 ), #112 ) ;
#169 = AXIS2_PLACEMENT_3D ( 'NONE', #275, #202, #181 ) ;
#170 = ORIENTED_EDGE ( 'NONE', *, *, #263, .F. ) ;
#171 = EDGE_LOOP ( 'NONE', ( #72, #240 ) ) ;
#172 = ORIENTED_EDGE ( 'NONE', *, *, #236, .T. ) ;
#173 = PERSON_AND_ORGANIZATION ( #213, #78 ) ;
#174 = AXIS2_PLACEMENT_3D ( 'NONE', #152, #222, #248 ) ;
#175 = CARTESIAN_POINT ( 'NONE',  ( 0.000000000000000000, 0.000000000000000000, 0.000000000000000000 ) ) ;
#176 = DIRECTION ( 'NONE',  ( 0.000000000000000000, 0.000000000000000000, 1.000000000000000000 ) ) ;
#177 = CARTESIAN_POINT ( 'NONE',  ( -13.00000000000000178, 0.000000000000000000, 8.000000000000000000 ) ) ;
#178 = LINE ( 'NONE', #270, #114 ) ;
#179 = CYLINDRICAL_SURFACE ( 'NONE', #174, 13.00000000000000178 ) ;
#180 = ORIENTED_EDGE ( 'NONE', *, *, #121, .F. ) ;
#181 = DIRECTION ( 'NONE',  ( 1.000000000000000000, 0.000000000000000000, 0.000000000000000000 ) ) ;
#182 = AXIS2_PLACEMENT_3D ( 'NONE', #113, #155, #228 ) ;
#183 = DIRECTION ( 'NONE',  ( 1.000000000000000000, 0.000000000000000000, 0.000000000000000000 ) ) ;
#184 = CARTESIAN_POINT ( 'NONE',  ( -13.00000000000000178, 0.000000000000000000, 0.000000000000000000 ) ) ;
#185 = DIRECTION ( 'NONE',  ( -0.000000000000000000, -0.000000000000000000, -1.000000000000000000 ) ) ;
#186 = EDGE_CURVE ( 'NONE', #199, #244, #192, .T. ) ;
#187 = COORDINATED_UNIVERSAL_TIME_OFFSET ( 1, 0, .AHEAD. ) ;
#188 = AXIS2_PLACEMENT_3D ( 'NONE', #252, #64, #232 ) ;
#189 = CALENDAR_DATE ( 2022, 20, 6 ) ;
#190 = PERSON_AND_ORGANIZATION ( #213, #78 ) ;
#191 = COORDINATED_UNIVERSAL_TIME_OFFSET ( 1, 0, .AHEAD. ) ;
#192 = CIRCLE ( 'NONE', #169, 10.20000000000000107 ) ;
#193 = ORIENTED_EDGE ( 'NONE', *, *, #117, .T. ) ;
#194 = CIRCLE ( 'NONE', #268, 13.00000000000000178 ) ;
#195 = APPROVAL_PERSON_ORGANIZATION ( #173, #288, #239 ) ;
#196 = CARTESIAN_POINT ( 'NONE',  ( 10.00000000000000000, 1.224646799147353256E-15, 1008.000000000000000 ) ) ;
#197 = VERTEX_POINT ( 'NONE', #131 ) ;
#198 = DIRECTION ( 'NONE',  ( 1.000000000000000000, 0.000000000000000000, 0.000000000000000000 ) ) ;
#199 = VERTEX_POINT ( 'NONE', #77 ) ;
#200 = AXIS2_PLACEMENT_3D ( 'NONE', #16, #86, #183 ) ;
#201 = FACE_OUTER_BOUND ( 'NONE', #51, .T. ) ;
#202 = DIRECTION ( 'NONE',  ( -0.000000000000000000, -0.000000000000000000, -1.000000000000000000 ) ) ;
#203 = ADVANCED_FACE ( 'NONE', ( #243 ), #224, .F. ) ;
#204 = VERTEX_POINT ( 'NONE', #150 ) ;
#205 = PERSON_AND_ORGANIZATION_ROLE ( 'design_owner' ) ;
#206 = DIRECTION ( 'NONE',  ( 1.000000000000000000, 0.000000000000000000, 0.000000000000000000 ) ) ;
#207 = CARTESIAN_POINT ( 'NONE',  ( 0.000000000000000000, 0.000000000000000000, 0.000000000000000000 ) ) ;
#208 = CC_DESIGN_SECURITY_CLASSIFICATION ( #301, ( #125 ) ) ;
#209 = CARTESIAN_POINT ( 'NONE',  ( 0.000000000000000000, 0.000000000000000000, 8.199999999999985079 ) ) ;
#210 = PRODUCT_DEFINITION ( 'NEZNÁMÝ', '', #125, #211 ) ;
#211 = DESIGN_CONTEXT ( 'detailed design', #92, 'design' ) ;
#212 = DIRECTION ( 'NONE',  ( 1.000000000000000000, 0.000000000000000000, 0.000000000000000000 ) ) ;
#213 = PERSON ( 'NEURÈENÝ', 'NEURÈENÝ', 'NEURÈENÝ', ('NEURÈENÝ'), ('NEURÈENÝ'), ('NEURÈENÝ') ) ;
#214 = APPROVAL_DATE_TIME ( #306, #283 ) ;
#215 = AXIS2_PLACEMENT_3D ( 'NONE', #207, #60, #82 ) ;
#216 = EDGE_CURVE ( 'NONE', #197, #204, #289, .T. ) ;
#217 = EDGE_LOOP ( 'NONE', ( #34, #7, #172, #165 ) ) ;
#218 = ORIENTED_EDGE ( 'NONE', *, *, #74, .T. ) ;
#219 = ORIENTED_EDGE ( 'NONE', *, *, #58, .F. ) ;
#220 = CC_DESIGN_DATE_AND_TIME_ASSIGNMENT ( #67, #307, ( #210 ) ) ;
#221 = VERTEX_POINT ( 'NONE', #296 ) ;
#222 = DIRECTION ( 'NONE',  ( -0.000000000000000000, -0.000000000000000000, -1.000000000000000000 ) ) ;
#223 = FACE_OUTER_BOUND ( 'NONE', #76, .T. ) ;
#224 = PLANE ( 'NONE',  #215 ) ;
#225 = EDGE_LOOP ( 'NONE', ( #170, #5, #81, #122 ) ) ;
#226 = EDGE_CURVE ( 'NONE', #221, #3, #273, .T. ) ;
#227 = CARTESIAN_POINT ( 'NONE',  ( 10.20000000000000107, 0.000000000000000000, 8.199999999999985079 ) ) ;
#228 = DIRECTION ( 'NONE',  ( 1.000000000000000000, 0.000000000000000000, 0.000000000000000000 ) ) ;
#229 = DIRECTION ( 'NONE',  ( 1.000000000000000000, 0.000000000000000000, 0.000000000000000000 ) ) ;
#230 = CIRCLE ( 'NONE', #182, 13.00000000000000178 ) ;
#231 = AXIS2_PLACEMENT_3D ( 'NONE', #227, #14, #26 ) ;
#232 = DIRECTION ( 'NONE',  ( -1.000000000000000000, 0.000000000000000000, 0.000000000000000000 ) ) ;
#233 = PERSON_AND_ORGANIZATION ( #213, #78 ) ;
#234 = AXIS2_PLACEMENT_3D ( 'NONE', #10, #37, #31 ) ;
#235 = APPLICATION_PROTOCOL_DEFINITION ( 'international standard', 'config_control_design', 1994, #92 ) ;
#236 = EDGE_CURVE ( 'NONE', #298, #265, #194, .T. ) ;
#237 = CIRCLE ( 'NONE', #63, 0.2000000000000005107 ) ;
#238 = DIRECTION ( 'NONE',  ( 1.000000000000000000, 0.000000000000000000, 0.000000000000000000 ) ) ;
#239 = APPROVAL_ROLE ( '' ) ;
#240 = ORIENTED_EDGE ( 'NONE', *, *, #236, .F. ) ;
#241 = DIRECTION ( 'NONE',  ( -0.000000000000000000, -0.000000000000000000, -1.000000000000000000 ) ) ;
#242 = ORIENTED_EDGE ( 'NONE', *, *, #226, .T. ) ;
#243 = FACE_OUTER_BOUND ( 'NONE', #171, .T. ) ;
#244 = VERTEX_POINT ( 'NONE', #39 ) ;
#245 =( NAMED_UNIT ( * ) SI_UNIT ( $, .STERADIAN. ) SOLID_ANGLE_UNIT ( ) );
#246 = DIRECTION ( 'NONE',  ( -0.000000000000000000, -0.000000000000000000, -1.000000000000000000 ) ) ;
#247 = TOROIDAL_SURFACE ( 'NONE', #61, 10.20000000000000107, 0.2000000000000000111 ) ;
#248 = DIRECTION ( 'NONE',  ( -1.000000000000000000, 0.000000000000000000, 0.000000000000000000 ) ) ;
#249 = DATE_AND_TIME ( #89, #133 ) ;
#250 = DIRECTION ( 'NONE',  ( 1.000000000000000000, 0.000000000000000000, -0.000000000000000000 ) ) ;
#251 = DIRECTION ( 'NONE',  ( 1.000000000000000000, 0.000000000000000000, 0.000000000000000000 ) ) ;
#252 = CARTESIAN_POINT ( 'NONE',  ( 0.000000000000000000, 0.000000000000000000, 1008.000000000000000 ) ) ;
#253 = COORDINATED_UNIVERSAL_TIME_OFFSET ( 1, 0, .AHEAD. ) ;
#254 = PLANE ( 'NONE',  #96 ) ;
#255 = APPROVAL_DATE_TIME ( #281, #94 ) ;
#256 = LOCAL_TIME ( 11, 19, 26.00000000000000000, #260 ) ;
#257 = UNCERTAINTY_MEASURE_WITH_UNIT (LENGTH_MEASURE( 1.000000000000000082E-05 ), #84, 'distance_accuracy_value', 'NONE');
#258 = SHAPE_DEFINITION_REPRESENTATION ( #30, #168 ) ;
#259 = ADVANCED_FACE ( 'NONE', ( #128 ), #179, .T. ) ;
#260 = COORDINATED_UNIVERSAL_TIME_OFFSET ( 1, 0, .AHEAD. ) ;
#261 = LOCAL_TIME ( 11, 19, 26.00000000000000000, #191 ) ;
#262 = VERTEX_POINT ( 'NONE', #146 ) ;
#263 = EDGE_CURVE ( 'NONE', #3, #262, #293, .T. ) ;
#264 = CALENDAR_DATE ( 2022, 20, 6 ) ;
#265 = VERTEX_POINT ( 'NONE', #184 ) ;
#266 = CARTESIAN_POINT ( 'NONE',  ( 0.000000000000000000, 0.000000000000000000, 1008.000000000000000 ) ) ;
#267 = FACE_OUTER_BOUND ( 'NONE', #287, .T. ) ;
#268 = AXIS2_PLACEMENT_3D ( 'NONE', #175, #111, #274 ) ;
#269 = FACE_OUTER_BOUND ( 'NONE', #291, .T. ) ;
#270 = CARTESIAN_POINT ( 'NONE',  ( 13.00000000000000178, 1.592040838891559293E-15, 8.000000000000000000 ) ) ;
#271 =( NAMED_UNIT ( * ) PLANE_ANGLE_UNIT ( ) SI_UNIT ( $, .RADIAN. ) );
#272 = LINE ( 'NONE', #153, #148 ) ;
#273 = CIRCLE ( 'NONE', #140, 10.00000000000000000 ) ;
#274 = DIRECTION ( 'NONE',  ( 1.000000000000000000, 0.000000000000000000, 0.000000000000000000 ) ) ;
#275 = CARTESIAN_POINT ( 'NONE',  ( 0.000000000000000000, 0.000000000000000000, 8.000000000000000000 ) ) ;
#276 = CARTESIAN_POINT ( 'NONE',  ( 0.000000000000000000, 0.000000000000000000, 1008.000000000000000 ) ) ;
#277 = APPROVAL_DATE_TIME ( #249, #288 ) ;
#278 = CARTESIAN_POINT ( 'NONE',  ( 0.000000000000000000, 0.000000000000000000, 1008.000000000000000 ) ) ;
#279 = CC_DESIGN_APPROVAL ( #94, ( #125 ) ) ;
#280 = EDGE_CURVE ( 'NONE', #204, #265, #303, .T. ) ;
#281 = DATE_AND_TIME ( #189, #256 ) ;
#282 = PERSON_AND_ORGANIZATION_ROLE ( 'creator' ) ;
#283 = APPROVAL ( #91, 'NEURÈENÝ' ) ;
#284 = LOCAL_TIME ( 11, 19, 26.00000000000000000, #253 ) ;
#285 = AXIS2_PLACEMENT_3D ( 'NONE', #266, #297, #52 ) ;
#286 = ORIENTED_EDGE ( 'NONE', *, *, #292, .T. ) ;
#287 = EDGE_LOOP ( 'NONE', ( #83, #180, #218, #290 ) ) ;
#288 = APPROVAL ( #54, 'NEURÈENÝ' ) ;
#289 = CIRCLE ( 'NONE', #234, 13.00000000000000178 ) ;
#290 = ORIENTED_EDGE ( 'NONE', *, *, #117, .F. ) ;
#291 = EDGE_LOOP ( 'NONE', ( #242, #134 ) ) ;
#292 = EDGE_CURVE ( 'NONE', #28, #244, #237, .T. ) ;
#293 = LINE ( 'NONE', #56, #4 ) ;
#294 = PLANE ( 'NONE',  #27 ) ;
#295 = AXIS2_PLACEMENT_3D ( 'NONE', #90, #185, #42 ) ;
#296 = CARTESIAN_POINT ( 'NONE',  ( -10.00000000000000000, 0.000000000000000000, 1008.000000000000000 ) ) ;
#297 = DIRECTION ( 'NONE',  ( -0.000000000000000000, -0.000000000000000000, -1.000000000000000000 ) ) ;
#298 = VERTEX_POINT ( 'NONE', #154 ) ;
#299 = DIRECTION ( 'NONE',  ( -0.000000000000000000, -0.000000000000000000, -1.000000000000000000 ) ) ;
#300 = CARTESIAN_POINT ( 'NONE',  ( 0.000000000000000000, 0.000000000000000000, 8.199999999999985079 ) ) ;
#301 = SECURITY_CLASSIFICATION ( '', '', #120 ) ;
#302 = TOROIDAL_SURFACE ( 'NONE', #164, 10.20000000000000107, 0.2000000000000000111 ) ;
#303 = LINE ( 'NONE', #177, #47 ) ;
#304 = DIRECTION ( 'NONE',  ( 0.000000000000000000, 0.000000000000000000, 1.000000000000000000 ) ) ;
#305 = PERSON_AND_ORGANIZATION ( #213, #78 ) ;
#306 = DATE_AND_TIME ( #44, #143 ) ;
#307 = DATE_TIME_ROLE ( 'creation_date' ) ;
ENDSEC;
END-ISO-10303-21;
