ISO-10303-21;
HEADER;
FILE_DESCRIPTION (( 'STEP AP203' ),
    '1' );
FILE_NAME ('6ac2.STEP',
    '2022-06-20T10:25:52',
    ( '' ),
    ( '' ),
    'SwSTEP 2.0',
    'SolidWorks 2019',
    '' );
FILE_SCHEMA (( 'CONFIG_CONTROL_DESIGN' ));
ENDSEC;

DATA;
#1 = ORIENTED_EDGE ( 'NONE', *, *, #222, .T. ) ;
#2 = DIRECTION ( 'NONE',  ( 0.000000000000000000, 0.000000000000000000, 1.000000000000000000 ) ) ;
#3 = CLOSED_SHELL ( 'NONE', ( #232, #90, #147, #126, #164, #305, #177, #212, #108 ) ) ;
#4 = CIRCLE ( 'NONE', #150, 0.1999999999999999833 ) ;
#5 = CARTESIAN_POINT ( 'NONE',  ( 0.000000000000000000, 0.000000000000000000, 1.199999999999999956 ) ) ;
#6 = PLANE ( 'NONE',  #246 ) ;
#7 = EDGE_CURVE ( 'NONE', #23, #226, #172, .T. ) ;
#8 = DIRECTION ( 'NONE',  ( 0.000000000000000000, 0.000000000000000000, 1.000000000000000000 ) ) ;
#9 = AXIS2_PLACEMENT_3D ( 'NONE', #5, #2, #193 ) ;
#10 = EDGE_LOOP ( 'NONE', ( #35, #48, #221, #173 ) ) ;
#11 = ORIENTED_EDGE ( 'NONE', *, *, #243, .T. ) ;
#12 = VECTOR ( 'NONE', #286, 1000.000000000000000 ) ;
#13 = LOCAL_TIME ( 12, 25, 52.00000000000000000, #135 ) ;
#14 = ORIENTED_EDGE ( 'NONE', *, *, #37, .T. ) ;
#15 =( NAMED_UNIT ( * ) SI_UNIT ( $, .STERADIAN. ) SOLID_ANGLE_UNIT ( ) );
#16 = CC_DESIGN_PERSON_AND_ORGANIZATION_ASSIGNMENT ( #24, #178, ( #266 ) ) ;
#17 = CALENDAR_DATE ( 2022, 20, 6 ) ;
#18 = VERTEX_POINT ( 'NONE', #210 ) ;
#19 = COORDINATED_UNIVERSAL_TIME_OFFSET ( 1, 0, .AHEAD. ) ;
#20 = CC_DESIGN_APPROVAL ( #265, ( #206 ) ) ;
#21 = LINE ( 'NONE', #136, #43 ) ;
#22 = APPROVAL_ROLE ( '' ) ;
#23 = VERTEX_POINT ( 'NONE', #186 ) ;
#24 = PERSON_AND_ORGANIZATION ( #195, #292 ) ;
#25 = ORIENTED_EDGE ( 'NONE', *, *, #257, .F. ) ;
#26 = TOROIDAL_SURFACE ( 'NONE', #258, 0.6999999999999999556, 0.2000000000000000111 ) ;
#27 = AXIS2_PLACEMENT_3D ( 'NONE', #190, #32, #237 ) ;
#28 = CARTESIAN_POINT ( 'NONE',  ( 0.6999999999999999556, 0.000000000000000000, 1.399999999999998579 ) ) ;
#29 = EDGE_CURVE ( 'NONE', #23, #156, #21, .T. ) ;
#30 = DIRECTION ( 'NONE',  ( -1.000000000000000000, 0.000000000000000000, 0.000000000000000000 ) ) ;
#31 = DIRECTION ( 'NONE',  ( 1.000000000000000000, 0.000000000000000000, 0.000000000000000000 ) ) ;
#32 = DIRECTION ( 'NONE',  ( -0.000000000000000000, -0.000000000000000000, -1.000000000000000000 ) ) ;
#33 = PLANE ( 'NONE',  #248 ) ;
#34 = FACE_OUTER_BOUND ( 'NONE', #120, .T. ) ;
#35 = ORIENTED_EDGE ( 'NONE', *, *, #183, .F. ) ;
#36 = AXIS2_PLACEMENT_3D ( 'NONE', #214, #216, #31 ) ;
#37 = EDGE_CURVE ( 'NONE', #268, #156, #67, .T. ) ;
#38 = ORIENTED_EDGE ( 'NONE', *, *, #7, .F. ) ;
#39 = ORIENTED_EDGE ( 'NONE', *, *, #130, .T. ) ;
#40 = CALENDAR_DATE ( 2022, 20, 6 ) ;
#41 = DIRECTION ( 'NONE',  ( 1.000000000000000000, 0.000000000000000000, 0.000000000000000000 ) ) ;
#42 = PERSON_AND_ORGANIZATION ( #195, #292 ) ;
#43 = VECTOR ( 'NONE', #143, 1000.000000000000000 ) ;
#44 = CARTESIAN_POINT ( 'NONE',  ( 0.000000000000000000, 0.000000000000000000, 1.399999999999998579 ) ) ;
#45 = COORDINATED_UNIVERSAL_TIME_OFFSET ( 1, 0, .AHEAD. ) ;
#46 =( GEOMETRIC_REPRESENTATION_CONTEXT ( 3 ) GLOBAL_UNCERTAINTY_ASSIGNED_CONTEXT ( ( #204 ) ) GLOBAL_UNIT_ASSIGNED_CONTEXT ( ( #137, #110, #15 ) ) REPRESENTATION_CONTEXT ( 'NONE', 'WORKASPACE' ) );
#47 = EDGE_LOOP ( 'NONE', ( #11, #113 ) ) ;
#48 = ORIENTED_EDGE ( 'NONE', *, *, #238, .T. ) ;
#49 = CARTESIAN_POINT ( 'NONE',  ( 0.6999999999999999556, 0.000000000000000000, 1.199999999999999289 ) ) ;
#50 = PRODUCT_RELATED_PRODUCT_CATEGORY ( 'detail', '', ( #266 ) ) ;
#51 = DIRECTION ( 'NONE',  ( 1.000000000000000000, 0.000000000000000000, -0.000000000000000000 ) ) ;
#52 = FACE_OUTER_BOUND ( 'NONE', #196, .T. ) ;
#53 = CARTESIAN_POINT ( 'NONE',  ( 0.000000000000000000, 0.000000000000000000, 1.399999999999998579 ) ) ;
#54 = CARTESIAN_POINT ( 'NONE',  ( -0.5000000000000000000, 0.000000000000000000, 101.2000000000000171 ) ) ;
#55 = CARTESIAN_POINT ( 'NONE',  ( 0.5000000000000000000, 6.123233995736766036E-17, 1.399999999999998579 ) ) ;
#56 = EDGE_CURVE ( 'NONE', #275, #269, #83, .T. ) ;
#57 = PRODUCT_DEFINITION_FORMATION_WITH_SPECIFIED_SOURCE ( 'LIBOVOLNÝ', '', #266, .NOT_KNOWN. ) ;
#58 = ORIENTED_EDGE ( 'NONE', *, *, #257, .T. ) ;
#59 = CC_DESIGN_DATE_AND_TIME_ASSIGNMENT ( #115, #228, ( #81 ) ) ;
#60 = DIRECTION ( 'NONE',  ( 1.000000000000000000, 0.000000000000000000, 0.000000000000000000 ) ) ;
#61 = AXIS2_PLACEMENT_3D ( 'NONE', #102, #124, #30 ) ;
#62 = LOCAL_TIME ( 12, 25, 52.00000000000000000, #45 ) ;
#63 = DIRECTION ( 'NONE',  ( 0.000000000000000000, 0.000000000000000000, 1.000000000000000000 ) ) ;
#64 = APPROVAL_ROLE ( '' ) ;
#65 = ORIENTED_EDGE ( 'NONE', *, *, #197, .F. ) ;
#66 = PERSON_AND_ORGANIZATION ( #195, #292 ) ;
#67 = CIRCLE ( 'NONE', #278, 1.250000000000000000 ) ;
#68 = FACE_OUTER_BOUND ( 'NONE', #223, .T. ) ;
#69 = PERSON_AND_ORGANIZATION_ROLE ( 'classification_officer' ) ;
#70 = CARTESIAN_POINT ( 'NONE',  ( -0.6999999999999999556, 8.572527594031473190E-17, 1.199999999999999289 ) ) ;
#71 = DATE_AND_TIME ( #153, #13 ) ;
#72 = CYLINDRICAL_SURFACE ( 'NONE', #86, 0.5000000000000000000 ) ;
#73 = EDGE_CURVE ( 'NONE', #156, #268, #288, .T. ) ;
#74 = DIRECTION ( 'NONE',  ( 1.000000000000000000, 0.000000000000000000, -0.000000000000000000 ) ) ;
#75 = APPLICATION_CONTEXT ( 'configuration controlled 3d designs of mechanical parts and assemblies' ) ;
#76 = LINE ( 'NONE', #283, #220 ) ;
#77 = DIRECTION ( 'NONE',  ( -0.000000000000000000, -0.000000000000000000, -1.000000000000000000 ) ) ;
#78 = DIRECTION ( 'NONE',  ( 1.000000000000000000, 0.000000000000000000, 0.000000000000000000 ) ) ;
#79 = AXIS2_PLACEMENT_3D ( 'NONE', #28, #162, #122 ) ;
#80 = CARTESIAN_POINT ( 'NONE',  ( 0.000000000000000000, 0.000000000000000000, 101.2000000000000171 ) ) ;
#81 = SECURITY_CLASSIFICATION ( '', '', #181 ) ;
#82 = LINE ( 'NONE', #267, #263 ) ;
#83 = CIRCLE ( 'NONE', #247, 0.5000000000000000000 ) ;
#84 = ORIENTED_EDGE ( 'NONE', *, *, #73, .T. ) ;
#85 = ORIENTED_EDGE ( 'NONE', *, *, #296, .F. ) ;
#86 = AXIS2_PLACEMENT_3D ( 'NONE', #233, #231, #279 ) ;
#87 = EDGE_LOOP ( 'NONE', ( #85, #39, #245, #105 ) ) ;
#88 = DATE_AND_TIME ( #299, #152 ) ;
#89 = DIRECTION ( 'NONE',  ( 1.000000000000000000, 0.000000000000000000, 0.000000000000000000 ) ) ;
#90 = ADVANCED_FACE ( 'NONE', ( #139 ), #72, .T. ) ;
#91 = PERSON_AND_ORGANIZATION ( #195, #292 ) ;
#92 = DIRECTION ( 'NONE',  ( 1.000000000000000000, 0.000000000000000000, 0.000000000000000000 ) ) ;
#93 = PERSON_AND_ORGANIZATION ( #195, #292 ) ;
#94 = DIRECTION ( 'NONE',  ( -0.000000000000000000, -0.000000000000000000, -1.000000000000000000 ) ) ;
#95 = CIRCLE ( 'NONE', #262, 0.5000000000000000000 ) ;
#96 = CARTESIAN_POINT ( 'NONE',  ( 0.000000000000000000, 0.000000000000000000, 0.000000000000000000 ) ) ;
#97 = ORIENTED_EDGE ( 'NONE', *, *, #142, .T. ) ;
#98 = DIRECTION ( 'NONE',  ( 1.000000000000000000, 0.000000000000000000, -0.000000000000000000 ) ) ;
#99 = LINE ( 'NONE', #54, #12 ) ;
#100 = CARTESIAN_POINT ( 'NONE',  ( 0.000000000000000000, 0.000000000000000000, 1.199999999999999956 ) ) ;
#101 = CC_DESIGN_PERSON_AND_ORGANIZATION_ASSIGNMENT ( #224, #69, ( #81 ) ) ;
#102 = CARTESIAN_POINT ( 'NONE',  ( 0.000000000000000000, 0.000000000000000000, 101.2000000000000171 ) ) ;
#103 = CC_DESIGN_APPROVAL ( #161, ( #81 ) ) ;
#104 = ORIENTED_EDGE ( 'NONE', *, *, #238, .F. ) ;
#105 = ORIENTED_EDGE ( 'NONE', *, *, #142, .F. ) ;
#106 = CIRCLE ( 'NONE', #27, 0.6999999999999999556 ) ;
#107 = CIRCLE ( 'NONE', #307, 0.5000000000000000000 ) ;
#108 = ADVANCED_FACE ( 'NONE', ( #303 ), #26, .F. ) ;
#109 = EDGE_LOOP ( 'NONE', ( #229, #294 ) ) ;
#110 =( NAMED_UNIT ( * ) PLANE_ANGLE_UNIT ( ) SI_UNIT ( $, .RADIAN. ) );
#111 = AXIS2_PLACEMENT_3D ( 'NONE', #184, #63, #250 ) ;
#112 = CC_DESIGN_PERSON_AND_ORGANIZATION_ASSIGNMENT ( #91, #138, ( #206 ) ) ;
#113 = ORIENTED_EDGE ( 'NONE', *, *, #174, .T. ) ;
#114 = CIRCLE ( 'NONE', #9, 1.250000000000000000 ) ;
#115 = DATE_AND_TIME ( #17, #234 ) ;
#116 = CARTESIAN_POINT ( 'NONE',  ( 0.000000000000000000, 0.000000000000000000, 1.399999999999998579 ) ) ;
#117 = APPROVAL_ROLE ( '' ) ;
#118 = ORIENTED_EDGE ( 'NONE', *, *, #56, .F. ) ;
#119 = APPLICATION_PROTOCOL_DEFINITION ( 'international standard', 'config_control_design', 1994, #236 ) ;
#120 = EDGE_LOOP ( 'NONE', ( #154, #293 ) ) ;
#121 = LOCAL_TIME ( 12, 25, 52.00000000000000000, #19 ) ;
#122 = DIRECTION ( 'NONE',  ( 0.000000000000000000, 0.000000000000000000, -1.000000000000000000 ) ) ;
#123 = FACE_OUTER_BOUND ( 'NONE', #301, .T. ) ;
#124 = DIRECTION ( 'NONE',  ( -0.000000000000000000, -0.000000000000000000, -1.000000000000000000 ) ) ;
#125 = DIRECTION ( 'NONE',  ( 1.000000000000000000, 0.000000000000000000, 0.000000000000000000 ) ) ;
#126 = ADVANCED_FACE ( 'NONE', ( #68 ), #256, .T. ) ;
#127 = FACE_OUTER_BOUND ( 'NONE', #87, .T. ) ;
#128 = AXIS2_PLACEMENT_3D ( 'NONE', #217, #191, #98 ) ;
#129 = VERTEX_POINT ( 'NONE', #49 ) ;
#130 = EDGE_CURVE ( 'NONE', #269, #141, #4, .T. ) ;
#131 = MANIFOLD_SOLID_BREP ( 'Zaoblit1', #3 ) ;
#132 = CARTESIAN_POINT ( 'NONE',  ( 0.000000000000000000, 0.000000000000000000, 0.000000000000000000 ) ) ;
#133 = PERSON_AND_ORGANIZATION_ROLE ( 'creator' ) ;
#134 = DIRECTION ( 'NONE',  ( 0.000000000000000000, 0.000000000000000000, 1.000000000000000000 ) ) ;
#135 = COORDINATED_UNIVERSAL_TIME_OFFSET ( 1, 0, .AHEAD. ) ;
#136 = CARTESIAN_POINT ( 'NONE',  ( -1.250000000000000000, 0.000000000000000000, 1.199999999999999956 ) ) ;
#137 =( LENGTH_UNIT ( ) NAMED_UNIT ( * ) SI_UNIT ( .MILLI., .METRE. ) );
#138 = PERSON_AND_ORGANIZATION_ROLE ( 'creator' ) ;
#139 = FACE_OUTER_BOUND ( 'NONE', #10, .T. ) ;
#140 = APPROVAL_DATE_TIME ( #88, #161 ) ;
#141 = VERTEX_POINT ( 'NONE', #70 ) ;
#142 = EDGE_CURVE ( 'NONE', #275, #129, #244, .T. ) ;
#143 = DIRECTION ( 'NONE',  ( -0.000000000000000000, -0.000000000000000000, -1.000000000000000000 ) ) ;
#144 = TOROIDAL_SURFACE ( 'NONE', #179, 0.6999999999999999556, 0.2000000000000000111 ) ;
#145 = CYLINDRICAL_SURFACE ( 'NONE', #202, 1.250000000000000000 ) ;
#146 = DIRECTION ( 'NONE',  ( 0.000000000000000000, 0.000000000000000000, 1.000000000000000000 ) ) ;
#147 = ADVANCED_FACE ( 'NONE', ( #52 ), #145, .T. ) ;
#148 = ORIENTED_EDGE ( 'NONE', *, *, #29, .F. ) ;
#149 = AXIS2_PLACEMENT_3D ( 'NONE', #96, #182, #281 ) ;
#150 = AXIS2_PLACEMENT_3D ( 'NONE', #255, #201, #180 ) ;
#151 = APPROVAL ( #155, 'NEURÈENÝ' ) ;
#152 = LOCAL_TIME ( 12, 25, 52.00000000000000000, #209 ) ;
#153 = CALENDAR_DATE ( 2022, 20, 6 ) ;
#154 = ORIENTED_EDGE ( 'NONE', *, *, #7, .T. ) ;
#155 = APPROVAL_STATUS ( 'not_yet_approved' ) ;
#156 = VERTEX_POINT ( 'NONE', #289 ) ;
#157 = APPROVAL_STATUS ( 'not_yet_approved' ) ;
#158 = DESIGN_CONTEXT ( 'detailed design', #236, 'design' ) ;
#159 = DIRECTION ( 'NONE',  ( -1.000000000000000000, 0.000000000000000000, 0.000000000000000000 ) ) ;
#160 = APPROVAL_STATUS ( 'not_yet_approved' ) ;
#161 = APPROVAL ( #160, 'NEURÈENÝ' ) ;
#162 = DIRECTION ( 'NONE',  ( 0.000000000000000000, -1.000000000000000000, 0.000000000000000000 ) ) ;
#163 = DIRECTION ( 'NONE',  ( 1.000000000000000000, 0.000000000000000000, 0.000000000000000000 ) ) ;
#164 = ADVANCED_FACE ( 'NONE', ( #165, #34 ), #264, .T. ) ;
#165 = FACE_BOUND ( 'NONE', #47, .T. ) ;
#166 = ADVANCED_BREP_SHAPE_REPRESENTATION ( '6ac2', ( #131, #240 ), #46 ) ;
#167 = CARTESIAN_POINT ( 'NONE',  ( 0.000000000000000000, 0.000000000000000000, 101.2000000000000171 ) ) ;
#168 = CIRCLE ( 'NONE', #211, 0.6999999999999999556 ) ;
#169 = DIRECTION ( 'NONE',  ( 0.000000000000000000, 0.000000000000000000, 1.000000000000000000 ) ) ;
#170 = CC_DESIGN_PERSON_AND_ORGANIZATION_ASSIGNMENT ( #42, #133, ( #57 ) ) ;
#171 = CARTESIAN_POINT ( 'NONE',  ( 1.250000000000000000, 1.530808498934191571E-16, 0.000000000000000000 ) ) ;
#172 = CIRCLE ( 'NONE', #111, 1.250000000000000000 ) ;
#173 = ORIENTED_EDGE ( 'NONE', *, *, #218, .F. ) ;
#174 = EDGE_CURVE ( 'NONE', #141, #129, #106, .T. ) ;
#175 = APPROVAL_PERSON_ORGANIZATION ( #66, #151, #117 ) ;
#176 = PRODUCT_DEFINITION_SHAPE ( 'NONE', 'NONE',  #206 ) ;
#177 = ADVANCED_FACE ( 'NONE', ( #123 ), #219, .T. ) ;
#178 = PERSON_AND_ORGANIZATION_ROLE ( 'design_owner' ) ;
#179 = AXIS2_PLACEMENT_3D ( 'NONE', #53, #8, #282 ) ;
#180 = DIRECTION ( 'NONE',  ( -1.000000000000000000, 1.224646799147352714E-16, 0.000000000000000000 ) ) ;
#181 = SECURITY_CLASSIFICATION_LEVEL ( 'unclassified' ) ;
#182 = DIRECTION ( 'NONE',  ( 0.000000000000000000, 0.000000000000000000, 1.000000000000000000 ) ) ;
#183 = EDGE_CURVE ( 'NONE', #198, #18, #272, .T. ) ;
#184 = CARTESIAN_POINT ( 'NONE',  ( 0.000000000000000000, 0.000000000000000000, 1.199999999999999956 ) ) ;
#185 = COORDINATED_UNIVERSAL_TIME_OFFSET ( 1, 0, .AHEAD. ) ;
#186 = CARTESIAN_POINT ( 'NONE',  ( -1.250000000000000000, 0.000000000000000000, 1.199999999999999956 ) ) ;
#187 = ORIENTED_EDGE ( 'NONE', *, *, #174, .F. ) ;
#188 = CC_DESIGN_DATE_AND_TIME_ASSIGNMENT ( #203, #254, ( #206 ) ) ;
#189 = APPROVAL_PERSON_ORGANIZATION ( #271, #265, #64 ) ;
#190 = CARTESIAN_POINT ( 'NONE',  ( 0.000000000000000000, 0.000000000000000000, 1.199999999999999956 ) ) ;
#191 = DIRECTION ( 'NONE',  ( 0.000000000000000000, 0.000000000000000000, 1.000000000000000000 ) ) ;
#192 = DIRECTION ( 'NONE',  ( 0.000000000000000000, 0.000000000000000000, 1.000000000000000000 ) ) ;
#193 = DIRECTION ( 'NONE',  ( 1.000000000000000000, 0.000000000000000000, 0.000000000000000000 ) ) ;
#194 = DIRECTION ( 'NONE',  ( -0.000000000000000000, -0.000000000000000000, -1.000000000000000000 ) ) ;
#195 = PERSON ( 'NEURÈENÝ', 'NEURÈENÝ', 'NEURÈENÝ', ('NEURÈENÝ'), ('NEURÈENÝ'), ('NEURÈENÝ') ) ;
#196 = EDGE_LOOP ( 'NONE', ( #65, #58, #14, #148 ) ) ;
#197 = EDGE_CURVE ( 'NONE', #226, #23, #114, .T. ) ;
#198 = VERTEX_POINT ( 'NONE', #285 ) ;
#199 = CARTESIAN_POINT ( 'NONE',  ( 0.000000000000000000, 0.000000000000000000, 0.000000000000000000 ) ) ;
#200 = SHAPE_DEFINITION_REPRESENTATION ( #176, #166 ) ;
#201 = DIRECTION ( 'NONE',  ( 1.224646799147353207E-16, 1.000000000000000000, -0.000000000000000000 ) ) ;
#202 = AXIS2_PLACEMENT_3D ( 'NONE', #100, #235, #241 ) ;
#203 = DATE_AND_TIME ( #40, #62 ) ;
#204 = UNCERTAINTY_MEASURE_WITH_UNIT (LENGTH_MEASURE( 1.000000000000000082E-05 ), #137, 'distance_accuracy_value', 'NONE');
#205 = ORIENTED_EDGE ( 'NONE', *, *, #296, .T. ) ;
#206 = PRODUCT_DEFINITION ( 'NEZNÁMÝ', '', #57, #158 ) ;
#207 = MECHANICAL_CONTEXT ( 'NONE', #75, 'mechanical' ) ;
#208 = CARTESIAN_POINT ( 'NONE',  ( 0.000000000000000000, 0.000000000000000000, 0.000000000000000000 ) ) ;
#209 = COORDINATED_UNIVERSAL_TIME_OFFSET ( 1, 0, .AHEAD. ) ;
#210 = CARTESIAN_POINT ( 'NONE',  ( -0.5000000000000000000, 0.000000000000000000, 101.2000000000000171 ) ) ;
#211 = AXIS2_PLACEMENT_3D ( 'NONE', #261, #260, #163 ) ;
#212 = ADVANCED_FACE ( 'NONE', ( #259 ), #6, .T. ) ;
#213 = EDGE_LOOP ( 'NONE', ( #297, #118, #97, #187 ) ) ;
#214 = CARTESIAN_POINT ( 'NONE',  ( 0.000000000000000000, 0.000000000000000000, 101.2000000000000171 ) ) ;
#215 = AXIS2_PLACEMENT_3D ( 'NONE', #277, #94, #159 ) ;
#216 = DIRECTION ( 'NONE',  ( 0.000000000000000000, 0.000000000000000000, 1.000000000000000000 ) ) ;
#217 = CARTESIAN_POINT ( 'NONE',  ( 0.000000000000000000, 0.000000000000000000, 1.199999999999999956 ) ) ;
#218 = EDGE_CURVE ( 'NONE', #18, #269, #99, .T. ) ;
#219 = CYLINDRICAL_SURFACE ( 'NONE', #61, 0.5000000000000000000 ) ;
#220 = VECTOR ( 'NONE', #77, 1000.000000000000000 ) ;
#221 = ORIENTED_EDGE ( 'NONE', *, *, #56, .T. ) ;
#222 = EDGE_CURVE ( 'NONE', #18, #198, #95, .T. ) ;
#223 = EDGE_LOOP ( 'NONE', ( #25, #38, #251, #84 ) ) ;
#224 = PERSON_AND_ORGANIZATION ( #195, #292 ) ;
#225 = DIRECTION ( 'NONE',  ( 0.000000000000000000, 0.000000000000000000, 1.000000000000000000 ) ) ;
#226 = VERTEX_POINT ( 'NONE', #242 ) ;
#227 = APPROVAL_PERSON_ORGANIZATION ( #276, #161, #22 ) ;
#228 = DATE_TIME_ROLE ( 'classification_date' ) ;
#229 = ORIENTED_EDGE ( 'NONE', *, *, #73, .F. ) ;
#230 = APPLICATION_PROTOCOL_DEFINITION ( 'international standard', 'config_control_design', 1994, #75 ) ;
#231 = DIRECTION ( 'NONE',  ( -0.000000000000000000, -0.000000000000000000, -1.000000000000000000 ) ) ;
#232 = ADVANCED_FACE ( 'NONE', ( #127 ), #144, .F. ) ;
#233 = CARTESIAN_POINT ( 'NONE',  ( 0.000000000000000000, 0.000000000000000000, 101.2000000000000171 ) ) ;
#234 = LOCAL_TIME ( 12, 25, 52.00000000000000000, #185 ) ;
#235 = DIRECTION ( 'NONE',  ( -0.000000000000000000, -0.000000000000000000, -1.000000000000000000 ) ) ;
#236 = APPLICATION_CONTEXT ( 'configuration controlled 3d designs of mechanical parts and assemblies' ) ;
#237 = DIRECTION ( 'NONE',  ( 1.000000000000000000, 0.000000000000000000, 0.000000000000000000 ) ) ;
#238 = EDGE_CURVE ( 'NONE', #198, #275, #76, .T. ) ;
#239 = CARTESIAN_POINT ( 'NONE',  ( 0.000000000000000000, 0.000000000000000000, 1.399999999999998579 ) ) ;
#240 = AXIS2_PLACEMENT_3D ( 'NONE', #132, #295, #60 ) ;
#241 = DIRECTION ( 'NONE',  ( -1.000000000000000000, 0.000000000000000000, 0.000000000000000000 ) ) ;
#242 = CARTESIAN_POINT ( 'NONE',  ( 1.250000000000000000, 1.530808498934191571E-16, 1.199999999999999956 ) ) ;
#243 = EDGE_CURVE ( 'NONE', #129, #141, #168, .T. ) ;
#244 = CIRCLE ( 'NONE', #79, 0.2000000000000000944 ) ;
#245 = ORIENTED_EDGE ( 'NONE', *, *, #243, .F. ) ;
#246 = AXIS2_PLACEMENT_3D ( 'NONE', #80, #169, #51 ) ;
#247 = AXIS2_PLACEMENT_3D ( 'NONE', #116, #134, #92 ) ;
#248 = AXIS2_PLACEMENT_3D ( 'NONE', #199, #298, #74 ) ;
#249 = APPROVAL_DATE_TIME ( #71, #265 ) ;
#250 = DIRECTION ( 'NONE',  ( 1.000000000000000000, 0.000000000000000000, 0.000000000000000000 ) ) ;
#251 = ORIENTED_EDGE ( 'NONE', *, *, #29, .T. ) ;
#252 = DATE_AND_TIME ( #304, #121 ) ;
#253 = ORIENTED_EDGE ( 'NONE', *, *, #183, .T. ) ;
#254 = DATE_TIME_ROLE ( 'creation_date' ) ;
#255 = CARTESIAN_POINT ( 'NONE',  ( -0.6999999999999999556, 8.572527594031471957E-17, 1.399999999999998579 ) ) ;
#256 = CYLINDRICAL_SURFACE ( 'NONE', #215, 1.250000000000000000 ) ;
#257 = EDGE_CURVE ( 'NONE', #226, #268, #82, .T. ) ;
#258 = AXIS2_PLACEMENT_3D ( 'NONE', #44, #225, #89 ) ;
#259 = FACE_OUTER_BOUND ( 'NONE', #300, .T. ) ;
#260 = DIRECTION ( 'NONE',  ( -0.000000000000000000, -0.000000000000000000, -1.000000000000000000 ) ) ;
#261 = CARTESIAN_POINT ( 'NONE',  ( 0.000000000000000000, 0.000000000000000000, 1.199999999999999956 ) ) ;
#262 = AXIS2_PLACEMENT_3D ( 'NONE', #167, #146, #78 ) ;
#263 = VECTOR ( 'NONE', #194, 1000.000000000000000 ) ;
#264 = PLANE ( 'NONE',  #128 ) ;
#265 = APPROVAL ( #157, 'NEURÈENÝ' ) ;
#266 = PRODUCT ( '6ac2', '6ac2', '', ( #207 ) ) ;
#267 = CARTESIAN_POINT ( 'NONE',  ( 1.250000000000000000, 1.530808498934191571E-16, 1.199999999999999956 ) ) ;
#268 = VERTEX_POINT ( 'NONE', #171 ) ;
#269 = VERTEX_POINT ( 'NONE', #290 ) ;
#270 = ORIENTED_EDGE ( 'NONE', *, *, #218, .T. ) ;
#271 = PERSON_AND_ORGANIZATION ( #195, #292 ) ;
#272 = CIRCLE ( 'NONE', #36, 0.5000000000000000000 ) ;
#273 = CC_DESIGN_PERSON_AND_ORGANIZATION_ASSIGNMENT ( #93, #302, ( #57 ) ) ;
#274 = APPROVAL_DATE_TIME ( #252, #151 ) ;
#275 = VERTEX_POINT ( 'NONE', #55 ) ;
#276 = PERSON_AND_ORGANIZATION ( #195, #292 ) ;
#277 = CARTESIAN_POINT ( 'NONE',  ( 0.000000000000000000, 0.000000000000000000, 1.199999999999999956 ) ) ;
#278 = AXIS2_PLACEMENT_3D ( 'NONE', #208, #306, #41 ) ;
#279 = DIRECTION ( 'NONE',  ( -1.000000000000000000, 0.000000000000000000, 0.000000000000000000 ) ) ;
#280 = CC_DESIGN_APPROVAL ( #151, ( #57 ) ) ;
#281 = DIRECTION ( 'NONE',  ( 1.000000000000000000, 0.000000000000000000, 0.000000000000000000 ) ) ;
#282 = DIRECTION ( 'NONE',  ( 1.000000000000000000, 0.000000000000000000, 0.000000000000000000 ) ) ;
#283 = CARTESIAN_POINT ( 'NONE',  ( 0.5000000000000000000, 6.123233995736766036E-17, 101.2000000000000171 ) ) ;
#284 = CC_DESIGN_SECURITY_CLASSIFICATION ( #81, ( #57 ) ) ;
#285 = CARTESIAN_POINT ( 'NONE',  ( 0.5000000000000000000, 6.123233995736766036E-17, 101.2000000000000171 ) ) ;
#286 = DIRECTION ( 'NONE',  ( -0.000000000000000000, -0.000000000000000000, -1.000000000000000000 ) ) ;
#287 = FACE_OUTER_BOUND ( 'NONE', #109, .T. ) ;
#288 = CIRCLE ( 'NONE', #149, 1.250000000000000000 ) ;
#289 = CARTESIAN_POINT ( 'NONE',  ( -1.250000000000000000, 0.000000000000000000, 0.000000000000000000 ) ) ;
#290 = CARTESIAN_POINT ( 'NONE',  ( -0.5000000000000000000, 0.000000000000000000, 1.399999999999998579 ) ) ;
#291 = ORIENTED_EDGE ( 'NONE', *, *, #222, .F. ) ;
#292 = ORGANIZATION ( 'NEURÈENÝ', 'NEURÈENÝ', '' ) ;
#293 = ORIENTED_EDGE ( 'NONE', *, *, #197, .T. ) ;
#294 = ORIENTED_EDGE ( 'NONE', *, *, #37, .F. ) ;
#295 = DIRECTION ( 'NONE',  ( 0.000000000000000000, 0.000000000000000000, 1.000000000000000000 ) ) ;
#296 = EDGE_CURVE ( 'NONE', #269, #275, #107, .T. ) ;
#297 = ORIENTED_EDGE ( 'NONE', *, *, #130, .F. ) ;
#298 = DIRECTION ( 'NONE',  ( 0.000000000000000000, 0.000000000000000000, 1.000000000000000000 ) ) ;
#299 = CALENDAR_DATE ( 2022, 20, 6 ) ;
#300 = EDGE_LOOP ( 'NONE', ( #1, #253 ) ) ;
#301 = EDGE_LOOP ( 'NONE', ( #104, #291, #270, #205 ) ) ;
#302 = PERSON_AND_ORGANIZATION_ROLE ( 'design_supplier' ) ;
#303 = FACE_OUTER_BOUND ( 'NONE', #213, .T. ) ;
#304 = CALENDAR_DATE ( 2022, 20, 6 ) ;
#305 = ADVANCED_FACE ( 'NONE', ( #287 ), #33, .F. ) ;
#306 = DIRECTION ( 'NONE',  ( 0.000000000000000000, 0.000000000000000000, 1.000000000000000000 ) ) ;
#307 = AXIS2_PLACEMENT_3D ( 'NONE', #239, #192, #125 ) ;
ENDSEC;
END-ISO-10303-21;
