ISO-10303-21;
HEADER;
FILE_DESCRIPTION (( 'STEP AP203' ),
    '1' );
FILE_NAME ('7169.STEP',
    '2022-06-20T10:13:00',
    ( '' ),
    ( '' ),
    'SwSTEP 2.0',
    'SolidWorks 2019',
    '' );
FILE_SCHEMA (( 'CONFIG_CONTROL_DESIGN' ));
ENDSEC;

DATA;
#1 = DIRECTION ( 'NONE',  ( -0.000000000000000000, -0.000000000000000000, -1.000000000000000000 ) ) ;
#2 = ADVANCED_FACE ( 'NONE', ( #283 ), #288, .T. ) ;
#3 = LOCAL_TIME ( 12, 13, 0.000000000000000000, #110 ) ;
#4 = DIRECTION ( 'NONE',  ( 1.000000000000000000, 0.000000000000000000, 0.000000000000000000 ) ) ;
#5 = LINE ( 'NONE', #143, #158 ) ;
#6 = DIRECTION ( 'NONE',  ( -1.000000000000000000, 0.000000000000000000, 0.000000000000000000 ) ) ;
#7 = CIRCLE ( 'NONE', #236, 3.000000000000000444 ) ;
#8 = CARTESIAN_POINT ( 'NONE',  ( 0.000000000000000000, 0.000000000000000000, 3.000000000000000000 ) ) ;
#9 = CYLINDRICAL_SURFACE ( 'NONE', #39, 1.600000000000000089 ) ;
#10 = CIRCLE ( 'NONE', #180, 0.2000000000000000944 ) ;
#11 = PRODUCT_DEFINITION_FORMATION_WITH_SPECIFIED_SOURCE ( 'LIBOVOLNÝ', '', #118, .NOT_KNOWN. ) ;
#12 =( NAMED_UNIT ( * ) SI_UNIT ( $, .STERADIAN. ) SOLID_ANGLE_UNIT ( ) );
#13 = CALENDAR_DATE ( 2022, 20, 6 ) ;
#14 = AXIS2_PLACEMENT_3D ( 'NONE', #54, #1, #4 ) ;
#15 =( GEOMETRIC_REPRESENTATION_CONTEXT ( 3 ) GLOBAL_UNCERTAINTY_ASSIGNED_CONTEXT ( ( #96 ) ) GLOBAL_UNIT_ASSIGNED_CONTEXT ( ( #83, #35, #12 ) ) REPRESENTATION_CONTEXT ( 'NONE', 'WORKASPACE' ) );
#16 = DATE_AND_TIME ( #42, #206 ) ;
#17 = VERTEX_POINT ( 'NONE', #104 ) ;
#18 = DATE_AND_TIME ( #228, #3 ) ;
#19 = AXIS2_PLACEMENT_3D ( 'NONE', #8, #172, #170 ) ;
#20 = EDGE_LOOP ( 'NONE', ( #46, #43, #119, #274 ) ) ;
#21 = AXIS2_PLACEMENT_3D ( 'NONE', #244, #88, #191 ) ;
#22 = CC_DESIGN_PERSON_AND_ORGANIZATION_ASSIGNMENT ( #115, #253, ( #11 ) ) ;
#23 = EDGE_LOOP ( 'NONE', ( #141, #232, #50, #48 ) ) ;
#24 = ADVANCED_FACE ( 'NONE', ( #168 ), #128, .F. ) ;
#25 = DIRECTION ( 'NONE',  ( -0.000000000000000000, -0.000000000000000000, -1.000000000000000000 ) ) ;
#26 = DIRECTION ( 'NONE',  ( 0.000000000000000000, 0.000000000000000000, 1.000000000000000000 ) ) ;
#27 = CLOSED_SHELL ( 'NONE', ( #227, #181, #2, #166, #107, #24, #270, #60, #208 ) ) ;
#28 = CC_DESIGN_APPROVAL ( #266, ( #161 ) ) ;
#29 = FACE_OUTER_BOUND ( 'NONE', #251, .T. ) ;
#30 = DIRECTION ( 'NONE',  ( -0.000000000000000000, -0.000000000000000000, -1.000000000000000000 ) ) ;
#31 = CC_DESIGN_PERSON_AND_ORGANIZATION_ASSIGNMENT ( #300, #204, ( #140 ) ) ;
#32 = CARTESIAN_POINT ( 'NONE',  ( 3.000000000000000444, 3.673940397442060361E-16, 3.000000000000000000 ) ) ;
#33 = PRODUCT_RELATED_PRODUCT_CATEGORY ( 'detail', '', ( #118 ) ) ;
#34 = CIRCLE ( 'NONE', #231, 1.600000000000000089 ) ;
#35 =( NAMED_UNIT ( * ) PLANE_ANGLE_UNIT ( ) SI_UNIT ( $, .RADIAN. ) );
#36 = CARTESIAN_POINT ( 'NONE',  ( 1.800000000000000266, 0.000000000000000000, 2.999999999999990674 ) ) ;
#37 = DIRECTION ( 'NONE',  ( 1.000000000000000000, 0.000000000000000000, 0.000000000000000000 ) ) ;
#38 = APPLICATION_CONTEXT ( 'configuration controlled 3d designs of mechanical parts and assemblies' ) ;
#39 = AXIS2_PLACEMENT_3D ( 'NONE', #40, #247, #173 ) ;
#40 = CARTESIAN_POINT ( 'NONE',  ( 0.000000000000000000, 0.000000000000000000, 403.0000000000000000 ) ) ;
#41 = PERSON_AND_ORGANIZATION ( #195, #193 ) ;
#42 = CALENDAR_DATE ( 2022, 20, 6 ) ;
#43 = ORIENTED_EDGE ( 'NONE', *, *, #67, .T. ) ;
#44 = APPROVAL_PERSON_ORGANIZATION ( #90, #221, #249 ) ;
#45 = PERSON_AND_ORGANIZATION_ROLE ( 'design_owner' ) ;
#46 = ORIENTED_EDGE ( 'NONE', *, *, #292, .F. ) ;
#47 = VERTEX_POINT ( 'NONE', #185 ) ;
#48 = ORIENTED_EDGE ( 'NONE', *, *, #240, .F. ) ;
#49 = APPROVAL_PERSON_ORGANIZATION ( #139, #266, #243 ) ;
#50 = ORIENTED_EDGE ( 'NONE', *, *, #155, .T. ) ;
#51 = CC_DESIGN_DATE_AND_TIME_ASSIGNMENT ( #16, #113, ( #161 ) ) ;
#52 = PLANE ( 'NONE',  #19 ) ;
#53 = CARTESIAN_POINT ( 'NONE',  ( -1.800000000000000266, 2.204364238465236069E-16, 2.999999999999990674 ) ) ;
#54 = CARTESIAN_POINT ( 'NONE',  ( 0.000000000000000000, 0.000000000000000000, 3.000000000000000000 ) ) ;
#55 = EDGE_CURVE ( 'NONE', #94, #112, #5, .T. ) ;
#56 = DIRECTION ( 'NONE',  ( -0.000000000000000000, -0.000000000000000000, -1.000000000000000000 ) ) ;
#57 = CYLINDRICAL_SURFACE ( 'NONE', #150, 1.600000000000000089 ) ;
#58 = AXIS2_PLACEMENT_3D ( 'NONE', #102, #264, #238 ) ;
#59 = AXIS2_PLACEMENT_3D ( 'NONE', #63, #245, #37 ) ;
#60 = ADVANCED_FACE ( 'NONE', ( #123 ), #215, .T. ) ;
#61 = CARTESIAN_POINT ( 'NONE',  ( 3.000000000000000444, 3.673940397442060361E-16, 3.000000000000000000 ) ) ;
#62 = DIRECTION ( 'NONE',  ( 0.000000000000000000, 0.000000000000000000, 1.000000000000000000 ) ) ;
#63 = CARTESIAN_POINT ( 'NONE',  ( 0.000000000000000000, 0.000000000000000000, 0.000000000000000000 ) ) ;
#64 = AXIS2_PLACEMENT_3D ( 'NONE', #106, #192, #86 ) ;
#65 = APPROVAL_DATE_TIME ( #66, #87 ) ;
#66 = DATE_AND_TIME ( #13, #281 ) ;
#67 = EDGE_CURVE ( 'NONE', #299, #91, #99, .T. ) ;
#68 = CC_DESIGN_SECURITY_CLASSIFICATION ( #161, ( #11 ) ) ;
#69 = EDGE_LOOP ( 'NONE', ( #116, #73 ) ) ;
#70 = PRODUCT_DEFINITION_SHAPE ( 'NONE', 'NONE',  #140 ) ;
#71 = DESIGN_CONTEXT ( 'detailed design', #84, 'design' ) ;
#72 = ORIENTED_EDGE ( 'NONE', *, *, #98, .F. ) ;
#73 = ORIENTED_EDGE ( 'NONE', *, *, #240, .T. ) ;
#74 = CIRCLE ( 'NONE', #296, 3.000000000000000444 ) ;
#75 = CYLINDRICAL_SURFACE ( 'NONE', #58, 3.000000000000000444 ) ;
#76 = CARTESIAN_POINT ( 'NONE',  ( 0.000000000000000000, 0.000000000000000000, 0.000000000000000000 ) ) ;
#77 = EDGE_CURVE ( 'NONE', #112, #91, #100, .T. ) ;
#78 = DIRECTION ( 'NONE',  ( 1.000000000000000000, 0.000000000000000000, 0.000000000000000000 ) ) ;
#79 = AXIS2_PLACEMENT_3D ( 'NONE', #126, #284, #210 ) ;
#80 = LOCAL_TIME ( 12, 13, 0.000000000000000000, #285 ) ;
#81 = DIRECTION ( 'NONE',  ( 0.000000000000000000, 0.000000000000000000, 1.000000000000000000 ) ) ;
#82 = CARTESIAN_POINT ( 'NONE',  ( -3.000000000000000444, 0.000000000000000000, 3.000000000000000000 ) ) ;
#83 =( LENGTH_UNIT ( ) NAMED_UNIT ( * ) SI_UNIT ( .MILLI., .METRE. ) );
#84 = APPLICATION_CONTEXT ( 'configuration controlled 3d designs of mechanical parts and assemblies' ) ;
#85 = CARTESIAN_POINT ( 'NONE',  ( 0.000000000000000000, 0.000000000000000000, 3.000000000000000000 ) ) ;
#86 = DIRECTION ( 'NONE',  ( 1.000000000000000000, 0.000000000000000000, 0.000000000000000000 ) ) ;
#87 = APPROVAL ( #202, 'NEURÈENÝ' ) ;
#88 = DIRECTION ( 'NONE',  ( 1.224646799147353207E-16, 1.000000000000000000, -0.000000000000000000 ) ) ;
#89 = AXIS2_PLACEMENT_3D ( 'NONE', #174, #105, #154 ) ;
#90 = PERSON_AND_ORGANIZATION ( #195, #193 ) ;
#91 = VERTEX_POINT ( 'NONE', #101 ) ;
#92 = CALENDAR_DATE ( 2022, 20, 6 ) ;
#93 = APPROVAL_STATUS ( 'not_yet_approved' ) ;
#94 = VERTEX_POINT ( 'NONE', #82 ) ;
#95 = ORIENTED_EDGE ( 'NONE', *, *, #55, .T. ) ;
#96 = UNCERTAINTY_MEASURE_WITH_UNIT (LENGTH_MEASURE( 1.000000000000000082E-05 ), #83, 'distance_accuracy_value', 'NONE');
#97 = ORIENTED_EDGE ( 'NONE', *, *, #67, .F. ) ;
#98 = EDGE_CURVE ( 'NONE', #258, #17, #275, .T. ) ;
#99 = LINE ( 'NONE', #32, #205 ) ;
#100 = CIRCLE ( 'NONE', #117, 3.000000000000000444 ) ;
#101 = CARTESIAN_POINT ( 'NONE',  ( 3.000000000000000444, 3.673940397442060361E-16, 0.000000000000000000 ) ) ;
#102 = CARTESIAN_POINT ( 'NONE',  ( 0.000000000000000000, 0.000000000000000000, 3.000000000000000000 ) ) ;
#103 = FACE_OUTER_BOUND ( 'NONE', #256, .T. ) ;
#104 = CARTESIAN_POINT ( 'NONE',  ( 1.600000000000000089, 1.959434878635765230E-16, 3.199999999999980638 ) ) ;
#105 = DIRECTION ( 'NONE',  ( 0.000000000000000000, 0.000000000000000000, 1.000000000000000000 ) ) ;
#106 = CARTESIAN_POINT ( 'NONE',  ( 0.000000000000000000, 0.000000000000000000, 3.000000000000000000 ) ) ;
#107 = ADVANCED_FACE ( 'NONE', ( #216, #262 ), #52, .T. ) ;
#108 = DIRECTION ( 'NONE',  ( 1.000000000000000000, 0.000000000000000000, 0.000000000000000000 ) ) ;
#109 = DIRECTION ( 'NONE',  ( 1.000000000000000000, 0.000000000000000000, 0.000000000000000000 ) ) ;
#110 = COORDINATED_UNIVERSAL_TIME_OFFSET ( 1, 0, .AHEAD. ) ;
#111 = TOROIDAL_SURFACE ( 'NONE', #189, 1.800000000000000266, 0.2000000000000000111 ) ;
#112 = VERTEX_POINT ( 'NONE', #260 ) ;
#113 = DATE_TIME_ROLE ( 'classification_date' ) ;
#114 = ORIENTED_EDGE ( 'NONE', *, *, #304, .T. ) ;
#115 = PERSON_AND_ORGANIZATION ( #195, #193 ) ;
#116 = ORIENTED_EDGE ( 'NONE', *, *, #133, .T. ) ;
#117 = AXIS2_PLACEMENT_3D ( 'NONE', #76, #169, #78 ) ;
#118 = PRODUCT ( '7169', '7169', '', ( #294 ) ) ;
#119 = ORIENTED_EDGE ( 'NONE', *, *, #214, .T. ) ;
#120 = EDGE_LOOP ( 'NONE', ( #163, #255 ) ) ;
#121 = MANIFOLD_SOLID_BREP ( 'Zaoblit1', #27 ) ;
#122 = DIRECTION ( 'NONE',  ( 0.000000000000000000, 0.000000000000000000, 1.000000000000000000 ) ) ;
#123 = FACE_OUTER_BOUND ( 'NONE', #307, .T. ) ;
#124 = CIRCLE ( 'NONE', #129, 1.600000000000000089 ) ;
#125 = EDGE_CURVE ( 'NONE', #305, #258, #212, .T. ) ;
#126 = CARTESIAN_POINT ( 'NONE',  ( 0.000000000000000000, 0.000000000000000000, 403.0000000000000000 ) ) ;
#127 = DIRECTION ( 'NONE',  ( 1.000000000000000000, 0.000000000000000000, 0.000000000000000000 ) ) ;
#128 = PLANE ( 'NONE',  #235 ) ;
#129 = AXIS2_PLACEMENT_3D ( 'NONE', #295, #222, #152 ) ;
#130 = AXIS2_PLACEMENT_3D ( 'NONE', #131, #218, #289 ) ;
#131 = CARTESIAN_POINT ( 'NONE',  ( 0.000000000000000000, 0.000000000000000000, 3.000000000000000000 ) ) ;
#132 = APPLICATION_PROTOCOL_DEFINITION ( 'international standard', 'config_control_design', 1994, #84 ) ;
#133 = EDGE_CURVE ( 'NONE', #203, #179, #144, .T. ) ;
#134 = PERSON_AND_ORGANIZATION_ROLE ( 'classification_officer' ) ;
#135 = ORIENTED_EDGE ( 'NONE', *, *, #217, .F. ) ;
#136 = APPROVAL_DATE_TIME ( #298, #221 ) ;
#137 = ORIENTED_EDGE ( 'NONE', *, *, #98, .T. ) ;
#138 = ORIENTED_EDGE ( 'NONE', *, *, #246, .F. ) ;
#139 = PERSON_AND_ORGANIZATION ( #195, #193 ) ;
#140 = PRODUCT_DEFINITION ( 'NEZNÁMÝ', '', #11, #71 ) ;
#141 = ORIENTED_EDGE ( 'NONE', *, *, #297, .F. ) ;
#142 = ORIENTED_EDGE ( 'NONE', *, *, #182, .F. ) ;
#143 = CARTESIAN_POINT ( 'NONE',  ( -3.000000000000000444, 0.000000000000000000, 3.000000000000000000 ) ) ;
#144 = CIRCLE ( 'NONE', #14, 1.800000000000000266 ) ;
#145 = CARTESIAN_POINT ( 'NONE',  ( 0.000000000000000000, 0.000000000000000000, 403.0000000000000000 ) ) ;
#146 = CARTESIAN_POINT ( 'NONE',  ( -1.600000000000000089, 0.000000000000000000, 403.0000000000000000 ) ) ;
#147 = DIRECTION ( 'NONE',  ( 1.000000000000000000, 0.000000000000000000, -0.000000000000000000 ) ) ;
#148 = CARTESIAN_POINT ( 'NONE',  ( 0.000000000000000000, 0.000000000000000000, 403.0000000000000000 ) ) ;
#149 = VECTOR ( 'NONE', #213, 1000.000000000000000 ) ;
#150 = AXIS2_PLACEMENT_3D ( 'NONE', #145, #188, #237 ) ;
#151 = CARTESIAN_POINT ( 'NONE',  ( -1.600000000000000089, 0.000000000000000000, 3.199999999999980638 ) ) ;
#152 = DIRECTION ( 'NONE',  ( 1.000000000000000000, 0.000000000000000000, 0.000000000000000000 ) ) ;
#153 = AXIS2_PLACEMENT_3D ( 'NONE', #190, #26, #127 ) ;
#154 = DIRECTION ( 'NONE',  ( 1.000000000000000000, 0.000000000000000000, 0.000000000000000000 ) ) ;
#155 = EDGE_CURVE ( 'NONE', #17, #203, #10, .T. ) ;
#156 = SECURITY_CLASSIFICATION_LEVEL ( 'unclassified' ) ;
#157 = PERSON_AND_ORGANIZATION ( #195, #193 ) ;
#158 = VECTOR ( 'NONE', #56, 1000.000000000000000 ) ;
#159 = SHAPE_DEFINITION_REPRESENTATION ( #70, #265 ) ;
#160 = PERSON_AND_ORGANIZATION ( #195, #193 ) ;
#161 = SECURITY_CLASSIFICATION ( '', '', #156 ) ;
#162 = ORIENTED_EDGE ( 'NONE', *, *, #217, .T. ) ;
#163 = ORIENTED_EDGE ( 'NONE', *, *, #77, .F. ) ;
#164 = APPROVAL_STATUS ( 'not_yet_approved' ) ;
#165 = ORIENTED_EDGE ( 'NONE', *, *, #77, .T. ) ;
#166 = ADVANCED_FACE ( 'NONE', ( #29 ), #75, .T. ) ;
#167 = DIRECTION ( 'NONE',  ( 1.000000000000000000, 0.000000000000000000, 0.000000000000000000 ) ) ;
#168 = FACE_OUTER_BOUND ( 'NONE', #120, .T. ) ;
#169 = DIRECTION ( 'NONE',  ( 0.000000000000000000, 0.000000000000000000, 1.000000000000000000 ) ) ;
#170 = DIRECTION ( 'NONE',  ( 1.000000000000000000, 0.000000000000000000, -0.000000000000000000 ) ) ;
#171 = CC_DESIGN_PERSON_AND_ORGANIZATION_ASSIGNMENT ( #225, #178, ( #11 ) ) ;
#172 = DIRECTION ( 'NONE',  ( 0.000000000000000000, 0.000000000000000000, 1.000000000000000000 ) ) ;
#173 = DIRECTION ( 'NONE',  ( -1.000000000000000000, 0.000000000000000000, 0.000000000000000000 ) ) ;
#174 = CARTESIAN_POINT ( 'NONE',  ( 0.000000000000000000, 0.000000000000000000, 3.199999999999980638 ) ) ;
#175 = FACE_OUTER_BOUND ( 'NONE', #23, .T. ) ;
#176 = CALENDAR_DATE ( 2022, 20, 6 ) ;
#177 = ORIENTED_EDGE ( 'NONE', *, *, #246, .T. ) ;
#178 = PERSON_AND_ORGANIZATION_ROLE ( 'creator' ) ;
#179 = VERTEX_POINT ( 'NONE', #53 ) ;
#180 = AXIS2_PLACEMENT_3D ( 'NONE', #184, #282, #186 ) ;
#181 = ADVANCED_FACE ( 'NONE', ( #103 ), #57, .T. ) ;
#182 = EDGE_CURVE ( 'NONE', #47, #305, #199, .T. ) ;
#183 = CIRCLE ( 'NONE', #130, 3.000000000000000444 ) ;
#184 = CARTESIAN_POINT ( 'NONE',  ( 1.800000000000000266, 0.000000000000000000, 3.199999999999980638 ) ) ;
#185 = CARTESIAN_POINT ( 'NONE',  ( 1.600000000000000089, 1.959434878635765230E-16, 403.0000000000000000 ) ) ;
#186 = DIRECTION ( 'NONE',  ( 0.000000000000000000, 0.000000000000000000, -1.000000000000000000 ) ) ;
#187 = CC_DESIGN_PERSON_AND_ORGANIZATION_ASSIGNMENT ( #41, #45, ( #118 ) ) ;
#188 = DIRECTION ( 'NONE',  ( -0.000000000000000000, -0.000000000000000000, -1.000000000000000000 ) ) ;
#189 = AXIS2_PLACEMENT_3D ( 'NONE', #197, #194, #108 ) ;
#190 = CARTESIAN_POINT ( 'NONE',  ( 0.000000000000000000, 0.000000000000000000, 3.199999999999980638 ) ) ;
#191 = DIRECTION ( 'NONE',  ( -1.000000000000000000, 1.224646799147354686E-16, 0.000000000000000000 ) ) ;
#192 = DIRECTION ( 'NONE',  ( -0.000000000000000000, -0.000000000000000000, -1.000000000000000000 ) ) ;
#193 = ORGANIZATION ( 'NEURÈENÝ', 'NEURÈENÝ', '' ) ;
#194 = DIRECTION ( 'NONE',  ( 0.000000000000000000, 0.000000000000000000, 1.000000000000000000 ) ) ;
#195 = PERSON ( 'NEURÈENÝ', 'NEURÈENÝ', 'NEURÈENÝ', ('NEURÈENÝ'), ('NEURÈENÝ'), ('NEURÈENÝ') ) ;
#196 = APPLICATION_PROTOCOL_DEFINITION ( 'international standard', 'config_control_design', 1994, #38 ) ;
#197 = CARTESIAN_POINT ( 'NONE',  ( 0.000000000000000000, 0.000000000000000000, 3.199999999999980638 ) ) ;
#198 = EDGE_CURVE ( 'NONE', #305, #47, #34, .T. ) ;
#199 = CIRCLE ( 'NONE', #303, 1.600000000000000089 ) ;
#200 = COORDINATED_UNIVERSAL_TIME_OFFSET ( 1, 0, .AHEAD. ) ;
#201 = ORIENTED_EDGE ( 'NONE', *, *, #297, .T. ) ;
#202 = APPROVAL_STATUS ( 'not_yet_approved' ) ;
#203 = VERTEX_POINT ( 'NONE', #36 ) ;
#204 = PERSON_AND_ORGANIZATION_ROLE ( 'creator' ) ;
#205 = VECTOR ( 'NONE', #30, 1000.000000000000000 ) ;
#206 = LOCAL_TIME ( 12, 13, 0.000000000000000000, #250 ) ;
#207 = ORIENTED_EDGE ( 'NONE', *, *, #133, .F. ) ;
#208 = ADVANCED_FACE ( 'NONE', ( #175 ), #261, .F. ) ;
#209 = EDGE_LOOP ( 'NONE', ( #72, #201, #207, #229 ) ) ;
#210 = DIRECTION ( 'NONE',  ( 1.000000000000000000, 0.000000000000000000, -0.000000000000000000 ) ) ;
#211 = LOCAL_TIME ( 12, 13, 0.000000000000000000, #200 ) ;
#212 = LINE ( 'NONE', #146, #149 ) ;
#213 = DIRECTION ( 'NONE',  ( -0.000000000000000000, -0.000000000000000000, -1.000000000000000000 ) ) ;
#214 = EDGE_CURVE ( 'NONE', #91, #112, #74, .T. ) ;
#215 = PLANE ( 'NONE',  #79 ) ;
#216 = FACE_BOUND ( 'NONE', #69, .T. ) ;
#217 = EDGE_CURVE ( 'NONE', #47, #17, #290, .T. ) ;
#218 = DIRECTION ( 'NONE',  ( 0.000000000000000000, 0.000000000000000000, 1.000000000000000000 ) ) ;
#219 = CARTESIAN_POINT ( 'NONE',  ( -1.600000000000000089, 0.000000000000000000, 403.0000000000000000 ) ) ;
#220 = APPROVAL_PERSON_ORGANIZATION ( #160, #87, #277 ) ;
#221 = APPROVAL ( #93, 'NEURÈENÝ' ) ;
#222 = DIRECTION ( 'NONE',  ( 0.000000000000000000, 0.000000000000000000, 1.000000000000000000 ) ) ;
#223 = COORDINATED_UNIVERSAL_TIME_OFFSET ( 1, 0, .AHEAD. ) ;
#224 = CC_DESIGN_APPROVAL ( #87, ( #140 ) ) ;
#225 = PERSON_AND_ORGANIZATION ( #195, #193 ) ;
#226 = ORIENTED_EDGE ( 'NONE', *, *, #125, .T. ) ;
#227 = ADVANCED_FACE ( 'NONE', ( #269 ), #111, .F. ) ;
#228 = CALENDAR_DATE ( 2022, 20, 6 ) ;
#229 = ORIENTED_EDGE ( 'NONE', *, *, #155, .F. ) ;
#230 = ORIENTED_EDGE ( 'NONE', *, *, #125, .F. ) ;
#231 = AXIS2_PLACEMENT_3D ( 'NONE', #148, #122, #167 ) ;
#232 = ORIENTED_EDGE ( 'NONE', *, *, #304, .F. ) ;
#233 = ORIENTED_EDGE ( 'NONE', *, *, #198, .F. ) ;
#234 = CARTESIAN_POINT ( 'NONE',  ( 0.000000000000000000, 0.000000000000000000, 3.000000000000000000 ) ) ;
#235 = AXIS2_PLACEMENT_3D ( 'NONE', #239, #259, #147 ) ;
#236 = AXIS2_PLACEMENT_3D ( 'NONE', #85, #62, #271 ) ;
#237 = DIRECTION ( 'NONE',  ( -1.000000000000000000, 0.000000000000000000, 0.000000000000000000 ) ) ;
#238 = DIRECTION ( 'NONE',  ( -1.000000000000000000, 0.000000000000000000, 0.000000000000000000 ) ) ;
#239 = CARTESIAN_POINT ( 'NONE',  ( 0.000000000000000000, 0.000000000000000000, 0.000000000000000000 ) ) ;
#240 = EDGE_CURVE ( 'NONE', #179, #203, #257, .T. ) ;
#241 = FACE_OUTER_BOUND ( 'NONE', #280, .T. ) ;
#242 = VECTOR ( 'NONE', #293, 1000.000000000000000 ) ;
#243 = APPROVAL_ROLE ( '' ) ;
#244 = CARTESIAN_POINT ( 'NONE',  ( -1.800000000000000266, 2.204364238465236069E-16, 3.199999999999980638 ) ) ;
#245 = DIRECTION ( 'NONE',  ( 0.000000000000000000, 0.000000000000000000, 1.000000000000000000 ) ) ;
#246 = EDGE_CURVE ( 'NONE', #94, #299, #7, .T. ) ;
#247 = DIRECTION ( 'NONE',  ( -0.000000000000000000, -0.000000000000000000, -1.000000000000000000 ) ) ;
#248 = APPROVAL_DATE_TIME ( #276, #266 ) ;
#249 = APPROVAL_ROLE ( '' ) ;
#250 = COORDINATED_UNIVERSAL_TIME_OFFSET ( 1, 0, .AHEAD. ) ;
#251 = EDGE_LOOP ( 'NONE', ( #97, #138, #95, #165 ) ) ;
#252 = CIRCLE ( 'NONE', #21, 0.1999999999999998723 ) ;
#253 = PERSON_AND_ORGANIZATION_ROLE ( 'design_supplier' ) ;
#254 = ORIENTED_EDGE ( 'NONE', *, *, #292, .T. ) ;
#255 = ORIENTED_EDGE ( 'NONE', *, *, #214, .F. ) ;
#256 = EDGE_LOOP ( 'NONE', ( #142, #162, #114, #230 ) ) ;
#257 = CIRCLE ( 'NONE', #64, 1.800000000000000266 ) ;
#258 = VERTEX_POINT ( 'NONE', #151 ) ;
#259 = DIRECTION ( 'NONE',  ( 0.000000000000000000, 0.000000000000000000, 1.000000000000000000 ) ) ;
#260 = CARTESIAN_POINT ( 'NONE',  ( -3.000000000000000444, 0.000000000000000000, 0.000000000000000000 ) ) ;
#261 = TOROIDAL_SURFACE ( 'NONE', #89, 1.800000000000000266, 0.2000000000000000111 ) ;
#262 = FACE_OUTER_BOUND ( 'NONE', #278, .T. ) ;
#263 = DIRECTION ( 'NONE',  ( 1.000000000000000000, 0.000000000000000000, 0.000000000000000000 ) ) ;
#264 = DIRECTION ( 'NONE',  ( -0.000000000000000000, -0.000000000000000000, -1.000000000000000000 ) ) ;
#265 = ADVANCED_BREP_SHAPE_REPRESENTATION ( '7169', ( #121, #59 ), #15 ) ;
#266 = APPROVAL ( #164, 'NEURÈENÝ' ) ;
#267 = CARTESIAN_POINT ( 'NONE',  ( 0.000000000000000000, 0.000000000000000000, 0.000000000000000000 ) ) ;
#268 = DIRECTION ( 'NONE',  ( 0.000000000000000000, 0.000000000000000000, 1.000000000000000000 ) ) ;
#269 = FACE_OUTER_BOUND ( 'NONE', #209, .T. ) ;
#270 = ADVANCED_FACE ( 'NONE', ( #241 ), #9, .T. ) ;
#271 = DIRECTION ( 'NONE',  ( 1.000000000000000000, 0.000000000000000000, 0.000000000000000000 ) ) ;
#272 = CARTESIAN_POINT ( 'NONE',  ( 1.600000000000000089, 1.959434878635765230E-16, 403.0000000000000000 ) ) ;
#273 = DATE_TIME_ROLE ( 'creation_date' ) ;
#274 = ORIENTED_EDGE ( 'NONE', *, *, #55, .F. ) ;
#275 = CIRCLE ( 'NONE', #153, 1.600000000000000089 ) ;
#276 = DATE_AND_TIME ( #92, #80 ) ;
#277 = APPROVAL_ROLE ( '' ) ;
#278 = EDGE_LOOP ( 'NONE', ( #177, #254 ) ) ;
#279 = CC_DESIGN_DATE_AND_TIME_ASSIGNMENT ( #18, #273, ( #140 ) ) ;
#280 = EDGE_LOOP ( 'NONE', ( #135, #233, #226, #137 ) ) ;
#281 = LOCAL_TIME ( 12, 13, 0.000000000000000000, #223 ) ;
#282 = DIRECTION ( 'NONE',  ( 0.000000000000000000, -1.000000000000000000, 0.000000000000000000 ) ) ;
#283 = FACE_OUTER_BOUND ( 'NONE', #20, .T. ) ;
#284 = DIRECTION ( 'NONE',  ( 0.000000000000000000, 0.000000000000000000, 1.000000000000000000 ) ) ;
#285 = COORDINATED_UNIVERSAL_TIME_OFFSET ( 1, 0, .AHEAD. ) ;
#286 = AXIS2_PLACEMENT_3D ( 'NONE', #234, #25, #6 ) ;
#287 = CARTESIAN_POINT ( 'NONE',  ( 0.000000000000000000, 0.000000000000000000, 403.0000000000000000 ) ) ;
#288 = CYLINDRICAL_SURFACE ( 'NONE', #286, 3.000000000000000444 ) ;
#289 = DIRECTION ( 'NONE',  ( 1.000000000000000000, 0.000000000000000000, 0.000000000000000000 ) ) ;
#290 = LINE ( 'NONE', #272, #242 ) ;
#291 = CC_DESIGN_APPROVAL ( #221, ( #11 ) ) ;
#292 = EDGE_CURVE ( 'NONE', #299, #94, #183, .T. ) ;
#293 = DIRECTION ( 'NONE',  ( -0.000000000000000000, -0.000000000000000000, -1.000000000000000000 ) ) ;
#294 = MECHANICAL_CONTEXT ( 'NONE', #38, 'mechanical' ) ;
#295 = CARTESIAN_POINT ( 'NONE',  ( 0.000000000000000000, 0.000000000000000000, 3.199999999999980638 ) ) ;
#296 = AXIS2_PLACEMENT_3D ( 'NONE', #267, #268, #109 ) ;
#297 = EDGE_CURVE ( 'NONE', #258, #179, #252, .T. ) ;
#298 = DATE_AND_TIME ( #176, #211 ) ;
#299 = VERTEX_POINT ( 'NONE', #61 ) ;
#300 = PERSON_AND_ORGANIZATION ( #195, #193 ) ;
#301 = ORIENTED_EDGE ( 'NONE', *, *, #182, .T. ) ;
#302 = ORIENTED_EDGE ( 'NONE', *, *, #198, .T. ) ;
#303 = AXIS2_PLACEMENT_3D ( 'NONE', #287, #81, #263 ) ;
#304 = EDGE_CURVE ( 'NONE', #17, #258, #124, .T. ) ;
#305 = VERTEX_POINT ( 'NONE', #219 ) ;
#306 = CC_DESIGN_PERSON_AND_ORGANIZATION_ASSIGNMENT ( #157, #134, ( #161 ) ) ;
#307 = EDGE_LOOP ( 'NONE', ( #302, #301 ) ) ;
ENDSEC;
END-ISO-10303-21;
