ISO-10303-21;
HEADER;
FILE_DESCRIPTION (( 'STEP AP203' ),
    '1' );
FILE_NAME ('11ee.STEP',
    '2022-06-20T09:55:09',
    ( '' ),
    ( '' ),
    'SwSTEP 2.0',
    'SolidWorks 2019',
    '' );
FILE_SCHEMA (( 'CONFIG_CONTROL_DESIGN' ));
ENDSEC;

DATA;
#1 = AXIS2_PLACEMENT_3D ( 'NONE', #244, #179, #84 ) ;
#2 = EDGE_LOOP ( 'NONE', ( #145, #240 ) ) ;
#3 = VERTEX_POINT ( 'NONE', #150 ) ;
#4 = CC_DESIGN_PERSON_AND_ORGANIZATION_ASSIGNMENT ( #50, #170, ( #209 ) ) ;
#5 = PERSON ( 'NEURÈENÝ', 'NEURÈENÝ', 'NEURÈENÝ', ('NEURÈENÝ'), ('NEURÈENÝ'), ('NEURÈENÝ') ) ;
#6 = VERTEX_POINT ( 'NONE', #27 ) ;
#7 = VERTEX_POINT ( 'NONE', #78 ) ;
#8 = CIRCLE ( 'NONE', #296, 3.100000000000000089 ) ;
#9 = PERSON_AND_ORGANIZATION_ROLE ( 'design_supplier' ) ;
#10 = VERTEX_POINT ( 'NONE', #172 ) ;
#11 = CYLINDRICAL_SURFACE ( 'NONE', #100, 3.100000000000000089 ) ;
#12 = EDGE_CURVE ( 'NONE', #102, #7, #268, .T. ) ;
#13 = DIRECTION ( 'NONE',  ( 1.000000000000000000, 0.000000000000000000, -0.000000000000000000 ) ) ;
#14 =( GEOMETRIC_REPRESENTATION_CONTEXT ( 3 ) GLOBAL_UNCERTAINTY_ASSIGNED_CONTEXT ( ( #68 ) ) GLOBAL_UNIT_ASSIGNED_CONTEXT ( ( #303, #142, #284 ) ) REPRESENTATION_CONTEXT ( 'NONE', 'WORKASPACE' ) );
#15 = CARTESIAN_POINT ( 'NONE',  ( 3.299999999999999822, 0.000000000000000000, 5.199999999999982414 ) ) ;
#16 = DIRECTION ( 'NONE',  ( 0.000000000000000000, 0.000000000000000000, 1.000000000000000000 ) ) ;
#17 = DIRECTION ( 'NONE',  ( -0.000000000000000000, -0.000000000000000000, -1.000000000000000000 ) ) ;
#18 = DIRECTION ( 'NONE',  ( 0.000000000000000000, 0.000000000000000000, 1.000000000000000000 ) ) ;
#19 = ADVANCED_FACE ( 'NONE', ( #48 ), #167, .T. ) ;
#20 = FACE_OUTER_BOUND ( 'NONE', #149, .T. ) ;
#21 = VERTEX_POINT ( 'NONE', #97 ) ;
#22 = AXIS2_PLACEMENT_3D ( 'NONE', #243, #61, #13 ) ;
#23 = VECTOR ( 'NONE', #177, 1000.000000000000000 ) ;
#24 = PERSON_AND_ORGANIZATION ( #5, #51 ) ;
#25 = CARTESIAN_POINT ( 'NONE',  ( 0.000000000000000000, 0.000000000000000000, 0.000000000000000000 ) ) ;
#26 = PERSON_AND_ORGANIZATION ( #5, #51 ) ;
#27 = CARTESIAN_POINT ( 'NONE',  ( -6.000000000000000888, 0.000000000000000000, 5.000000000000000000 ) ) ;
#28 = DIRECTION ( 'NONE',  ( -0.000000000000000000, -0.000000000000000000, -1.000000000000000000 ) ) ;
#29 = ORIENTED_EDGE ( 'NONE', *, *, #87, .F. ) ;
#30 = DATE_AND_TIME ( #239, #304 ) ;
#31 = VERTEX_POINT ( 'NONE', #192 ) ;
#32 = APPROVAL_ROLE ( '' ) ;
#33 = ORIENTED_EDGE ( 'NONE', *, *, #34, .T. ) ;
#34 = EDGE_CURVE ( 'NONE', #31, #21, #140, .T. ) ;
#35 = DIRECTION ( 'NONE',  ( 0.000000000000000000, 0.000000000000000000, 1.000000000000000000 ) ) ;
#36 = FACE_OUTER_BOUND ( 'NONE', #2, .T. ) ;
#37 = AXIS2_PLACEMENT_3D ( 'NONE', #129, #59, #128 ) ;
#38 = CARTESIAN_POINT ( 'NONE',  ( 0.000000000000000000, 0.000000000000000000, 1004.999999999999886 ) ) ;
#39 = APPROVAL_PERSON_ORGANIZATION ( #24, #236, #44 ) ;
#40 = CARTESIAN_POINT ( 'NONE',  ( 0.000000000000000000, 0.000000000000000000, 5.000000000000000000 ) ) ;
#41 = FACE_OUTER_BOUND ( 'NONE', #123, .T. ) ;
#42 = DIRECTION ( 'NONE',  ( 0.000000000000000000, 0.000000000000000000, 1.000000000000000000 ) ) ;
#43 = VECTOR ( 'NONE', #223, 1000.000000000000000 ) ;
#44 = APPROVAL_ROLE ( '' ) ;
#45 = COORDINATED_UNIVERSAL_TIME_OFFSET ( 1, 0, .AHEAD. ) ;
#46 = ORIENTED_EDGE ( 'NONE', *, *, #272, .F. ) ;
#47 = CARTESIAN_POINT ( 'NONE',  ( 0.000000000000000000, 0.000000000000000000, 1004.999999999999886 ) ) ;
#48 = FACE_OUTER_BOUND ( 'NONE', #222, .T. ) ;
#49 = LOCAL_TIME ( 11, 55, 9.000000000000000000, #122 ) ;
#50 = PERSON_AND_ORGANIZATION ( #5, #51 ) ;
#51 = ORGANIZATION ( 'NEURÈENÝ', 'NEURÈENÝ', '' ) ;
#52 = LINE ( 'NONE', #107, #270 ) ;
#53 = PERSON_AND_ORGANIZATION_ROLE ( 'classification_officer' ) ;
#54 = ORIENTED_EDGE ( 'NONE', *, *, #166, .F. ) ;
#55 = ORIENTED_EDGE ( 'NONE', *, *, #221, .T. ) ;
#56 = ORIENTED_EDGE ( 'NONE', *, *, #232, .F. ) ;
#57 = DIRECTION ( 'NONE',  ( 1.000000000000000000, 0.000000000000000000, 0.000000000000000000 ) ) ;
#58 = EDGE_CURVE ( 'NONE', #238, #104, #52, .T. ) ;
#59 = DIRECTION ( 'NONE',  ( 1.224646799147353207E-16, 1.000000000000000000, -0.000000000000000000 ) ) ;
#60 = AXIS2_PLACEMENT_3D ( 'NONE', #273, #65, #57 ) ;
#61 = DIRECTION ( 'NONE',  ( 0.000000000000000000, 0.000000000000000000, 1.000000000000000000 ) ) ;
#62 = PRODUCT ( '11ee', '11ee', '', ( #139 ) ) ;
#63 = TOROIDAL_SURFACE ( 'NONE', #76, 3.299999999999999822, 0.2000000000000000111 ) ;
#64 = CARTESIAN_POINT ( 'NONE',  ( 0.000000000000000000, 0.000000000000000000, 5.000000000000000000 ) ) ;
#65 = DIRECTION ( 'NONE',  ( 0.000000000000000000, 0.000000000000000000, 1.000000000000000000 ) ) ;
#66 = DIRECTION ( 'NONE',  ( 1.000000000000000000, 0.000000000000000000, 0.000000000000000000 ) ) ;
#67 = COORDINATED_UNIVERSAL_TIME_OFFSET ( 1, 0, .AHEAD. ) ;
#68 = UNCERTAINTY_MEASURE_WITH_UNIT (LENGTH_MEASURE( 1.000000000000000082E-05 ), #303, 'distance_accuracy_value', 'NONE');
#69 = CC_DESIGN_DATE_AND_TIME_ASSIGNMENT ( #30, #164, ( #130 ) ) ;
#70 = CALENDAR_DATE ( 2022, 20, 6 ) ;
#71 = ORIENTED_EDGE ( 'NONE', *, *, #155, .F. ) ;
#72 = ADVANCED_FACE ( 'NONE', ( #242 ), #11, .T. ) ;
#73 = SECURITY_CLASSIFICATION_LEVEL ( 'unclassified' ) ;
#74 = DIRECTION ( 'NONE',  ( 1.000000000000000000, 0.000000000000000000, 0.000000000000000000 ) ) ;
#75 = APPROVAL_PERSON_ORGANIZATION ( #26, #143, #263 ) ;
#76 = AXIS2_PLACEMENT_3D ( 'NONE', #160, #281, #256 ) ;
#77 = ORIENTED_EDGE ( 'NONE', *, *, #12, .F. ) ;
#78 = CARTESIAN_POINT ( 'NONE',  ( 6.000000000000000888, 7.347880794884120722E-16, 0.000000000000000000 ) ) ;
#79 = EDGE_CURVE ( 'NONE', #7, #3, #106, .T. ) ;
#80 = ORIENTED_EDGE ( 'NONE', *, *, #58, .F. ) ;
#81 = AXIS2_PLACEMENT_3D ( 'NONE', #186, #42, #66 ) ;
#82 = DIRECTION ( 'NONE',  ( 0.000000000000000000, 0.000000000000000000, 1.000000000000000000 ) ) ;
#83 = DIRECTION ( 'NONE',  ( -1.000000000000000000, 0.000000000000000000, 0.000000000000000000 ) ) ;
#84 = DIRECTION ( 'NONE',  ( 1.000000000000000000, 0.000000000000000000, 0.000000000000000000 ) ) ;
#85 = DIRECTION ( 'NONE',  ( 1.000000000000000000, 0.000000000000000000, -0.000000000000000000 ) ) ;
#86 = DIRECTION ( 'NONE',  ( 0.000000000000000000, 0.000000000000000000, 1.000000000000000000 ) ) ;
#87 = EDGE_CURVE ( 'NONE', #104, #10, #247, .T. ) ;
#88 = DATE_AND_TIME ( #302, #89 ) ;
#89 = LOCAL_TIME ( 11, 55, 9.000000000000000000, #67 ) ;
#90 = AXIS2_PLACEMENT_3D ( 'NONE', #154, #229, #204 ) ;
#91 = CC_DESIGN_PERSON_AND_ORGANIZATION_ASSIGNMENT ( #187, #253, ( #62 ) ) ;
#92 = APPROVAL_STATUS ( 'not_yet_approved' ) ;
#93 = EDGE_LOOP ( 'NONE', ( #46, #261, #165, #54 ) ) ;
#94 = DIRECTION ( 'NONE',  ( 0.000000000000000000, 0.000000000000000000, 1.000000000000000000 ) ) ;
#95 = DIRECTION ( 'NONE',  ( 1.000000000000000000, 0.000000000000000000, 0.000000000000000000 ) ) ;
#96 = DIRECTION ( 'NONE',  ( -0.000000000000000000, -0.000000000000000000, -1.000000000000000000 ) ) ;
#97 = CARTESIAN_POINT ( 'NONE',  ( 3.299999999999999822, 0.000000000000000000, 4.999999999999991118 ) ) ;
#98 = COORDINATED_UNIVERSAL_TIME_OFFSET ( 1, 0, .AHEAD. ) ;
#99 = EDGE_LOOP ( 'NONE', ( #148, #33 ) ) ;
#100 = AXIS2_PLACEMENT_3D ( 'NONE', #112, #280, #83 ) ;
#101 = CC_DESIGN_PERSON_AND_ORGANIZATION_ASSIGNMENT ( #126, #9, ( #209 ) ) ;
#102 = VERTEX_POINT ( 'NONE', #182 ) ;
#103 = DESIGN_CONTEXT ( 'detailed design', #121, 'design' ) ;
#104 = VERTEX_POINT ( 'NONE', #199 ) ;
#105 = DIRECTION ( 'NONE',  ( 1.000000000000000000, 0.000000000000000000, 0.000000000000000000 ) ) ;
#106 = CIRCLE ( 'NONE', #60, 6.000000000000000888 ) ;
#107 = CARTESIAN_POINT ( 'NONE',  ( 3.100000000000000089, 3.796405077356794918E-16, 1004.999999999999886 ) ) ;
#108 = APPLICATION_CONTEXT ( 'configuration controlled 3d designs of mechanical parts and assemblies' ) ;
#109 = APPROVAL ( #92, 'NEURÈENÝ' ) ;
#110 = CARTESIAN_POINT ( 'NONE',  ( 0.000000000000000000, 0.000000000000000000, 0.000000000000000000 ) ) ;
#111 = DIRECTION ( 'NONE',  ( 1.000000000000000000, 0.000000000000000000, 0.000000000000000000 ) ) ;
#112 = CARTESIAN_POINT ( 'NONE',  ( 0.000000000000000000, 0.000000000000000000, 1004.999999999999886 ) ) ;
#113 = EDGE_CURVE ( 'NONE', #6, #3, #278, .T. ) ;
#114 = DATE_AND_TIME ( #137, #141 ) ;
#115 = AXIS2_PLACEMENT_3D ( 'NONE', #64, #156, #249 ) ;
#116 = AXIS2_PLACEMENT_3D ( 'NONE', #264, #287, #74 ) ;
#117 = PERSON_AND_ORGANIZATION ( #5, #51 ) ;
#118 = ORIENTED_EDGE ( 'NONE', *, *, #245, .T. ) ;
#119 = AXIS2_PLACEMENT_3D ( 'NONE', #38, #16, #131 ) ;
#120 = DIRECTION ( 'NONE',  ( -1.000000000000000000, 0.000000000000000000, 0.000000000000000000 ) ) ;
#121 = APPLICATION_CONTEXT ( 'configuration controlled 3d designs of mechanical parts and assemblies' ) ;
#122 = COORDINATED_UNIVERSAL_TIME_OFFSET ( 1, 0, .AHEAD. ) ;
#123 = EDGE_LOOP ( 'NONE', ( #194, #219 ) ) ;
#124 = CC_DESIGN_PERSON_AND_ORGANIZATION_ASSIGNMENT ( #117, #213, ( #159 ) ) ;
#125 = ORIENTED_EDGE ( 'NONE', *, *, #202, .F. ) ;
#126 = PERSON_AND_ORGANIZATION ( #5, #51 ) ;
#127 = ORIENTED_EDGE ( 'NONE', *, *, #178, .F. ) ;
#128 = DIRECTION ( 'NONE',  ( -1.000000000000000000, 1.224646799147353207E-16, 0.000000000000000000 ) ) ;
#129 = CARTESIAN_POINT ( 'NONE',  ( -3.299999999999999822, 4.041334437186265510E-16, 5.199999999999982414 ) ) ;
#130 = SECURITY_CLASSIFICATION ( '', '', #73 ) ;
#131 = DIRECTION ( 'NONE',  ( 1.000000000000000000, 0.000000000000000000, 0.000000000000000000 ) ) ;
#132 = DIRECTION ( 'NONE',  ( 0.000000000000000000, 0.000000000000000000, 1.000000000000000000 ) ) ;
#133 = CARTESIAN_POINT ( 'NONE',  ( -6.000000000000000888, 0.000000000000000000, 5.000000000000000000 ) ) ;
#134 = CIRCLE ( 'NONE', #1, 3.100000000000000089 ) ;
#135 = MANIFOLD_SOLID_BREP ( 'Zaoblit1', #275 ) ;
#136 = APPROVAL_STATUS ( 'not_yet_approved' ) ;
#137 = CALENDAR_DATE ( 2022, 20, 6 ) ;
#138 = ORIENTED_EDGE ( 'NONE', *, *, #12, .T. ) ;
#139 = MECHANICAL_CONTEXT ( 'NONE', #108, 'mechanical' ) ;
#140 = CIRCLE ( 'NONE', #116, 3.299999999999999822 ) ;
#141 = LOCAL_TIME ( 11, 55, 9.000000000000000000, #45 ) ;
#142 =( NAMED_UNIT ( * ) PLANE_ANGLE_UNIT ( ) SI_UNIT ( $, .RADIAN. ) );
#143 = APPROVAL ( #267, 'NEURÈENÝ' ) ;
#144 = CALENDAR_DATE ( 2022, 20, 6 ) ;
#145 = ORIENTED_EDGE ( 'NONE', *, *, #259, .T. ) ;
#146 = TOROIDAL_SURFACE ( 'NONE', #81, 3.299999999999999822, 0.2000000000000000111 ) ;
#147 = ORIENTED_EDGE ( 'NONE', *, *, #34, .F. ) ;
#148 = ORIENTED_EDGE ( 'NONE', *, *, #212, .T. ) ;
#149 = EDGE_LOOP ( 'NONE', ( #127, #29, #255, #147 ) ) ;
#150 = CARTESIAN_POINT ( 'NONE',  ( -6.000000000000000888, 0.000000000000000000, 0.000000000000000000 ) ) ;
#151 = PLANE ( 'NONE',  #291 ) ;
#152 = PLANE ( 'NONE',  #22 ) ;
#153 = CIRCLE ( 'NONE', #288, 6.000000000000000888 ) ;
#154 = CARTESIAN_POINT ( 'NONE',  ( 0.000000000000000000, 0.000000000000000000, 5.000000000000000000 ) ) ;
#155 = EDGE_CURVE ( 'NONE', #286, #238, #134, .T. ) ;
#156 = DIRECTION ( 'NONE',  ( -0.000000000000000000, -0.000000000000000000, -1.000000000000000000 ) ) ;
#157 = APPROVAL_DATE_TIME ( #88, #236 ) ;
#158 = AXIS2_PLACEMENT_3D ( 'NONE', #205, #224, #105 ) ;
#159 = PRODUCT_DEFINITION ( 'NEZNÁMÝ', '', #209, #103 ) ;
#160 = CARTESIAN_POINT ( 'NONE',  ( 0.000000000000000000, 0.000000000000000000, 5.199999999999982414 ) ) ;
#161 = CARTESIAN_POINT ( 'NONE',  ( 0.000000000000000000, 0.000000000000000000, 5.199999999999982414 ) ) ;
#162 = CC_DESIGN_APPROVAL ( #143, ( #130 ) ) ;
#163 = ADVANCED_FACE ( 'NONE', ( #41 ), #151, .T. ) ;
#164 = DATE_TIME_ROLE ( 'classification_date' ) ;
#165 = ORIENTED_EDGE ( 'NONE', *, *, #212, .F. ) ;
#166 = EDGE_CURVE ( 'NONE', #104, #21, #225, .T. ) ;
#167 = CYLINDRICAL_SURFACE ( 'NONE', #233, 6.000000000000000888 ) ;
#168 = AXIS2_PLACEMENT_3D ( 'NONE', #47, #230, #283 ) ;
#169 = AXIS2_PLACEMENT_3D ( 'NONE', #306, #94, #95 ) ;
#170 = PERSON_AND_ORGANIZATION_ROLE ( 'creator' ) ;
#171 = ORIENTED_EDGE ( 'NONE', *, *, #79, .T. ) ;
#172 = CARTESIAN_POINT ( 'NONE',  ( -3.100000000000000089, 0.000000000000000000, 5.199999999999982414 ) ) ;
#173 = EDGE_LOOP ( 'NONE', ( #125, #138, #171, #196 ) ) ;
#174 = CC_DESIGN_SECURITY_CLASSIFICATION ( #130, ( #209 ) ) ;
#175 = VECTOR ( 'NONE', #96, 1000.000000000000000 ) ;
#176 = DIRECTION ( 'NONE',  ( 1.000000000000000000, 0.000000000000000000, 0.000000000000000000 ) ) ;
#177 = DIRECTION ( 'NONE',  ( -0.000000000000000000, -0.000000000000000000, -1.000000000000000000 ) ) ;
#178 = EDGE_CURVE ( 'NONE', #10, #31, #282, .T. ) ;
#179 = DIRECTION ( 'NONE',  ( 0.000000000000000000, 0.000000000000000000, 1.000000000000000000 ) ) ;
#180 = APPROVAL_PERSON_ORGANIZATION ( #305, #109, #32 ) ;
#181 = CARTESIAN_POINT ( 'NONE',  ( 3.100000000000000089, 3.796405077356794918E-16, 1004.999999999999886 ) ) ;
#182 = CARTESIAN_POINT ( 'NONE',  ( 6.000000000000000888, 7.347880794884120722E-16, 5.000000000000000000 ) ) ;
#183 = ADVANCED_BREP_SHAPE_REPRESENTATION ( '11ee', ( #135, #169 ), #14 ) ;
#184 = FACE_OUTER_BOUND ( 'NONE', #208, .T. ) ;
#185 = CC_DESIGN_PERSON_AND_ORGANIZATION_ASSIGNMENT ( #258, #53, ( #130 ) ) ;
#186 = CARTESIAN_POINT ( 'NONE',  ( 0.000000000000000000, 0.000000000000000000, 5.199999999999982414 ) ) ;
#187 = PERSON_AND_ORGANIZATION ( #5, #51 ) ;
#188 = DIRECTION ( 'NONE',  ( 1.000000000000000000, 0.000000000000000000, 0.000000000000000000 ) ) ;
#189 = APPROVAL_DATE_TIME ( #214, #143 ) ;
#190 = ORIENTED_EDGE ( 'NONE', *, *, #58, .T. ) ;
#191 = DATE_AND_TIME ( #70, #49 ) ;
#192 = CARTESIAN_POINT ( 'NONE',  ( -3.299999999999999822, 4.041334437186265510E-16, 4.999999999999991118 ) ) ;
#193 = APPROVAL_DATE_TIME ( #191, #109 ) ;
#194 = ORIENTED_EDGE ( 'NONE', *, *, #155, .T. ) ;
#195 = CIRCLE ( 'NONE', #211, 6.000000000000000888 ) ;
#196 = ORIENTED_EDGE ( 'NONE', *, *, #113, .F. ) ;
#197 = ORIENTED_EDGE ( 'NONE', *, *, #245, .F. ) ;
#198 = CC_DESIGN_DATE_AND_TIME_ASSIGNMENT ( #114, #210, ( #159 ) ) ;
#199 = CARTESIAN_POINT ( 'NONE',  ( 3.100000000000000089, 3.796405077356794918E-16, 5.199999999999982414 ) ) ;
#200 = CIRCLE ( 'NONE', #119, 3.100000000000000089 ) ;
#201 = CARTESIAN_POINT ( 'NONE',  ( 0.000000000000000000, 0.000000000000000000, 1004.999999999999886 ) ) ;
#202 = EDGE_CURVE ( 'NONE', #102, #6, #252, .T. ) ;
#203 = FACE_OUTER_BOUND ( 'NONE', #173, .T. ) ;
#204 = DIRECTION ( 'NONE',  ( -1.000000000000000000, 0.000000000000000000, 0.000000000000000000 ) ) ;
#205 = CARTESIAN_POINT ( 'NONE',  ( 0.000000000000000000, 0.000000000000000000, 5.000000000000000000 ) ) ;
#206 = APPLICATION_PROTOCOL_DEFINITION ( 'international standard', 'config_control_design', 1994, #108 ) ;
#207 = PLANE ( 'NONE',  #234 ) ;
#208 = EDGE_LOOP ( 'NONE', ( #290, #217 ) ) ;
#209 = PRODUCT_DEFINITION_FORMATION_WITH_SPECIFIED_SOURCE ( 'LIBOVOLNÝ', '', #62, .NOT_KNOWN. ) ;
#210 = DATE_TIME_ROLE ( 'creation_date' ) ;
#211 = AXIS2_PLACEMENT_3D ( 'NONE', #40, #132, #111 ) ;
#212 = EDGE_CURVE ( 'NONE', #21, #31, #216, .T. ) ;
#213 = PERSON_AND_ORGANIZATION_ROLE ( 'creator' ) ;
#214 = DATE_AND_TIME ( #144, #276 ) ;
#215 = CARTESIAN_POINT ( 'NONE',  ( 6.000000000000000888, 7.347880794884120722E-16, 5.000000000000000000 ) ) ;
#216 = CIRCLE ( 'NONE', #115, 3.299999999999999822 ) ;
#217 = ORIENTED_EDGE ( 'NONE', *, *, #79, .F. ) ;
#218 = ADVANCED_FACE ( 'NONE', ( #228, #36 ), #152, .T. ) ;
#219 = ORIENTED_EDGE ( 'NONE', *, *, #232, .T. ) ;
#220 = ORIENTED_EDGE ( 'NONE', *, *, #272, .T. ) ;
#221 = EDGE_CURVE ( 'NONE', #3, #7, #153, .T. ) ;
#222 = EDGE_LOOP ( 'NONE', ( #77, #294, #241, #55 ) ) ;
#223 = DIRECTION ( 'NONE',  ( -0.000000000000000000, -0.000000000000000000, -1.000000000000000000 ) ) ;
#224 = DIRECTION ( 'NONE',  ( 0.000000000000000000, 0.000000000000000000, 1.000000000000000000 ) ) ;
#225 = CIRCLE ( 'NONE', #226, 0.1999999999999996503 ) ;
#226 = AXIS2_PLACEMENT_3D ( 'NONE', #15, #248, #271 ) ;
#227 = CARTESIAN_POINT ( 'NONE',  ( 0.000000000000000000, 0.000000000000000000, 5.199999999999982414 ) ) ;
#228 = FACE_BOUND ( 'NONE', #99, .T. ) ;
#229 = DIRECTION ( 'NONE',  ( -0.000000000000000000, -0.000000000000000000, -1.000000000000000000 ) ) ;
#230 = DIRECTION ( 'NONE',  ( -0.000000000000000000, -0.000000000000000000, -1.000000000000000000 ) ) ;
#231 = APPLICATION_PROTOCOL_DEFINITION ( 'international standard', 'config_control_design', 1994, #121 ) ;
#232 = EDGE_CURVE ( 'NONE', #238, #286, #200, .T. ) ;
#233 = AXIS2_PLACEMENT_3D ( 'NONE', #237, #28, #120 ) ;
#234 = AXIS2_PLACEMENT_3D ( 'NONE', #25, #18, #285 ) ;
#235 = DIRECTION ( 'NONE',  ( 0.000000000000000000, 0.000000000000000000, 1.000000000000000000 ) ) ;
#236 = APPROVAL ( #136, 'NEURÈENÝ' ) ;
#237 = CARTESIAN_POINT ( 'NONE',  ( 0.000000000000000000, 0.000000000000000000, 5.000000000000000000 ) ) ;
#238 = VERTEX_POINT ( 'NONE', #181 ) ;
#239 = CALENDAR_DATE ( 2022, 20, 6 ) ;
#240 = ORIENTED_EDGE ( 'NONE', *, *, #202, .T. ) ;
#241 = ORIENTED_EDGE ( 'NONE', *, *, #113, .T. ) ;
#242 = FACE_OUTER_BOUND ( 'NONE', #293, .T. ) ;
#243 = CARTESIAN_POINT ( 'NONE',  ( 0.000000000000000000, 0.000000000000000000, 5.000000000000000000 ) ) ;
#244 = CARTESIAN_POINT ( 'NONE',  ( 0.000000000000000000, 0.000000000000000000, 1004.999999999999886 ) ) ;
#245 = EDGE_CURVE ( 'NONE', #286, #10, #297, .T. ) ;
#246 = AXIS2_PLACEMENT_3D ( 'NONE', #227, #35, #295 ) ;
#247 = CIRCLE ( 'NONE', #246, 3.100000000000000089 ) ;
#248 = DIRECTION ( 'NONE',  ( 0.000000000000000000, -1.000000000000000000, 0.000000000000000000 ) ) ;
#249 = DIRECTION ( 'NONE',  ( 1.000000000000000000, 0.000000000000000000, 0.000000000000000000 ) ) ;
#250 = ADVANCED_FACE ( 'NONE', ( #203 ), #299, .T. ) ;
#251 = CARTESIAN_POINT ( 'NONE',  ( -3.100000000000000089, 0.000000000000000000, 1004.999999999999886 ) ) ;
#252 = CIRCLE ( 'NONE', #158, 6.000000000000000888 ) ;
#253 = PERSON_AND_ORGANIZATION_ROLE ( 'design_owner' ) ;
#254 = PRODUCT_RELATED_PRODUCT_CATEGORY ( 'detail', '', ( #62 ) ) ;
#255 = ORIENTED_EDGE ( 'NONE', *, *, #166, .T. ) ;
#256 = DIRECTION ( 'NONE',  ( 1.000000000000000000, 0.000000000000000000, 0.000000000000000000 ) ) ;
#257 = FACE_OUTER_BOUND ( 'NONE', #93, .T. ) ;
#258 = PERSON_AND_ORGANIZATION ( #5, #51 ) ;
#259 = EDGE_CURVE ( 'NONE', #6, #102, #195, .T. ) ;
#260 = COORDINATED_UNIVERSAL_TIME_OFFSET ( 1, 0, .AHEAD. ) ;
#261 = ORIENTED_EDGE ( 'NONE', *, *, #178, .T. ) ;
#262 = CC_DESIGN_APPROVAL ( #109, ( #209 ) ) ;
#263 = APPROVAL_ROLE ( '' ) ;
#264 = CARTESIAN_POINT ( 'NONE',  ( 0.000000000000000000, 0.000000000000000000, 5.000000000000000000 ) ) ;
#265 = ORIENTED_EDGE ( 'NONE', *, *, #87, .T. ) ;
#266 = ADVANCED_FACE ( 'NONE', ( #300 ), #301, .T. ) ;
#267 = APPROVAL_STATUS ( 'not_yet_approved' ) ;
#268 = LINE ( 'NONE', #215, #175 ) ;
#269 = EDGE_LOOP ( 'NONE', ( #56, #190, #265, #197 ) ) ;
#270 = VECTOR ( 'NONE', #17, 1000.000000000000000 ) ;
#271 = DIRECTION ( 'NONE',  ( 0.000000000000000000, 0.000000000000000000, -1.000000000000000000 ) ) ;
#272 = EDGE_CURVE ( 'NONE', #10, #104, #8, .T. ) ;
#273 = CARTESIAN_POINT ( 'NONE',  ( 0.000000000000000000, 0.000000000000000000, 0.000000000000000000 ) ) ;
#274 = CARTESIAN_POINT ( 'NONE',  ( -3.100000000000000089, 0.000000000000000000, 1004.999999999999886 ) ) ;
#275 = CLOSED_SHELL ( 'NONE', ( #289, #266, #250, #19, #218, #279, #72, #163, #307 ) ) ;
#276 = LOCAL_TIME ( 11, 55, 9.000000000000000000, #260 ) ;
#277 = CC_DESIGN_APPROVAL ( #236, ( #159 ) ) ;
#278 = LINE ( 'NONE', #133, #43 ) ;
#279 = ADVANCED_FACE ( 'NONE', ( #184 ), #207, .F. ) ;
#280 = DIRECTION ( 'NONE',  ( -0.000000000000000000, -0.000000000000000000, -1.000000000000000000 ) ) ;
#281 = DIRECTION ( 'NONE',  ( 0.000000000000000000, 0.000000000000000000, 1.000000000000000000 ) ) ;
#282 = CIRCLE ( 'NONE', #37, 0.2000000000000000944 ) ;
#283 = DIRECTION ( 'NONE',  ( -1.000000000000000000, 0.000000000000000000, 0.000000000000000000 ) ) ;
#284 =( NAMED_UNIT ( * ) SI_UNIT ( $, .STERADIAN. ) SOLID_ANGLE_UNIT ( ) );
#285 = DIRECTION ( 'NONE',  ( 1.000000000000000000, 0.000000000000000000, -0.000000000000000000 ) ) ;
#286 = VERTEX_POINT ( 'NONE', #251 ) ;
#287 = DIRECTION ( 'NONE',  ( -0.000000000000000000, -0.000000000000000000, -1.000000000000000000 ) ) ;
#288 = AXIS2_PLACEMENT_3D ( 'NONE', #110, #82, #176 ) ;
#289 = ADVANCED_FACE ( 'NONE', ( #257 ), #63, .F. ) ;
#290 = ORIENTED_EDGE ( 'NONE', *, *, #221, .F. ) ;
#291 = AXIS2_PLACEMENT_3D ( 'NONE', #201, #86, #85 ) ;
#292 = SHAPE_DEFINITION_REPRESENTATION ( #298, #183 ) ;
#293 = EDGE_LOOP ( 'NONE', ( #80, #71, #118, #220 ) ) ;
#294 = ORIENTED_EDGE ( 'NONE', *, *, #259, .F. ) ;
#295 = DIRECTION ( 'NONE',  ( 1.000000000000000000, 0.000000000000000000, 0.000000000000000000 ) ) ;
#296 = AXIS2_PLACEMENT_3D ( 'NONE', #161, #235, #188 ) ;
#297 = LINE ( 'NONE', #274, #23 ) ;
#298 = PRODUCT_DEFINITION_SHAPE ( 'NONE', 'NONE',  #159 ) ;
#299 = CYLINDRICAL_SURFACE ( 'NONE', #90, 6.000000000000000888 ) ;
#300 = FACE_OUTER_BOUND ( 'NONE', #269, .T. ) ;
#301 = CYLINDRICAL_SURFACE ( 'NONE', #168, 3.100000000000000089 ) ;
#302 = CALENDAR_DATE ( 2022, 20, 6 ) ;
#303 =( LENGTH_UNIT ( ) NAMED_UNIT ( * ) SI_UNIT ( .MILLI., .METRE. ) );
#304 = LOCAL_TIME ( 11, 55, 9.000000000000000000, #98 ) ;
#305 = PERSON_AND_ORGANIZATION ( #5, #51 ) ;
#306 = CARTESIAN_POINT ( 'NONE',  ( 0.000000000000000000, 0.000000000000000000, 0.000000000000000000 ) ) ;
#307 = ADVANCED_FACE ( 'NONE', ( #20 ), #146, .F. ) ;
ENDSEC;
END-ISO-10303-21;
