ISO-10303-21;
HEADER;
FILE_DESCRIPTION (( 'STEP AP203' ),
    '1' );
FILE_NAME ('e8f8.STEP',
    '2022-06-20T10:11:56',
    ( '' ),
    ( '' ),
    'SwSTEP 2.0',
    'SolidWorks 2019',
    '' );
FILE_SCHEMA (( 'CONFIG_CONTROL_DESIGN' ));
ENDSEC;

DATA;
#1 = DIRECTION ( 'NONE',  ( 0.000000000000000000, 0.000000000000000000, 1.000000000000000000 ) ) ;
#2 = DIRECTION ( 'NONE',  ( 0.000000000000000000, 0.000000000000000000, 1.000000000000000000 ) ) ;
#3 = APPROVAL ( #183, 'NEURÈENÝ' ) ;
#4 = CARTESIAN_POINT ( 'NONE',  ( 0.000000000000000000, 0.000000000000000000, 0.000000000000000000 ) ) ;
#5 = AXIS2_PLACEMENT_3D ( 'NONE', #218, #2, #99 ) ;
#6 = CARTESIAN_POINT ( 'NONE',  ( -1.750000000000000000, 0.000000000000000000, 253.0000000000000000 ) ) ;
#7 = CARTESIAN_POINT ( 'NONE',  ( 0.000000000000000000, 0.000000000000000000, 253.0000000000000000 ) ) ;
#8 = PERSON_AND_ORGANIZATION_ROLE ( 'design_supplier' ) ;
#9 = PERSON ( 'NEURÈENÝ', 'NEURÈENÝ', 'NEURÈENÝ', ('NEURÈENÝ'), ('NEURÈENÝ'), ('NEURÈENÝ') ) ;
#10 = SECURITY_CLASSIFICATION_LEVEL ( 'unclassified' ) ;
#11 = VERTEX_POINT ( 'NONE', #142 ) ;
#12 = EDGE_CURVE ( 'NONE', #56, #228, #143, .T. ) ;
#13 = APPROVAL_STATUS ( 'not_yet_approved' ) ;
#14 = ORIENTED_EDGE ( 'NONE', *, *, #282, .T. ) ;
#15 = VECTOR ( 'NONE', #50, 1000.000000000000000 ) ;
#16 = CARTESIAN_POINT ( 'NONE',  ( 0.000000000000000000, 0.000000000000000000, 3.000000000000000000 ) ) ;
#17 = AXIS2_PLACEMENT_3D ( 'NONE', #287, #78, #128 ) ;
#18 = DIRECTION ( 'NONE',  ( 1.000000000000000000, 0.000000000000000000, 0.000000000000000000 ) ) ;
#19 = EDGE_LOOP ( 'NONE', ( #90, #166, #113, #81 ) ) ;
#20 = ORIENTED_EDGE ( 'NONE', *, *, #158, .F. ) ;
#21 = AXIS2_PLACEMENT_3D ( 'NONE', #7, #132, #53 ) ;
#22 = DIRECTION ( 'NONE',  ( 0.000000000000000000, 0.000000000000000000, 1.000000000000000000 ) ) ;
#23 = DIRECTION ( 'NONE',  ( -1.000000000000000000, 0.000000000000000000, 0.000000000000000000 ) ) ;
#24 = ADVANCED_FACE ( 'NONE', ( #46, #119 ), #305, .T. ) ;
#25 = CARTESIAN_POINT ( 'NONE',  ( 0.000000000000000000, 0.000000000000000000, 0.000000000000000000 ) ) ;
#26 = AXIS2_PLACEMENT_3D ( 'NONE', #16, #302, #122 ) ;
#27 = SECURITY_CLASSIFICATION ( '', '', #10 ) ;
#28 = FACE_OUTER_BOUND ( 'NONE', #274, .T. ) ;
#29 = DIRECTION ( 'NONE',  ( 1.000000000000000000, 0.000000000000000000, 0.000000000000000000 ) ) ;
#30 = APPROVAL_DATE_TIME ( #137, #234 ) ;
#31 = DATE_TIME_ROLE ( 'classification_date' ) ;
#32 = APPROVAL_PERSON_ORGANIZATION ( #185, #104, #58 ) ;
#33 = MECHANICAL_CONTEXT ( 'NONE', #223, 'mechanical' ) ;
#34 = EDGE_CURVE ( 'NONE', #141, #294, #168, .T. ) ;
#35 = COORDINATED_UNIVERSAL_TIME_OFFSET ( 1, 0, .AHEAD. ) ;
#36 = VERTEX_POINT ( 'NONE', #300 ) ;
#37 = AXIS2_PLACEMENT_3D ( 'NONE', #210, #87, #275 ) ;
#38 = PERSON_AND_ORGANIZATION_ROLE ( 'creator' ) ;
#39 = ORIENTED_EDGE ( 'NONE', *, *, #118, .T. ) ;
#40 = EDGE_LOOP ( 'NONE', ( #164, #303, #138, #272 ) ) ;
#41 = CLOSED_SHELL ( 'NONE', ( #249, #144, #130, #126, #24, #161, #258, #206, #186 ) ) ;
#42 = CARTESIAN_POINT ( 'NONE',  ( 0.000000000000000000, 0.000000000000000000, 0.000000000000000000 ) ) ;
#43 = APPROVAL_PERSON_ORGANIZATION ( #182, #234, #61 ) ;
#44 = ORIENTED_EDGE ( 'NONE', *, *, #252, .T. ) ;
#45 = DIRECTION ( 'NONE',  ( 0.000000000000000000, 0.000000000000000000, 1.000000000000000000 ) ) ;
#46 = FACE_BOUND ( 'NONE', #89, .T. ) ;
#47 = TOROIDAL_SURFACE ( 'NONE', #94, 1.950000000000000178, 0.2000000000000000111 ) ;
#48 = CARTESIAN_POINT ( 'NONE',  ( -3.500000000000000444, 0.000000000000000000, 3.000000000000000000 ) ) ;
#49 = LINE ( 'NONE', #6, #264 ) ;
#50 = DIRECTION ( 'NONE',  ( -0.000000000000000000, -0.000000000000000000, -1.000000000000000000 ) ) ;
#51 = AXIS2_PLACEMENT_3D ( 'NONE', #67, #253, #18 ) ;
#52 = DIRECTION ( 'NONE',  ( -0.000000000000000000, -0.000000000000000000, -1.000000000000000000 ) ) ;
#53 = DIRECTION ( 'NONE',  ( -1.000000000000000000, 0.000000000000000000, 0.000000000000000000 ) ) ;
#54 = ADVANCED_BREP_SHAPE_REPRESENTATION ( 'e8f8', ( #222, #175 ), #107 ) ;
#55 = COORDINATED_UNIVERSAL_TIME_OFFSET ( 1, 0, .AHEAD. ) ;
#56 = VERTEX_POINT ( 'NONE', #195 ) ;
#57 = CC_DESIGN_PERSON_AND_ORGANIZATION_ASSIGNMENT ( #108, #295, ( #27 ) ) ;
#58 = APPROVAL_ROLE ( '' ) ;
#59 = EDGE_LOOP ( 'NONE', ( #93, #184 ) ) ;
#60 = PERSON_AND_ORGANIZATION_ROLE ( 'design_owner' ) ;
#61 = APPROVAL_ROLE ( '' ) ;
#62 = VECTOR ( 'NONE', #83, 1000.000000000000000 ) ;
#63 = CARTESIAN_POINT ( 'NONE',  ( 1.750000000000000000, 2.143131898507868297E-16, 3.200000000000008171 ) ) ;
#64 = DIRECTION ( 'NONE',  ( -1.000000000000000000, 0.000000000000000000, 0.000000000000000000 ) ) ;
#65 = EDGE_LOOP ( 'NONE', ( #250, #254 ) ) ;
#66 = APPROVAL_PERSON_ORGANIZATION ( #204, #3, #266 ) ;
#67 = CARTESIAN_POINT ( 'NONE',  ( 0.000000000000000000, 0.000000000000000000, 253.0000000000000000 ) ) ;
#68 = DIRECTION ( 'NONE',  ( 0.000000000000000000, 0.000000000000000000, 1.000000000000000000 ) ) ;
#69 = CC_DESIGN_DATE_AND_TIME_ASSIGNMENT ( #159, #31, ( #27 ) ) ;
#70 = DATE_AND_TIME ( #124, #241 ) ;
#71 = FACE_OUTER_BOUND ( 'NONE', #40, .T. ) ;
#72 = LOCAL_TIME ( 12, 11, 56.00000000000000000, #299 ) ;
#73 = FACE_OUTER_BOUND ( 'NONE', #59, .T. ) ;
#74 = CARTESIAN_POINT ( 'NONE',  ( 0.000000000000000000, 0.000000000000000000, 3.200000000000008171 ) ) ;
#75 = DIRECTION ( 'NONE',  ( 1.000000000000000000, 0.000000000000000000, -0.000000000000000000 ) ) ;
#76 = EDGE_CURVE ( 'NONE', #213, #169, #173, .T. ) ;
#77 = CIRCLE ( 'NONE', #88, 1.950000000000000178 ) ;
#78 = DIRECTION ( 'NONE',  ( 1.224646799147353207E-16, 1.000000000000000000, -0.000000000000000000 ) ) ;
#79 = CALENDAR_DATE ( 2022, 20, 6 ) ;
#80 = EDGE_CURVE ( 'NONE', #11, #36, #121, .T. ) ;
#81 = ORIENTED_EDGE ( 'NONE', *, *, #181, .T. ) ;
#82 = APPROVAL_STATUS ( 'not_yet_approved' ) ;
#83 = DIRECTION ( 'NONE',  ( -0.000000000000000000, -0.000000000000000000, -1.000000000000000000 ) ) ;
#84 = APPROVAL_DATE_TIME ( #248, #104 ) ;
#85 = ORIENTED_EDGE ( 'NONE', *, *, #12, .F. ) ;
#86 = CC_DESIGN_PERSON_AND_ORGANIZATION_ASSIGNMENT ( #162, #38, ( #146 ) ) ;
#87 = DIRECTION ( 'NONE',  ( -0.000000000000000000, -0.000000000000000000, -1.000000000000000000 ) ) ;
#88 = AXIS2_PLACEMENT_3D ( 'NONE', #200, #52, #127 ) ;
#89 = EDGE_LOOP ( 'NONE', ( #203, #247 ) ) ;
#90 = ORIENTED_EDGE ( 'NONE', *, *, #118, .F. ) ;
#91 = PRODUCT_RELATED_PRODUCT_CATEGORY ( 'detail', '', ( #154 ) ) ;
#92 = AXIS2_PLACEMENT_3D ( 'NONE', #145, #45, #148 ) ;
#93 = ORIENTED_EDGE ( 'NONE', *, *, #12, .T. ) ;
#94 = AXIS2_PLACEMENT_3D ( 'NONE', #260, #180, #283 ) ;
#95 = DIRECTION ( 'NONE',  ( 0.000000000000000000, 0.000000000000000000, 1.000000000000000000 ) ) ;
#96 = FACE_OUTER_BOUND ( 'NONE', #231, .T. ) ;
#97 = EDGE_CURVE ( 'NONE', #140, #11, #261, .T. ) ;
#98 = AXIS2_PLACEMENT_3D ( 'NONE', #255, #149, #64 ) ;
#99 = DIRECTION ( 'NONE',  ( 1.000000000000000000, 0.000000000000000000, 0.000000000000000000 ) ) ;
#100 = AXIS2_PLACEMENT_3D ( 'NONE', #221, #263, #238 ) ;
#101 = APPROVAL_DATE_TIME ( #70, #3 ) ;
#102 = CARTESIAN_POINT ( 'NONE',  ( 3.500000000000000444, 4.286263797015737088E-16, 3.000000000000000000 ) ) ;
#103 = DIRECTION ( 'NONE',  ( 1.000000000000000000, 0.000000000000000000, 0.000000000000000000 ) ) ;
#104 = APPROVAL ( #13, 'NEURÈENÝ' ) ;
#105 = CARTESIAN_POINT ( 'NONE',  ( 0.000000000000000000, 0.000000000000000000, 3.000000000000000000 ) ) ;
#106 = AXIS2_PLACEMENT_3D ( 'NONE', #289, #219, #23 ) ;
#107 =( GEOMETRIC_REPRESENTATION_CONTEXT ( 3 ) GLOBAL_UNCERTAINTY_ASSIGNED_CONTEXT ( ( #163 ) ) GLOBAL_UNIT_ASSIGNED_CONTEXT ( ( #109, #187, #134 ) ) REPRESENTATION_CONTEXT ( 'NONE', 'WORKASPACE' ) );
#108 = PERSON_AND_ORGANIZATION ( #9, #133 ) ;
#109 =( LENGTH_UNIT ( ) NAMED_UNIT ( * ) SI_UNIT ( .MILLI., .METRE. ) );
#110 = APPLICATION_PROTOCOL_DEFINITION ( 'international standard', 'config_control_design', 1994, #223 ) ;
#111 = CALENDAR_DATE ( 2022, 20, 6 ) ;
#112 = CC_DESIGN_APPROVAL ( #3, ( #27 ) ) ;
#113 = ORIENTED_EDGE ( 'NONE', *, *, #158, .T. ) ;
#114 = CC_DESIGN_PERSON_AND_ORGANIZATION_ASSIGNMENT ( #205, #188, ( #262 ) ) ;
#115 = CYLINDRICAL_SURFACE ( 'NONE', #37, 3.500000000000000444 ) ;
#116 = APPLICATION_CONTEXT ( 'configuration controlled 3d designs of mechanical parts and assemblies' ) ;
#117 = DIRECTION ( 'NONE',  ( 0.000000000000000000, -1.000000000000000000, 0.000000000000000000 ) ) ;
#118 = EDGE_CURVE ( 'NONE', #213, #141, #214, .T. ) ;
#119 = FACE_OUTER_BOUND ( 'NONE', #278, .T. ) ;
#120 = ORIENTED_EDGE ( 'NONE', *, *, #34, .T. ) ;
#121 = CIRCLE ( 'NONE', #26, 1.950000000000000178 ) ;
#122 = DIRECTION ( 'NONE',  ( 1.000000000000000000, 0.000000000000000000, 0.000000000000000000 ) ) ;
#123 = CIRCLE ( 'NONE', #17, 0.1999999999999998723 ) ;
#124 = CALENDAR_DATE ( 2022, 20, 6 ) ;
#125 = DIRECTION ( 'NONE',  ( 1.000000000000000000, 0.000000000000000000, 0.000000000000000000 ) ) ;
#126 = ADVANCED_FACE ( 'NONE', ( #189 ), #172, .T. ) ;
#127 = DIRECTION ( 'NONE',  ( 1.000000000000000000, 0.000000000000000000, 0.000000000000000000 ) ) ;
#128 = DIRECTION ( 'NONE',  ( -1.000000000000000000, 1.224646799147354686E-16, 0.000000000000000000 ) ) ;
#129 = CIRCLE ( 'NONE', #193, 3.500000000000000444 ) ;
#130 = ADVANCED_FACE ( 'NONE', ( #237 ), #115, .T. ) ;
#131 = DIRECTION ( 'NONE',  ( 0.000000000000000000, 0.000000000000000000, 1.000000000000000000 ) ) ;
#132 = DIRECTION ( 'NONE',  ( -0.000000000000000000, -0.000000000000000000, -1.000000000000000000 ) ) ;
#133 = ORGANIZATION ( 'NEURÈENÝ', 'NEURÈENÝ', '' ) ;
#134 =( NAMED_UNIT ( * ) SI_UNIT ( $, .STERADIAN. ) SOLID_ANGLE_UNIT ( ) );
#135 = ORIENTED_EDGE ( 'NONE', *, *, #288, .T. ) ;
#136 = PRODUCT_DEFINITION_SHAPE ( 'NONE', 'NONE',  #262 ) ;
#137 = DATE_AND_TIME ( #244, #220 ) ;
#138 = ORIENTED_EDGE ( 'NONE', *, *, #80, .F. ) ;
#139 = DIRECTION ( 'NONE',  ( 1.000000000000000000, 0.000000000000000000, 0.000000000000000000 ) ) ;
#140 = VERTEX_POINT ( 'NONE', #63 ) ;
#141 = VERTEX_POINT ( 'NONE', #285 ) ;
#142 = CARTESIAN_POINT ( 'NONE',  ( 1.950000000000000178, 0.000000000000000000, 3.000000000000004441 ) ) ;
#143 = CIRCLE ( 'NONE', #51, 1.750000000000000000 ) ;
#144 = ADVANCED_FACE ( 'NONE', ( #96 ), #240, .T. ) ;
#145 = CARTESIAN_POINT ( 'NONE',  ( 0.000000000000000000, 0.000000000000000000, 3.000000000000000000 ) ) ;
#146 = PRODUCT_DEFINITION_FORMATION_WITH_SPECIFIED_SOURCE ( 'LIBOVOLNÝ', '', #154, .NOT_KNOWN. ) ;
#147 = ORIENTED_EDGE ( 'NONE', *, *, #76, .F. ) ;
#148 = DIRECTION ( 'NONE',  ( 1.000000000000000000, 0.000000000000000000, -0.000000000000000000 ) ) ;
#149 = DIRECTION ( 'NONE',  ( -0.000000000000000000, -0.000000000000000000, -1.000000000000000000 ) ) ;
#150 = CARTESIAN_POINT ( 'NONE',  ( 1.750000000000000000, 2.143131898507868297E-16, 253.0000000000000000 ) ) ;
#151 = AXIS2_PLACEMENT_3D ( 'NONE', #42, #95, #232 ) ;
#152 = CARTESIAN_POINT ( 'NONE',  ( -1.750000000000000000, 0.000000000000000000, 3.200000000000008171 ) ) ;
#153 = TOROIDAL_SURFACE ( 'NONE', #279, 1.950000000000000178, 0.2000000000000000111 ) ;
#154 = PRODUCT ( 'e8f8', 'e8f8', '', ( #33 ) ) ;
#155 = CARTESIAN_POINT ( 'NONE',  ( 1.750000000000000000, 2.143131898507868297E-16, 253.0000000000000000 ) ) ;
#156 = DIRECTION ( 'NONE',  ( -0.000000000000000000, -0.000000000000000000, -1.000000000000000000 ) ) ;
#157 = VECTOR ( 'NONE', #306, 1000.000000000000000 ) ;
#158 = EDGE_CURVE ( 'NONE', #169, #294, #199, .T. ) ;
#159 = DATE_AND_TIME ( #245, #207 ) ;
#160 = ORIENTED_EDGE ( 'NONE', *, *, #252, .F. ) ;
#161 = ADVANCED_FACE ( 'NONE', ( #176 ), #201, .F. ) ;
#162 = PERSON_AND_ORGANIZATION ( #9, #133 ) ;
#163 = UNCERTAINTY_MEASURE_WITH_UNIT (LENGTH_MEASURE( 1.000000000000000082E-05 ), #109, 'distance_accuracy_value', 'NONE');
#164 = ORIENTED_EDGE ( 'NONE', *, *, #288, .F. ) ;
#165 = CIRCLE ( 'NONE', #257, 3.500000000000000444 ) ;
#166 = ORIENTED_EDGE ( 'NONE', *, *, #282, .F. ) ;
#167 = VERTEX_POINT ( 'NONE', #152 ) ;
#168 = CIRCLE ( 'NONE', #151, 3.500000000000000444 ) ;
#169 = VERTEX_POINT ( 'NONE', #196 ) ;
#170 = CC_DESIGN_APPROVAL ( #234, ( #146 ) ) ;
#171 = DIRECTION ( 'NONE',  ( 1.000000000000000000, 0.000000000000000000, 0.000000000000000000 ) ) ;
#172 = CYLINDRICAL_SURFACE ( 'NONE', #98, 3.500000000000000444 ) ;
#173 = CIRCLE ( 'NONE', #284, 3.500000000000000444 ) ;
#174 = DIRECTION ( 'NONE',  ( 0.000000000000000000, 0.000000000000000000, 1.000000000000000000 ) ) ;
#175 = AXIS2_PLACEMENT_3D ( 'NONE', #273, #269, #139 ) ;
#176 = FACE_OUTER_BOUND ( 'NONE', #65, .T. ) ;
#177 = CC_DESIGN_PERSON_AND_ORGANIZATION_ASSIGNMENT ( #225, #8, ( #146 ) ) ;
#178 = SHAPE_DEFINITION_REPRESENTATION ( #136, #54 ) ;
#179 = DIRECTION ( 'NONE',  ( 1.000000000000000000, 0.000000000000000000, -0.000000000000000000 ) ) ;
#180 = DIRECTION ( 'NONE',  ( 0.000000000000000000, 0.000000000000000000, 1.000000000000000000 ) ) ;
#181 = EDGE_CURVE ( 'NONE', #294, #141, #129, .T. ) ;
#182 = PERSON_AND_ORGANIZATION ( #9, #133 ) ;
#183 = APPROVAL_STATUS ( 'not_yet_approved' ) ;
#184 = ORIENTED_EDGE ( 'NONE', *, *, #211, .T. ) ;
#185 = PERSON_AND_ORGANIZATION ( #9, #133 ) ;
#186 = ADVANCED_FACE ( 'NONE', ( #28 ), #47, .F. ) ;
#187 =( NAMED_UNIT ( * ) PLANE_ANGLE_UNIT ( ) SI_UNIT ( $, .RADIAN. ) );
#188 = PERSON_AND_ORGANIZATION_ROLE ( 'creator' ) ;
#189 = FACE_OUTER_BOUND ( 'NONE', #19, .T. ) ;
#190 = DIRECTION ( 'NONE',  ( 0.000000000000000000, 0.000000000000000000, -1.000000000000000000 ) ) ;
#191 = ORIENTED_EDGE ( 'NONE', *, *, #97, .T. ) ;
#192 = CARTESIAN_POINT ( 'NONE',  ( 0.000000000000000000, 0.000000000000000000, 3.000000000000000000 ) ) ;
#193 = AXIS2_PLACEMENT_3D ( 'NONE', #4, #174, #103 ) ;
#194 = EDGE_CURVE ( 'NONE', #56, #167, #49, .T. ) ;
#195 = CARTESIAN_POINT ( 'NONE',  ( -1.750000000000000000, 0.000000000000000000, 253.0000000000000000 ) ) ;
#196 = CARTESIAN_POINT ( 'NONE',  ( -3.500000000000000444, 0.000000000000000000, 3.000000000000000000 ) ) ;
#197 = LINE ( 'NONE', #150, #62 ) ;
#198 = AXIS2_PLACEMENT_3D ( 'NONE', #74, #265, #29 ) ;
#199 = LINE ( 'NONE', #48, #15 ) ;
#200 = CARTESIAN_POINT ( 'NONE',  ( 0.000000000000000000, 0.000000000000000000, 3.000000000000000000 ) ) ;
#201 = PLANE ( 'NONE',  #286 ) ;
#202 = CIRCLE ( 'NONE', #5, 1.750000000000000000 ) ;
#203 = ORIENTED_EDGE ( 'NONE', *, *, #80, .T. ) ;
#204 = PERSON_AND_ORGANIZATION ( #9, #133 ) ;
#205 = PERSON_AND_ORGANIZATION ( #9, #133 ) ;
#206 = ADVANCED_FACE ( 'NONE', ( #73 ), #290, .T. ) ;
#207 = LOCAL_TIME ( 12, 11, 56.00000000000000000, #292 ) ;
#208 = APPLICATION_PROTOCOL_DEFINITION ( 'international standard', 'config_control_design', 1994, #116 ) ;
#209 = ORIENTED_EDGE ( 'NONE', *, *, #194, .T. ) ;
#210 = CARTESIAN_POINT ( 'NONE',  ( 0.000000000000000000, 0.000000000000000000, 3.000000000000000000 ) ) ;
#211 = EDGE_CURVE ( 'NONE', #228, #56, #212, .T. ) ;
#212 = CIRCLE ( 'NONE', #100, 1.750000000000000000 ) ;
#213 = VERTEX_POINT ( 'NONE', #102 ) ;
#214 = LINE ( 'NONE', #276, #157 ) ;
#215 = ORIENTED_EDGE ( 'NONE', *, *, #76, .T. ) ;
#216 = CARTESIAN_POINT ( 'NONE',  ( 1.950000000000000178, 0.000000000000000000, 3.200000000000008171 ) ) ;
#217 = FACE_OUTER_BOUND ( 'NONE', #280, .T. ) ;
#218 = CARTESIAN_POINT ( 'NONE',  ( 0.000000000000000000, 0.000000000000000000, 3.200000000000008171 ) ) ;
#219 = DIRECTION ( 'NONE',  ( -0.000000000000000000, -0.000000000000000000, -1.000000000000000000 ) ) ;
#220 = LOCAL_TIME ( 12, 11, 56.00000000000000000, #35 ) ;
#221 = CARTESIAN_POINT ( 'NONE',  ( 0.000000000000000000, 0.000000000000000000, 253.0000000000000000 ) ) ;
#222 = MANIFOLD_SOLID_BREP ( 'Zaoblit1', #41 ) ;
#223 = APPLICATION_CONTEXT ( 'configuration controlled 3d designs of mechanical parts and assemblies' ) ;
#224 = DIRECTION ( 'NONE',  ( 1.000000000000000000, 0.000000000000000000, 0.000000000000000000 ) ) ;
#225 = PERSON_AND_ORGANIZATION ( #9, #133 ) ;
#226 = DATE_TIME_ROLE ( 'creation_date' ) ;
#227 = EDGE_CURVE ( 'NONE', #36, #11, #77, .T. ) ;
#228 = VERTEX_POINT ( 'NONE', #155 ) ;
#229 = PERSON_AND_ORGANIZATION ( #9, #133 ) ;
#230 = CC_DESIGN_SECURITY_CLASSIFICATION ( #27, ( #146 ) ) ;
#231 = EDGE_LOOP ( 'NONE', ( #236, #267, #44, #233 ) ) ;
#232 = DIRECTION ( 'NONE',  ( 1.000000000000000000, 0.000000000000000000, 0.000000000000000000 ) ) ;
#233 = ORIENTED_EDGE ( 'NONE', *, *, #194, .F. ) ;
#234 = APPROVAL ( #82, 'NEURÈENÝ' ) ;
#235 = ORIENTED_EDGE ( 'NONE', *, *, #242, .F. ) ;
#236 = ORIENTED_EDGE ( 'NONE', *, *, #211, .F. ) ;
#237 = FACE_OUTER_BOUND ( 'NONE', #251, .T. ) ;
#238 = DIRECTION ( 'NONE',  ( 1.000000000000000000, 0.000000000000000000, 0.000000000000000000 ) ) ;
#239 = DIRECTION ( 'NONE',  ( 0.000000000000000000, 0.000000000000000000, 1.000000000000000000 ) ) ;
#240 = CYLINDRICAL_SURFACE ( 'NONE', #106, 1.750000000000000000 ) ;
#241 = LOCAL_TIME ( 12, 11, 56.00000000000000000, #55 ) ;
#242 = EDGE_CURVE ( 'NONE', #167, #36, #123, .T. ) ;
#243 = CARTESIAN_POINT ( 'NONE',  ( 0.000000000000000000, 0.000000000000000000, 3.200000000000008171 ) ) ;
#244 = CALENDAR_DATE ( 2022, 20, 6 ) ;
#245 = CALENDAR_DATE ( 2022, 20, 6 ) ;
#246 = COORDINATED_UNIVERSAL_TIME_OFFSET ( 1, 0, .AHEAD. ) ;
#247 = ORIENTED_EDGE ( 'NONE', *, *, #227, .T. ) ;
#248 = DATE_AND_TIME ( #79, #297 ) ;
#249 = ADVANCED_FACE ( 'NONE', ( #71 ), #153, .F. ) ;
#250 = ORIENTED_EDGE ( 'NONE', *, *, #181, .F. ) ;
#251 = EDGE_LOOP ( 'NONE', ( #147, #39, #120, #20 ) ) ;
#252 = EDGE_CURVE ( 'NONE', #140, #167, #291, .T. ) ;
#253 = DIRECTION ( 'NONE',  ( 0.000000000000000000, 0.000000000000000000, 1.000000000000000000 ) ) ;
#254 = ORIENTED_EDGE ( 'NONE', *, *, #34, .F. ) ;
#255 = CARTESIAN_POINT ( 'NONE',  ( 0.000000000000000000, 0.000000000000000000, 3.000000000000000000 ) ) ;
#256 = CYLINDRICAL_SURFACE ( 'NONE', #21, 1.750000000000000000 ) ;
#257 = AXIS2_PLACEMENT_3D ( 'NONE', #105, #22, #125 ) ;
#258 = ADVANCED_FACE ( 'NONE', ( #217 ), #256, .T. ) ;
#259 = CARTESIAN_POINT ( 'NONE',  ( 0.000000000000000000, 0.000000000000000000, 253.0000000000000000 ) ) ;
#260 = CARTESIAN_POINT ( 'NONE',  ( 0.000000000000000000, 0.000000000000000000, 3.200000000000008171 ) ) ;
#261 = CIRCLE ( 'NONE', #304, 0.2000000000000000944 ) ;
#262 = PRODUCT_DEFINITION ( 'NEZNÁMÝ', '', #146, #296 ) ;
#263 = DIRECTION ( 'NONE',  ( 0.000000000000000000, 0.000000000000000000, 1.000000000000000000 ) ) ;
#264 = VECTOR ( 'NONE', #156, 1000.000000000000000 ) ;
#265 = DIRECTION ( 'NONE',  ( 0.000000000000000000, 0.000000000000000000, 1.000000000000000000 ) ) ;
#266 = APPROVAL_ROLE ( '' ) ;
#267 = ORIENTED_EDGE ( 'NONE', *, *, #293, .T. ) ;
#268 = CC_DESIGN_APPROVAL ( #104, ( #262 ) ) ;
#269 = DIRECTION ( 'NONE',  ( 0.000000000000000000, 0.000000000000000000, 1.000000000000000000 ) ) ;
#270 = ORIENTED_EDGE ( 'NONE', *, *, #227, .F. ) ;
#271 = CARTESIAN_POINT ( 'NONE',  ( -3.500000000000000444, 0.000000000000000000, 0.000000000000000000 ) ) ;
#272 = ORIENTED_EDGE ( 'NONE', *, *, #97, .F. ) ;
#273 = CARTESIAN_POINT ( 'NONE',  ( 0.000000000000000000, 0.000000000000000000, 0.000000000000000000 ) ) ;
#274 = EDGE_LOOP ( 'NONE', ( #235, #160, #191, #270 ) ) ;
#275 = DIRECTION ( 'NONE',  ( -1.000000000000000000, 0.000000000000000000, 0.000000000000000000 ) ) ;
#276 = CARTESIAN_POINT ( 'NONE',  ( 3.500000000000000444, 4.286263797015737088E-16, 3.000000000000000000 ) ) ;
#277 = CC_DESIGN_PERSON_AND_ORGANIZATION_ASSIGNMENT ( #229, #60, ( #154 ) ) ;
#278 = EDGE_LOOP ( 'NONE', ( #14, #215 ) ) ;
#279 = AXIS2_PLACEMENT_3D ( 'NONE', #243, #1, #224 ) ;
#280 = EDGE_LOOP ( 'NONE', ( #281, #85, #209, #135 ) ) ;
#281 = ORIENTED_EDGE ( 'NONE', *, *, #293, .F. ) ;
#282 = EDGE_CURVE ( 'NONE', #169, #213, #165, .T. ) ;
#283 = DIRECTION ( 'NONE',  ( 1.000000000000000000, 0.000000000000000000, 0.000000000000000000 ) ) ;
#284 = AXIS2_PLACEMENT_3D ( 'NONE', #192, #68, #171 ) ;
#285 = CARTESIAN_POINT ( 'NONE',  ( 3.500000000000000444, 4.286263797015737088E-16, 0.000000000000000000 ) ) ;
#286 = AXIS2_PLACEMENT_3D ( 'NONE', #25, #131, #179 ) ;
#287 = CARTESIAN_POINT ( 'NONE',  ( -1.950000000000000178, 2.388061258337339136E-16, 3.200000000000008171 ) ) ;
#288 = EDGE_CURVE ( 'NONE', #167, #140, #202, .T. ) ;
#289 = CARTESIAN_POINT ( 'NONE',  ( 0.000000000000000000, 0.000000000000000000, 253.0000000000000000 ) ) ;
#290 = PLANE ( 'NONE',  #301 ) ;
#291 = CIRCLE ( 'NONE', #198, 1.750000000000000000 ) ;
#292 = COORDINATED_UNIVERSAL_TIME_OFFSET ( 1, 0, .AHEAD. ) ;
#293 = EDGE_CURVE ( 'NONE', #228, #140, #197, .T. ) ;
#294 = VERTEX_POINT ( 'NONE', #271 ) ;
#295 = PERSON_AND_ORGANIZATION_ROLE ( 'classification_officer' ) ;
#296 = DESIGN_CONTEXT ( 'detailed design', #116, 'design' ) ;
#297 = LOCAL_TIME ( 12, 11, 56.00000000000000000, #246 ) ;
#298 = DATE_AND_TIME ( #111, #72 ) ;
#299 = COORDINATED_UNIVERSAL_TIME_OFFSET ( 1, 0, .AHEAD. ) ;
#300 = CARTESIAN_POINT ( 'NONE',  ( -1.950000000000000178, 2.388061258337339136E-16, 3.000000000000004441 ) ) ;
#301 = AXIS2_PLACEMENT_3D ( 'NONE', #259, #239, #75 ) ;
#302 = DIRECTION ( 'NONE',  ( -0.000000000000000000, -0.000000000000000000, -1.000000000000000000 ) ) ;
#303 = ORIENTED_EDGE ( 'NONE', *, *, #242, .T. ) ;
#304 = AXIS2_PLACEMENT_3D ( 'NONE', #216, #117, #190 ) ;
#305 = PLANE ( 'NONE',  #92 ) ;
#306 = DIRECTION ( 'NONE',  ( -0.000000000000000000, -0.000000000000000000, -1.000000000000000000 ) ) ;
#307 = CC_DESIGN_DATE_AND_TIME_ASSIGNMENT ( #298, #226, ( #262 ) ) ;
ENDSEC;
END-ISO-10303-21;
