ISO-10303-21;
HEADER;
FILE_DESCRIPTION (( 'STEP AP203' ),
    '1' );
FILE_NAME ('0313.STEP',
    '2022-06-20T09:20:17',
    ( '' ),
    ( '' ),
    'SwSTEP 2.0',
    'SolidWorks 2019',
    '' );
FILE_SCHEMA (( 'CONFIG_CONTROL_DESIGN' ));
ENDSEC;

DATA;
#1 = EDGE_CURVE ( 'NONE', #296, #102, #227, .T. ) ;
#2 = PERSON_AND_ORGANIZATION ( #32, #50 ) ;
#3 = ORIENTED_EDGE ( 'NONE', *, *, #270, .T. ) ;
#4 = CARTESIAN_POINT ( 'NONE',  ( 0.000000000000000000, 0.000000000000000000, 0.000000000000000000 ) ) ;
#5 = AXIS2_PLACEMENT_3D ( 'NONE', #4, #76, #146 ) ;
#6 = CC_DESIGN_DATE_AND_TIME_ASSIGNMENT ( #238, #207, ( #93 ) ) ;
#7 = VERTEX_POINT ( 'NONE', #152 ) ;
#8 = AXIS2_PLACEMENT_3D ( 'NONE', #196, #291, #294 ) ;
#9 = ORIENTED_EDGE ( 'NONE', *, *, #169, .F. ) ;
#10 = AXIS2_PLACEMENT_3D ( 'NONE', #49, #99, #190 ) ;
#11 = CYLINDRICAL_SURFACE ( 'NONE', #287, 13.00000000000000178 ) ;
#12 = ORIENTED_EDGE ( 'NONE', *, *, #175, .T. ) ;
#13 = UNCERTAINTY_MEASURE_WITH_UNIT (LENGTH_MEASURE( 1.000000000000000082E-05 ), #263, 'distance_accuracy_value', 'NONE');
#14 = EDGE_LOOP ( 'NONE', ( #179, #100, #176, #273 ) ) ;
#15 = CC_DESIGN_APPROVAL ( #206, ( #267 ) ) ;
#16 = DIRECTION ( 'NONE',  ( 1.000000000000000000, 0.000000000000000000, 0.000000000000000000 ) ) ;
#17 = COORDINATED_UNIVERSAL_TIME_OFFSET ( 1, 0, .AHEAD. ) ;
#18 = FACE_OUTER_BOUND ( 'NONE', #174, .T. ) ;
#19 = DIRECTION ( 'NONE',  ( 0.000000000000000000, 0.000000000000000000, 1.000000000000000000 ) ) ;
#20 = CIRCLE ( 'NONE', #55, 13.00000000000000178 ) ;
#21 = DIRECTION ( 'NONE',  ( -0.000000000000000000, -0.000000000000000000, -1.000000000000000000 ) ) ;
#22 = CC_DESIGN_PERSON_AND_ORGANIZATION_ASSIGNMENT ( #162, #72, ( #267 ) ) ;
#23 = PERSON_AND_ORGANIZATION ( #32, #50 ) ;
#24 = CARTESIAN_POINT ( 'NONE',  ( 0.000000000000000000, 0.000000000000000000, 258.0000000000000000 ) ) ;
#25 = ADVANCED_FACE ( 'NONE', ( #155 ), #11, .T. ) ;
#26 = PERSON_AND_ORGANIZATION_ROLE ( 'creator' ) ;
#27 = ORIENTED_EDGE ( 'NONE', *, *, #1, .F. ) ;
#28 = CIRCLE ( 'NONE', #240, 10.00000000000000000 ) ;
#29 = MECHANICAL_CONTEXT ( 'NONE', #75, 'mechanical' ) ;
#30 = ORIENTED_EDGE ( 'NONE', *, *, #224, .F. ) ;
#31 =( NAMED_UNIT ( * ) PLANE_ANGLE_UNIT ( ) SI_UNIT ( $, .RADIAN. ) );
#32 = PERSON ( 'NEURÈENÝ', 'NEURÈENÝ', 'NEURÈENÝ', ('NEURÈENÝ'), ('NEURÈENÝ'), ('NEURÈENÝ') ) ;
#33 = TOROIDAL_SURFACE ( 'NONE', #289, 10.20000000000000107, 0.2000000000000000111 ) ;
#34 = ADVANCED_FACE ( 'NONE', ( #271, #109 ), #136, .T. ) ;
#35 = DIRECTION ( 'NONE',  ( 0.000000000000000000, 0.000000000000000000, 1.000000000000000000 ) ) ;
#36 = ORIENTED_EDGE ( 'NONE', *, *, #290, .T. ) ;
#37 = ORIENTED_EDGE ( 'NONE', *, *, #80, .T. ) ;
#38 = DIRECTION ( 'NONE',  ( 1.000000000000000000, 0.000000000000000000, 0.000000000000000000 ) ) ;
#39 = CARTESIAN_POINT ( 'NONE',  ( 0.000000000000000000, 0.000000000000000000, 8.000000000000000000 ) ) ;
#40 = DIRECTION ( 'NONE',  ( -0.000000000000000000, -0.000000000000000000, -1.000000000000000000 ) ) ;
#41 = DIRECTION ( 'NONE',  ( 1.000000000000000000, 0.000000000000000000, 0.000000000000000000 ) ) ;
#42 = CARTESIAN_POINT ( 'NONE',  ( -10.00000000000000000, 0.000000000000000000, 258.0000000000000000 ) ) ;
#43 = CARTESIAN_POINT ( 'NONE',  ( -13.00000000000000178, 0.000000000000000000, 8.000000000000000000 ) ) ;
#44 = ADVANCED_FACE ( 'NONE', ( #81 ), #53, .F. ) ;
#45 = DIRECTION ( 'NONE',  ( -1.000000000000000000, 0.000000000000000000, 0.000000000000000000 ) ) ;
#46 = CC_DESIGN_PERSON_AND_ORGANIZATION_ASSIGNMENT ( #23, #254, ( #87 ) ) ;
#47 = APPLICATION_PROTOCOL_DEFINITION ( 'international standard', 'config_control_design', 1994, #75 ) ;
#48 = CIRCLE ( 'NONE', #158, 13.00000000000000178 ) ;
#49 = CARTESIAN_POINT ( 'NONE',  ( 0.000000000000000000, 0.000000000000000000, 8.000000000000000000 ) ) ;
#50 = ORGANIZATION ( 'NEURÈENÝ', 'NEURÈENÝ', '' ) ;
#51 =( NAMED_UNIT ( * ) SI_UNIT ( $, .STERADIAN. ) SOLID_ANGLE_UNIT ( ) );
#52 = VERTEX_POINT ( 'NONE', #59 ) ;
#53 = PLANE ( 'NONE',  #184 ) ;
#54 = EDGE_CURVE ( 'NONE', #191, #124, #48, .T. ) ;
#55 = AXIS2_PLACEMENT_3D ( 'NONE', #281, #200, #229 ) ;
#56 = APPROVAL_PERSON_ORGANIZATION ( #139, #206, #285 ) ;
#57 = ORIENTED_EDGE ( 'NONE', *, *, #175, .F. ) ;
#58 = ORIENTED_EDGE ( 'NONE', *, *, #156, .T. ) ;
#59 = CARTESIAN_POINT ( 'NONE',  ( 13.00000000000000178, 1.592040838891559293E-15, 8.000000000000000000 ) ) ;
#60 = AXIS2_PLACEMENT_3D ( 'NONE', #198, #300, #253 ) ;
#61 = ORIENTED_EDGE ( 'NONE', *, *, #91, .F. ) ;
#62 = DIRECTION ( 'NONE',  ( 0.000000000000000000, 0.000000000000000000, 1.000000000000000000 ) ) ;
#63 = EDGE_CURVE ( 'NONE', #52, #191, #131, .T. ) ;
#64 = SHAPE_DEFINITION_REPRESENTATION ( #214, #211 ) ;
#65 = CARTESIAN_POINT ( 'NONE',  ( 0.000000000000000000, 0.000000000000000000, 8.000000000000000000 ) ) ;
#66 = CIRCLE ( 'NONE', #60, 10.00000000000000000 ) ;
#67 = PERSON_AND_ORGANIZATION ( #32, #50 ) ;
#68 = CYLINDRICAL_SURFACE ( 'NONE', #153, 10.00000000000000000 ) ;
#69 = CALENDAR_DATE ( 2022, 20, 6 ) ;
#70 = CARTESIAN_POINT ( 'NONE',  ( 0.000000000000000000, 0.000000000000000000, 8.200000000000013500 ) ) ;
#71 = CARTESIAN_POINT ( 'NONE',  ( 10.20000000000000107, 0.000000000000000000, 8.200000000000013500 ) ) ;
#72 = PERSON_AND_ORGANIZATION_ROLE ( 'classification_officer' ) ;
#73 =( GEOMETRIC_REPRESENTATION_CONTEXT ( 3 ) GLOBAL_UNCERTAINTY_ASSIGNED_CONTEXT ( ( #13 ) ) GLOBAL_UNIT_ASSIGNED_CONTEXT ( ( #263, #31, #51 ) ) REPRESENTATION_CONTEXT ( 'NONE', 'WORKASPACE' ) );
#74 = PERSON_AND_ORGANIZATION ( #32, #50 ) ;
#75 = APPLICATION_CONTEXT ( 'configuration controlled 3d designs of mechanical parts and assemblies' ) ;
#76 = DIRECTION ( 'NONE',  ( 0.000000000000000000, 0.000000000000000000, 1.000000000000000000 ) ) ;
#77 = APPROVAL_DATE_TIME ( #148, #98 ) ;
#78 = CC_DESIGN_PERSON_AND_ORGANIZATION_ASSIGNMENT ( #67, #204, ( #87 ) ) ;
#79 = EDGE_LOOP ( 'NONE', ( #293, #292 ) ) ;
#80 = EDGE_CURVE ( 'NONE', #84, #86, #28, .T. ) ;
#81 = FACE_OUTER_BOUND ( 'NONE', #218, .T. ) ;
#82 = ORIENTED_EDGE ( 'NONE', *, *, #105, .T. ) ;
#83 = TOROIDAL_SURFACE ( 'NONE', #123, 10.20000000000000107, 0.2000000000000000111 ) ;
#84 = VERTEX_POINT ( 'NONE', #199 ) ;
#85 = DIRECTION ( 'NONE',  ( 0.000000000000000000, 0.000000000000000000, 1.000000000000000000 ) ) ;
#86 = VERTEX_POINT ( 'NONE', #114 ) ;
#87 = PRODUCT_DEFINITION_FORMATION_WITH_SPECIFIED_SOURCE ( 'LIBOVOLNÝ', '', #246, .NOT_KNOWN. ) ;
#88 = ADVANCED_FACE ( 'NONE', ( #166 ), #68, .T. ) ;
#89 = DIRECTION ( 'NONE',  ( 0.000000000000000000, 0.000000000000000000, 1.000000000000000000 ) ) ;
#90 = DIRECTION ( 'NONE',  ( 0.000000000000000000, 0.000000000000000000, 1.000000000000000000 ) ) ;
#91 = EDGE_CURVE ( 'NONE', #107, #126, #103, .T. ) ;
#92 = DIRECTION ( 'NONE',  ( 1.000000000000000000, 0.000000000000000000, 0.000000000000000000 ) ) ;
#93 = PRODUCT_DEFINITION ( 'NEZNÁMÝ', '', #87, #130 ) ;
#94 = PLANE ( 'NONE',  #221 ) ;
#95 = APPROVAL_ROLE ( '' ) ;
#96 = DIRECTION ( 'NONE',  ( 1.000000000000000000, 0.000000000000000000, 0.000000000000000000 ) ) ;
#97 = VECTOR ( 'NONE', #213, 1000.000000000000000 ) ;
#98 = APPROVAL ( #127, 'NEURÈENÝ' ) ;
#99 = DIRECTION ( 'NONE',  ( -0.000000000000000000, -0.000000000000000000, -1.000000000000000000 ) ) ;
#100 = ORIENTED_EDGE ( 'NONE', *, *, #80, .F. ) ;
#101 = DIRECTION ( 'NONE',  ( 0.000000000000000000, -1.000000000000000000, 0.000000000000000000 ) ) ;
#102 = VERTEX_POINT ( 'NONE', #233 ) ;
#103 = CIRCLE ( 'NONE', #245, 10.20000000000000107 ) ;
#104 = AXIS2_PLACEMENT_3D ( 'NONE', #277, #225, #118 ) ;
#105 = EDGE_CURVE ( 'NONE', #7, #124, #284, .T. ) ;
#106 = ORIENTED_EDGE ( 'NONE', *, *, #54, .F. ) ;
#107 = VERTEX_POINT ( 'NONE', #226 ) ;
#108 = CIRCLE ( 'NONE', #194, 10.20000000000000107 ) ;
#109 = FACE_OUTER_BOUND ( 'NONE', #79, .T. ) ;
#110 = EDGE_LOOP ( 'NONE', ( #247, #149, #220, #133 ) ) ;
#111 = AXIS2_PLACEMENT_3D ( 'NONE', #301, #186, #41 ) ;
#112 = LINE ( 'NONE', #279, #231 ) ;
#113 = EDGE_CURVE ( 'NONE', #52, #7, #178, .T. ) ;
#114 = CARTESIAN_POINT ( 'NONE',  ( 10.00000000000000000, 1.224646799147353256E-15, 258.0000000000000000 ) ) ;
#115 = COORDINATED_UNIVERSAL_TIME_OFFSET ( 1, 0, .AHEAD. ) ;
#116 = FACE_OUTER_BOUND ( 'NONE', #276, .T. ) ;
#117 = DIRECTION ( 'NONE',  ( 0.000000000000000000, 0.000000000000000000, 1.000000000000000000 ) ) ;
#118 = DIRECTION ( 'NONE',  ( 1.000000000000000000, 0.000000000000000000, 0.000000000000000000 ) ) ;
#119 = CALENDAR_DATE ( 2022, 20, 6 ) ;
#120 = PERSON_AND_ORGANIZATION ( #32, #50 ) ;
#121 = AXIS2_PLACEMENT_3D ( 'NONE', #195, #85, #193 ) ;
#122 = FACE_OUTER_BOUND ( 'NONE', #14, .T. ) ;
#123 = AXIS2_PLACEMENT_3D ( 'NONE', #305, #90, #256 ) ;
#124 = VERTEX_POINT ( 'NONE', #137 ) ;
#125 = COORDINATED_UNIVERSAL_TIME_OFFSET ( 1, 0, .AHEAD. ) ;
#126 = VERTEX_POINT ( 'NONE', #157 ) ;
#127 = APPROVAL_STATUS ( 'not_yet_approved' ) ;
#128 = EDGE_LOOP ( 'NONE', ( #172, #173 ) ) ;
#129 = LOCAL_TIME ( 11, 20, 17.00000000000000000, #115 ) ;
#130 = DESIGN_CONTEXT ( 'detailed design', #264, 'design' ) ;
#131 = LINE ( 'NONE', #219, #97 ) ;
#132 = ORIENTED_EDGE ( 'NONE', *, *, #113, .F. ) ;
#133 = ORIENTED_EDGE ( 'NONE', *, *, #255, .F. ) ;
#134 = LOCAL_TIME ( 11, 20, 17.00000000000000000, #125 ) ;
#135 = ORIENTED_EDGE ( 'NONE', *, *, #156, .F. ) ;
#136 = PLANE ( 'NONE',  #8 ) ;
#137 = CARTESIAN_POINT ( 'NONE',  ( -13.00000000000000178, 0.000000000000000000, 0.000000000000000000 ) ) ;
#138 = AXIS2_PLACEMENT_3D ( 'NONE', #71, #101, #145 ) ;
#139 = PERSON_AND_ORGANIZATION ( #32, #50 ) ;
#140 = DIRECTION ( 'NONE',  ( 1.000000000000000000, 0.000000000000000000, 0.000000000000000000 ) ) ;
#141 = DIRECTION ( 'NONE',  ( -0.000000000000000000, -0.000000000000000000, -1.000000000000000000 ) ) ;
#142 = VECTOR ( 'NONE', #141, 1000.000000000000000 ) ;
#143 = DIRECTION ( 'NONE',  ( -1.000000000000000000, 0.000000000000000000, 0.000000000000000000 ) ) ;
#144 = CARTESIAN_POINT ( 'NONE',  ( 0.000000000000000000, 0.000000000000000000, 8.000000000000000000 ) ) ;
#145 = DIRECTION ( 'NONE',  ( 0.000000000000000000, 0.000000000000000000, -1.000000000000000000 ) ) ;
#146 = DIRECTION ( 'NONE',  ( 1.000000000000000000, 0.000000000000000000, 0.000000000000000000 ) ) ;
#147 = ORIENTED_EDGE ( 'NONE', *, *, #63, .F. ) ;
#148 = DATE_AND_TIME ( #286, #134 ) ;
#149 = ORIENTED_EDGE ( 'NONE', *, *, #215, .T. ) ;
#150 = LOCAL_TIME ( 11, 20, 17.00000000000000000, #17 ) ;
#151 = ORIENTED_EDGE ( 'NONE', *, *, #54, .T. ) ;
#152 = CARTESIAN_POINT ( 'NONE',  ( -13.00000000000000178, 0.000000000000000000, 8.000000000000000000 ) ) ;
#153 = AXIS2_PLACEMENT_3D ( 'NONE', #302, #183, #143 ) ;
#154 = CARTESIAN_POINT ( 'NONE',  ( 0.000000000000000000, 0.000000000000000000, 0.000000000000000000 ) ) ;
#155 = FACE_OUTER_BOUND ( 'NONE', #209, .T. ) ;
#156 = EDGE_CURVE ( 'NONE', #102, #107, #297, .T. ) ;
#157 = CARTESIAN_POINT ( 'NONE',  ( 10.20000000000000107, 0.000000000000000000, 8.000000000000007105 ) ) ;
#158 = AXIS2_PLACEMENT_3D ( 'NONE', #154, #35, #38 ) ;
#159 = PRODUCT_RELATED_PRODUCT_CATEGORY ( 'detail', '', ( #246 ) ) ;
#160 = SECURITY_CLASSIFICATION_LEVEL ( 'unclassified' ) ;
#161 = DIRECTION ( 'NONE',  ( 1.000000000000000000, 0.000000000000000000, -0.000000000000000000 ) ) ;
#162 = PERSON_AND_ORGANIZATION ( #32, #50 ) ;
#163 = DIRECTION ( 'NONE',  ( -0.000000000000000000, -0.000000000000000000, -1.000000000000000000 ) ) ;
#164 = APPROVAL_STATUS ( 'not_yet_approved' ) ;
#165 = CARTESIAN_POINT ( 'NONE',  ( 0.000000000000000000, 0.000000000000000000, 258.0000000000000000 ) ) ;
#166 = FACE_OUTER_BOUND ( 'NONE', #110, .T. ) ;
#167 = CIRCLE ( 'NONE', #138, 0.2000000000000005107 ) ;
#168 = PERSON_AND_ORGANIZATION ( #32, #50 ) ;
#169 = EDGE_CURVE ( 'NONE', #7, #52, #20, .T. ) ;
#170 = CIRCLE ( 'NONE', #104, 10.00000000000000000 ) ;
#171 = COORDINATED_UNIVERSAL_TIME_OFFSET ( 1, 0, .AHEAD. ) ;
#172 = ORIENTED_EDGE ( 'NONE', *, *, #224, .T. ) ;
#173 = ORIENTED_EDGE ( 'NONE', *, *, #91, .T. ) ;
#174 = EDGE_LOOP ( 'NONE', ( #135, #27, #36, #61 ) ) ;
#175 = EDGE_CURVE ( 'NONE', #124, #191, #242, .T. ) ;
#176 = ORIENTED_EDGE ( 'NONE', *, *, #255, .T. ) ;
#177 = CARTESIAN_POINT ( 'NONE',  ( 0.000000000000000000, 0.000000000000000000, 0.000000000000000000 ) ) ;
#178 = CIRCLE ( 'NONE', #111, 13.00000000000000178 ) ;
#179 = ORIENTED_EDGE ( 'NONE', *, *, #215, .F. ) ;
#180 = FACE_OUTER_BOUND ( 'NONE', #216, .T. ) ;
#181 = APPROVAL ( #280, 'NEURÈENÝ' ) ;
#182 = DATE_AND_TIME ( #119, #150 ) ;
#183 = DIRECTION ( 'NONE',  ( -0.000000000000000000, -0.000000000000000000, -1.000000000000000000 ) ) ;
#184 = AXIS2_PLACEMENT_3D ( 'NONE', #177, #243, #274 ) ;
#185 = DIRECTION ( 'NONE',  ( 1.224646799147353207E-16, 1.000000000000000000, -0.000000000000000000 ) ) ;
#186 = DIRECTION ( 'NONE',  ( 0.000000000000000000, 0.000000000000000000, 1.000000000000000000 ) ) ;
#187 = CLOSED_SHELL ( 'NONE', ( #203, #88, #303, #25, #34, #44, #298, #230, #252 ) ) ;
#188 = APPROVAL_ROLE ( '' ) ;
#189 = DIRECTION ( 'NONE',  ( -0.000000000000000000, -0.000000000000000000, -1.000000000000000000 ) ) ;
#190 = DIRECTION ( 'NONE',  ( -1.000000000000000000, 0.000000000000000000, 0.000000000000000000 ) ) ;
#191 = VERTEX_POINT ( 'NONE', #201 ) ;
#192 = ORIENTED_EDGE ( 'NONE', *, *, #290, .F. ) ;
#193 = DIRECTION ( 'NONE',  ( 1.000000000000000000, 0.000000000000000000, 0.000000000000000000 ) ) ;
#194 = AXIS2_PLACEMENT_3D ( 'NONE', #65, #163, #96 ) ;
#195 = CARTESIAN_POINT ( 'NONE',  ( 0.000000000000000000, 0.000000000000000000, 8.200000000000013500 ) ) ;
#196 = CARTESIAN_POINT ( 'NONE',  ( 0.000000000000000000, 0.000000000000000000, 8.000000000000000000 ) ) ;
#197 = ORIENTED_EDGE ( 'NONE', *, *, #63, .T. ) ;
#198 = CARTESIAN_POINT ( 'NONE',  ( 0.000000000000000000, 0.000000000000000000, 8.200000000000013500 ) ) ;
#199 = CARTESIAN_POINT ( 'NONE',  ( -10.00000000000000000, 0.000000000000000000, 258.0000000000000000 ) ) ;
#200 = DIRECTION ( 'NONE',  ( 0.000000000000000000, 0.000000000000000000, 1.000000000000000000 ) ) ;
#201 = CARTESIAN_POINT ( 'NONE',  ( 13.00000000000000178, 1.592040838891559293E-15, 0.000000000000000000 ) ) ;
#202 = CARTESIAN_POINT ( 'NONE',  ( -10.20000000000000107, 1.249139735130300365E-15, 8.200000000000013500 ) ) ;
#203 = ADVANCED_FACE ( 'NONE', ( #116 ), #83, .F. ) ;
#204 = PERSON_AND_ORGANIZATION_ROLE ( 'design_supplier' ) ;
#205 = CYLINDRICAL_SURFACE ( 'NONE', #248, 10.00000000000000000 ) ;
#206 = APPROVAL ( #164, 'NEURÈENÝ' ) ;
#207 = DATE_TIME_ROLE ( 'creation_date' ) ;
#208 = AXIS2_PLACEMENT_3D ( 'NONE', #306, #19, #258 ) ;
#209 = EDGE_LOOP ( 'NONE', ( #147, #9, #82, #12 ) ) ;
#210 = CYLINDRICAL_SURFACE ( 'NONE', #10, 13.00000000000000178 ) ;
#211 = ADVANCED_BREP_SHAPE_REPRESENTATION ( '0313', ( #234, #5 ), #73 ) ;
#212 = LOCAL_TIME ( 11, 20, 17.00000000000000000, #171 ) ;
#213 = DIRECTION ( 'NONE',  ( -0.000000000000000000, -0.000000000000000000, -1.000000000000000000 ) ) ;
#214 = PRODUCT_DEFINITION_SHAPE ( 'NONE', 'NONE',  #93 ) ;
#215 = EDGE_CURVE ( 'NONE', #86, #296, #112, .T. ) ;
#216 = EDGE_LOOP ( 'NONE', ( #37, #3 ) ) ;
#217 = APPROVAL_PERSON_ORGANIZATION ( #120, #98, #188 ) ;
#218 = EDGE_LOOP ( 'NONE', ( #57, #106 ) ) ;
#219 = CARTESIAN_POINT ( 'NONE',  ( 13.00000000000000178, 1.592040838891559293E-15, 8.000000000000000000 ) ) ;
#220 = ORIENTED_EDGE ( 'NONE', *, *, #1, .T. ) ;
#221 = AXIS2_PLACEMENT_3D ( 'NONE', #165, #62, #161 ) ;
#222 = DIRECTION ( 'NONE',  ( -0.000000000000000000, -0.000000000000000000, -1.000000000000000000 ) ) ;
#223 = VECTOR ( 'NONE', #21, 1000.000000000000000 ) ;
#224 = EDGE_CURVE ( 'NONE', #126, #107, #108, .T. ) ;
#225 = DIRECTION ( 'NONE',  ( 0.000000000000000000, 0.000000000000000000, 1.000000000000000000 ) ) ;
#226 = CARTESIAN_POINT ( 'NONE',  ( -10.20000000000000107, 1.249139735130300365E-15, 8.000000000000007105 ) ) ;
#227 = CIRCLE ( 'NONE', #121, 10.00000000000000000 ) ;
#228 = DATE_AND_TIME ( #282, #261 ) ;
#229 = DIRECTION ( 'NONE',  ( 1.000000000000000000, 0.000000000000000000, 0.000000000000000000 ) ) ;
#230 = ADVANCED_FACE ( 'NONE', ( #180 ), #94, .T. ) ;
#231 = VECTOR ( 'NONE', #222, 1000.000000000000000 ) ;
#232 = APPROVAL_DATE_TIME ( #262, #181 ) ;
#233 = CARTESIAN_POINT ( 'NONE',  ( -10.00000000000000000, 0.000000000000000000, 8.200000000000013500 ) ) ;
#234 = MANIFOLD_SOLID_BREP ( 'Zaoblit1', #187 ) ;
#235 = FACE_OUTER_BOUND ( 'NONE', #244, .T. ) ;
#236 = CC_DESIGN_SECURITY_CLASSIFICATION ( #267, ( #87 ) ) ;
#237 = CARTESIAN_POINT ( 'NONE',  ( 10.00000000000000000, 1.224646799147353256E-15, 8.200000000000013500 ) ) ;
#238 = DATE_AND_TIME ( #268, #212 ) ;
#239 = CC_DESIGN_PERSON_AND_ORGANIZATION_ASSIGNMENT ( #74, #26, ( #93 ) ) ;
#240 = AXIS2_PLACEMENT_3D ( 'NONE', #251, #117, #16 ) ;
#241 = EDGE_CURVE ( 'NONE', #102, #296, #66, .T. ) ;
#242 = CIRCLE ( 'NONE', #208, 13.00000000000000178 ) ;
#243 = DIRECTION ( 'NONE',  ( 0.000000000000000000, 0.000000000000000000, 1.000000000000000000 ) ) ;
#244 = EDGE_LOOP ( 'NONE', ( #132, #197, #151, #269 ) ) ;
#245 = AXIS2_PLACEMENT_3D ( 'NONE', #144, #40, #92 ) ;
#246 = PRODUCT ( '0313', '0313', '', ( #29 ) ) ;
#247 = ORIENTED_EDGE ( 'NONE', *, *, #270, .F. ) ;
#248 = AXIS2_PLACEMENT_3D ( 'NONE', #24, #189, #45 ) ;
#249 = ORIENTED_EDGE ( 'NONE', *, *, #241, .F. ) ;
#250 = DIRECTION ( 'NONE',  ( -0.000000000000000000, -0.000000000000000000, -1.000000000000000000 ) ) ;
#251 = CARTESIAN_POINT ( 'NONE',  ( 0.000000000000000000, 0.000000000000000000, 258.0000000000000000 ) ) ;
#252 = ADVANCED_FACE ( 'NONE', ( #18 ), #33, .F. ) ;
#253 = DIRECTION ( 'NONE',  ( 1.000000000000000000, 0.000000000000000000, 0.000000000000000000 ) ) ;
#254 = PERSON_AND_ORGANIZATION_ROLE ( 'creator' ) ;
#255 = EDGE_CURVE ( 'NONE', #84, #102, #283, .T. ) ;
#256 = DIRECTION ( 'NONE',  ( 1.000000000000000000, 0.000000000000000000, 0.000000000000000000 ) ) ;
#257 = APPROVAL_DATE_TIME ( #182, #206 ) ;
#258 = DIRECTION ( 'NONE',  ( 1.000000000000000000, 0.000000000000000000, 0.000000000000000000 ) ) ;
#259 = DIRECTION ( 'NONE',  ( -1.000000000000000000, 1.224646799147353207E-16, 0.000000000000000000 ) ) ;
#260 = APPROVAL_PERSON_ORGANIZATION ( #2, #181, #95 ) ;
#261 = LOCAL_TIME ( 11, 20, 17.00000000000000000, #307 ) ;
#262 = DATE_AND_TIME ( #69, #129 ) ;
#263 =( LENGTH_UNIT ( ) NAMED_UNIT ( * ) SI_UNIT ( .MILLI., .METRE. ) );
#264 = APPLICATION_CONTEXT ( 'configuration controlled 3d designs of mechanical parts and assemblies' ) ;
#265 = APPLICATION_PROTOCOL_DEFINITION ( 'international standard', 'config_control_design', 1994, #264 ) ;
#266 = AXIS2_PLACEMENT_3D ( 'NONE', #202, #185, #259 ) ;
#267 = SECURITY_CLASSIFICATION ( '', '', #160 ) ;
#268 = CALENDAR_DATE ( 2022, 20, 6 ) ;
#269 = ORIENTED_EDGE ( 'NONE', *, *, #105, .F. ) ;
#270 = EDGE_CURVE ( 'NONE', #86, #84, #170, .T. ) ;
#271 = FACE_BOUND ( 'NONE', #128, .T. ) ;
#272 = DIRECTION ( 'NONE',  ( -1.000000000000000000, 0.000000000000000000, 0.000000000000000000 ) ) ;
#273 = ORIENTED_EDGE ( 'NONE', *, *, #241, .T. ) ;
#274 = DIRECTION ( 'NONE',  ( 1.000000000000000000, 0.000000000000000000, -0.000000000000000000 ) ) ;
#275 = CC_DESIGN_DATE_AND_TIME_ASSIGNMENT ( #228, #278, ( #267 ) ) ;
#276 = EDGE_LOOP ( 'NONE', ( #249, #58, #30, #192 ) ) ;
#277 = CARTESIAN_POINT ( 'NONE',  ( 0.000000000000000000, 0.000000000000000000, 258.0000000000000000 ) ) ;
#278 = DATE_TIME_ROLE ( 'classification_date' ) ;
#279 = CARTESIAN_POINT ( 'NONE',  ( 10.00000000000000000, 1.224646799147353256E-15, 258.0000000000000000 ) ) ;
#280 = APPROVAL_STATUS ( 'not_yet_approved' ) ;
#281 = CARTESIAN_POINT ( 'NONE',  ( 0.000000000000000000, 0.000000000000000000, 8.000000000000000000 ) ) ;
#282 = CALENDAR_DATE ( 2022, 20, 6 ) ;
#283 = LINE ( 'NONE', #42, #223 ) ;
#284 = LINE ( 'NONE', #43, #142 ) ;
#285 = APPROVAL_ROLE ( '' ) ;
#286 = CALENDAR_DATE ( 2022, 20, 6 ) ;
#287 = AXIS2_PLACEMENT_3D ( 'NONE', #39, #250, #272 ) ;
#288 = PERSON_AND_ORGANIZATION_ROLE ( 'design_owner' ) ;
#289 = AXIS2_PLACEMENT_3D ( 'NONE', #70, #89, #140 ) ;
#290 = EDGE_CURVE ( 'NONE', #296, #126, #167, .T. ) ;
#291 = DIRECTION ( 'NONE',  ( 0.000000000000000000, 0.000000000000000000, 1.000000000000000000 ) ) ;
#292 = ORIENTED_EDGE ( 'NONE', *, *, #113, .T. ) ;
#293 = ORIENTED_EDGE ( 'NONE', *, *, #169, .T. ) ;
#294 = DIRECTION ( 'NONE',  ( 1.000000000000000000, 0.000000000000000000, -0.000000000000000000 ) ) ;
#295 = CC_DESIGN_PERSON_AND_ORGANIZATION_ASSIGNMENT ( #168, #288, ( #246 ) ) ;
#296 = VERTEX_POINT ( 'NONE', #237 ) ;
#297 = CIRCLE ( 'NONE', #266, 0.2000000000000005107 ) ;
#298 = ADVANCED_FACE ( 'NONE', ( #122 ), #205, .T. ) ;
#299 = CC_DESIGN_APPROVAL ( #181, ( #87 ) ) ;
#300 = DIRECTION ( 'NONE',  ( 0.000000000000000000, 0.000000000000000000, 1.000000000000000000 ) ) ;
#301 = CARTESIAN_POINT ( 'NONE',  ( 0.000000000000000000, 0.000000000000000000, 8.000000000000000000 ) ) ;
#302 = CARTESIAN_POINT ( 'NONE',  ( 0.000000000000000000, 0.000000000000000000, 258.0000000000000000 ) ) ;
#303 = ADVANCED_FACE ( 'NONE', ( #235 ), #210, .T. ) ;
#304 = CC_DESIGN_APPROVAL ( #98, ( #93 ) ) ;
#305 = CARTESIAN_POINT ( 'NONE',  ( 0.000000000000000000, 0.000000000000000000, 8.200000000000013500 ) ) ;
#306 = CARTESIAN_POINT ( 'NONE',  ( 0.000000000000000000, 0.000000000000000000, 0.000000000000000000 ) ) ;
#307 = COORDINATED_UNIVERSAL_TIME_OFFSET ( 1, 0, .AHEAD. ) ;
ENDSEC;
END-ISO-10303-21;
