ISO-10303-21;
HEADER;
FILE_DESCRIPTION (( 'STEP AP203' ),
    '1' );
FILE_NAME ('cc3a.STEP',
    '2022-06-20T09:45:04',
    ( '' ),
    ( '' ),
    'SwSTEP 2.0',
    'SolidWorks 2019',
    '' );
FILE_SCHEMA (( 'CONFIG_CONTROL_DESIGN' ));
ENDSEC;

DATA;
#1 = ORIENTED_EDGE ( 'NONE', *, *, #296, .T. ) ;
#2 = PLANE ( 'NONE',  #304 ) ;
#3 = PRODUCT_DEFINITION_FORMATION_WITH_SPECIFIED_SOURCE ( 'LIBOVOLNÝ', '', #97, .NOT_KNOWN. ) ;
#4 = ORIENTED_EDGE ( 'NONE', *, *, #258, .T. ) ;
#5 = CIRCLE ( 'NONE', #157, 4.250000000000000000 ) ;
#6 = EDGE_CURVE ( 'NONE', #236, #71, #100, .T. ) ;
#7 = FACE_BOUND ( 'NONE', #260, .T. ) ;
#8 = ADVANCED_FACE ( 'NONE', ( #49 ), #278, .F. ) ;
#9 = CYLINDRICAL_SURFACE ( 'NONE', #57, 7.000000000000000000 ) ;
#10 = AXIS2_PLACEMENT_3D ( 'NONE', #274, #55, #271 ) ;
#11 = DIRECTION ( 'NONE',  ( -1.000000000000000000, 0.000000000000000000, 0.000000000000000000 ) ) ;
#12 = APPROVAL_ROLE ( '' ) ;
#13 = DATE_AND_TIME ( #300, #73 ) ;
#14 = DIRECTION ( 'NONE',  ( -0.000000000000000000, -0.000000000000000000, -1.000000000000000000 ) ) ;
#15 = CC_DESIGN_DATE_AND_TIME_ASSIGNMENT ( #87, #179, ( #58 ) ) ;
#16 = CARTESIAN_POINT ( 'NONE',  ( 4.250000000000000000, 5.204748896376250699E-16, 205.0000000000000284 ) ) ;
#17 = DIRECTION ( 'NONE',  ( 0.000000000000000000, 0.000000000000000000, 1.000000000000000000 ) ) ;
#18 = LOCAL_TIME ( 11, 45, 4.000000000000000000, #156 ) ;
#19 = CIRCLE ( 'NONE', #191, 4.450000000000000178 ) ;
#20 =( NAMED_UNIT ( * ) PLANE_ANGLE_UNIT ( ) SI_UNIT ( $, .RADIAN. ) );
#21 = ORGANIZATION ( 'NEURÈENÝ', 'NEURÈENÝ', '' ) ;
#22 = ORIENTED_EDGE ( 'NONE', *, *, #133, .F. ) ;
#23 = EDGE_LOOP ( 'NONE', ( #185, #1, #217, #50 ) ) ;
#24 = MANIFOLD_SOLID_BREP ( 'Zaoblit1', #228 ) ;
#25 = CARTESIAN_POINT ( 'NONE',  ( -7.000000000000000000, 0.000000000000000000, 5.000000000000000000 ) ) ;
#26 = PERSON_AND_ORGANIZATION ( #174, #21 ) ;
#27 = CARTESIAN_POINT ( 'NONE',  ( 0.000000000000000000, 0.000000000000000000, 205.0000000000000284 ) ) ;
#28 = CC_DESIGN_APPROVAL ( #206, ( #282 ) ) ;
#29 = DIRECTION ( 'NONE',  ( 1.000000000000000000, 0.000000000000000000, 0.000000000000000000 ) ) ;
#30 = CYLINDRICAL_SURFACE ( 'NONE', #257, 7.000000000000000000 ) ;
#31 = FACE_OUTER_BOUND ( 'NONE', #102, .T. ) ;
#32 = PERSON_AND_ORGANIZATION ( #174, #21 ) ;
#33 = PERSON_AND_ORGANIZATION ( #174, #21 ) ;
#34 = AXIS2_PLACEMENT_3D ( 'NONE', #27, #221, #128 ) ;
#35 = CC_DESIGN_PERSON_AND_ORGANIZATION_ASSIGNMENT ( #124, #215, ( #282 ) ) ;
#36 = APPROVAL_DATE_TIME ( #13, #148 ) ;
#37 = DIRECTION ( 'NONE',  ( -1.000000000000000000, 0.000000000000000000, 0.000000000000000000 ) ) ;
#38 = EDGE_CURVE ( 'NONE', #192, #275, #114, .T. ) ;
#39 = CARTESIAN_POINT ( 'NONE',  ( -4.450000000000000178, 5.449678256205721784E-16, 5.000000000000005329 ) ) ;
#40 = VERTEX_POINT ( 'NONE', #171 ) ;
#41 = APPROVAL_STATUS ( 'not_yet_approved' ) ;
#42 = DIRECTION ( 'NONE',  ( 1.000000000000000000, 0.000000000000000000, 0.000000000000000000 ) ) ;
#43 = ORIENTED_EDGE ( 'NONE', *, *, #293, .F. ) ;
#44 = APPLICATION_PROTOCOL_DEFINITION ( 'international standard', 'config_control_design', 1994, #78 ) ;
#45 = CIRCLE ( 'NONE', #193, 7.000000000000000000 ) ;
#46 = FACE_OUTER_BOUND ( 'NONE', #140, .T. ) ;
#47 = EDGE_CURVE ( 'NONE', #272, #71, #175, .T. ) ;
#48 = ORIENTED_EDGE ( 'NONE', *, *, #96, .F. ) ;
#49 = FACE_OUTER_BOUND ( 'NONE', #253, .T. ) ;
#50 = ORIENTED_EDGE ( 'NONE', *, *, #47, .F. ) ;
#51 = CC_DESIGN_PERSON_AND_ORGANIZATION_ASSIGNMENT ( #63, #68, ( #3 ) ) ;
#52 = DIRECTION ( 'NONE',  ( 1.000000000000000000, 0.000000000000000000, 0.000000000000000000 ) ) ;
#53 = CIRCLE ( 'NONE', #233, 0.1999999999999996503 ) ;
#54 = FACE_OUTER_BOUND ( 'NONE', #23, .T. ) ;
#55 = DIRECTION ( 'NONE',  ( -0.000000000000000000, -0.000000000000000000, -1.000000000000000000 ) ) ;
#56 = COORDINATED_UNIVERSAL_TIME_OFFSET ( 1, 0, .AHEAD. ) ;
#57 = AXIS2_PLACEMENT_3D ( 'NONE', #88, #184, #139 ) ;
#58 = PRODUCT_DEFINITION ( 'NEZNÁMÝ', '', #3, #116 ) ;
#59 = APPROVAL_STATUS ( 'not_yet_approved' ) ;
#60 = CC_DESIGN_DATE_AND_TIME_ASSIGNMENT ( #144, #163, ( #282 ) ) ;
#61 = CARTESIAN_POINT ( 'NONE',  ( 7.000000000000000000, 8.572527594031473190E-16, 0.000000000000000000 ) ) ;
#62 = ORIENTED_EDGE ( 'NONE', *, *, #293, .T. ) ;
#63 = PERSON_AND_ORGANIZATION ( #174, #21 ) ;
#64 = DIRECTION ( 'NONE',  ( 1.000000000000000000, 0.000000000000000000, 0.000000000000000000 ) ) ;
#65 = ORIENTED_EDGE ( 'NONE', *, *, #133, .T. ) ;
#66 = DATE_AND_TIME ( #93, #168 ) ;
#67 = DIRECTION ( 'NONE',  ( 0.000000000000000000, 0.000000000000000000, 1.000000000000000000 ) ) ;
#68 = PERSON_AND_ORGANIZATION_ROLE ( 'design_supplier' ) ;
#69 = DIRECTION ( 'NONE',  ( -0.000000000000000000, -0.000000000000000000, -1.000000000000000000 ) ) ;
#70 = APPROVAL ( #59, 'NEURÈENÝ' ) ;
#71 = VERTEX_POINT ( 'NONE', #105 ) ;
#72 = DIRECTION ( 'NONE',  ( 0.000000000000000000, 0.000000000000000000, 1.000000000000000000 ) ) ;
#73 = LOCAL_TIME ( 11, 45, 4.000000000000000000, #56 ) ;
#74 = ORIENTED_EDGE ( 'NONE', *, *, #280, .T. ) ;
#75 = ADVANCED_FACE ( 'NONE', ( #218 ), #2, .T. ) ;
#76 = CIRCLE ( 'NONE', #248, 4.250000000000000000 ) ;
#77 = DIRECTION ( 'NONE',  ( 1.000000000000000000, 0.000000000000000000, 0.000000000000000000 ) ) ;
#78 = APPLICATION_CONTEXT ( 'configuration controlled 3d designs of mechanical parts and assemblies' ) ;
#79 = DIRECTION ( 'NONE',  ( 0.000000000000000000, 0.000000000000000000, 1.000000000000000000 ) ) ;
#80 = DIRECTION ( 'NONE',  ( -0.000000000000000000, -0.000000000000000000, -1.000000000000000000 ) ) ;
#81 = CIRCLE ( 'NONE', #289, 7.000000000000000000 ) ;
#82 = CARTESIAN_POINT ( 'NONE',  ( 4.450000000000000178, 0.000000000000000000, 5.200000000000009948 ) ) ;
#83 = PERSON_AND_ORGANIZATION_ROLE ( 'design_owner' ) ;
#84 = ADVANCED_FACE ( 'NONE', ( #149 ), #241, .T. ) ;
#85 = LINE ( 'NONE', #115, #247 ) ;
#86 = ORIENTED_EDGE ( 'NONE', *, *, #173, .T. ) ;
#87 = DATE_AND_TIME ( #270, #18 ) ;
#88 = CARTESIAN_POINT ( 'NONE',  ( 0.000000000000000000, 0.000000000000000000, 5.000000000000000000 ) ) ;
#89 = VERTEX_POINT ( 'NONE', #220 ) ;
#90 = LOCAL_TIME ( 11, 45, 4.000000000000000000, #135 ) ;
#91 = CARTESIAN_POINT ( 'NONE',  ( 0.000000000000000000, 0.000000000000000000, 5.200000000000009948 ) ) ;
#92 = PRODUCT_DEFINITION_SHAPE ( 'NONE', 'NONE',  #58 ) ;
#93 = CALENDAR_DATE ( 2022, 20, 6 ) ;
#94 = CIRCLE ( 'NONE', #214, 4.250000000000000000 ) ;
#95 = DIRECTION ( 'NONE',  ( 1.000000000000000000, 0.000000000000000000, 0.000000000000000000 ) ) ;
#96 = EDGE_CURVE ( 'NONE', #192, #40, #94, .T. ) ;
#97 = PRODUCT ( 'cc3a', 'cc3a', '', ( #284 ) ) ;
#98 = CALENDAR_DATE ( 2022, 20, 6 ) ;
#99 = TOROIDAL_SURFACE ( 'NONE', #251, 4.450000000000000178, 0.2000000000000000111 ) ;
#100 = CIRCLE ( 'NONE', #201, 7.000000000000000000 ) ;
#101 = EDGE_LOOP ( 'NONE', ( #65, #165 ) ) ;
#102 = EDGE_LOOP ( 'NONE', ( #159, #74, #62, #302 ) ) ;
#103 = AXIS2_PLACEMENT_3D ( 'NONE', #224, #80, #37 ) ;
#104 = CARTESIAN_POINT ( 'NONE',  ( 0.000000000000000000, 0.000000000000000000, 205.0000000000000284 ) ) ;
#105 = CARTESIAN_POINT ( 'NONE',  ( -7.000000000000000000, 0.000000000000000000, 0.000000000000000000 ) ) ;
#106 = ORIENTED_EDGE ( 'NONE', *, *, #195, .T. ) ;
#107 = CARTESIAN_POINT ( 'NONE',  ( 0.000000000000000000, 0.000000000000000000, 205.0000000000000284 ) ) ;
#108 = CC_DESIGN_PERSON_AND_ORGANIZATION_ASSIGNMENT ( #110, #203, ( #3 ) ) ;
#109 = DIRECTION ( 'NONE',  ( 0.000000000000000000, 0.000000000000000000, 1.000000000000000000 ) ) ;
#110 = PERSON_AND_ORGANIZATION ( #174, #21 ) ;
#111 = APPROVAL_ROLE ( '' ) ;
#112 = CC_DESIGN_PERSON_AND_ORGANIZATION_ASSIGNMENT ( #26, #83, ( #97 ) ) ;
#113 = AXIS2_PLACEMENT_3D ( 'NONE', #231, #161, #295 ) ;
#114 = CIRCLE ( 'NONE', #285, 0.1999999999999996503 ) ;
#115 = CARTESIAN_POINT ( 'NONE',  ( -4.250000000000000000, 0.000000000000000000, 205.0000000000000284 ) ) ;
#116 = DESIGN_CONTEXT ( 'detailed design', #147, 'design' ) ;
#117 = DIRECTION ( 'NONE',  ( -0.000000000000000000, -0.000000000000000000, -1.000000000000000000 ) ) ;
#118 = AXIS2_PLACEMENT_3D ( 'NONE', #153, #134, #141 ) ;
#119 = CARTESIAN_POINT ( 'NONE',  ( -7.000000000000000000, 0.000000000000000000, 5.000000000000000000 ) ) ;
#120 = EDGE_CURVE ( 'NONE', #89, #288, #76, .T. ) ;
#121 = AXIS2_PLACEMENT_3D ( 'NONE', #246, #177, #244 ) ;
#122 = PERSON_AND_ORGANIZATION ( #174, #21 ) ;
#123 = EDGE_LOOP ( 'NONE', ( #208, #22, #162, #146 ) ) ;
#124 = PERSON_AND_ORGANIZATION ( #174, #21 ) ;
#125 = ORIENTED_EDGE ( 'NONE', *, *, #296, .F. ) ;
#126 = ORIENTED_EDGE ( 'NONE', *, *, #258, .F. ) ;
#127 = APPROVAL_PERSON_ORGANIZATION ( #33, #70, #111 ) ;
#128 = DIRECTION ( 'NONE',  ( -1.000000000000000000, 0.000000000000000000, 0.000000000000000000 ) ) ;
#129 = VECTOR ( 'NONE', #169, 1000.000000000000000 ) ;
#130 = ORIENTED_EDGE ( 'NONE', *, *, #268, .T. ) ;
#131 = ADVANCED_FACE ( 'NONE', ( #7, #46 ), #143, .T. ) ;
#132 = CARTESIAN_POINT ( 'NONE',  ( 0.000000000000000000, 0.000000000000000000, 0.000000000000000000 ) ) ;
#133 = EDGE_CURVE ( 'NONE', #288, #89, #5, .T. ) ;
#134 = DIRECTION ( 'NONE',  ( 0.000000000000000000, 0.000000000000000000, 1.000000000000000000 ) ) ;
#135 = COORDINATED_UNIVERSAL_TIME_OFFSET ( 1, 0, .AHEAD. ) ;
#136 = APPLICATION_PROTOCOL_DEFINITION ( 'international standard', 'config_control_design', 1994, #147 ) ;
#137 = CARTESIAN_POINT ( 'NONE',  ( 0.000000000000000000, 0.000000000000000000, 5.000000000000000000 ) ) ;
#138 = AXIS2_PLACEMENT_3D ( 'NONE', #216, #198, #52 ) ;
#139 = DIRECTION ( 'NONE',  ( -1.000000000000000000, 0.000000000000000000, 0.000000000000000000 ) ) ;
#140 = EDGE_LOOP ( 'NONE', ( #4, #307 ) ) ;
#141 = DIRECTION ( 'NONE',  ( 1.000000000000000000, 0.000000000000000000, -0.000000000000000000 ) ) ;
#142 = ORIENTED_EDGE ( 'NONE', *, *, #38, .T. ) ;
#143 = PLANE ( 'NONE',  #121 ) ;
#144 = DATE_AND_TIME ( #98, #299 ) ;
#145 = CC_DESIGN_APPROVAL ( #70, ( #3 ) ) ;
#146 = ORIENTED_EDGE ( 'NONE', *, *, #96, .T. ) ;
#147 = APPLICATION_CONTEXT ( 'configuration controlled 3d designs of mechanical parts and assemblies' ) ;
#148 = APPROVAL ( #205, 'NEURÈENÝ' ) ;
#149 = FACE_OUTER_BOUND ( 'NONE', #123, .T. ) ;
#150 = CC_DESIGN_SECURITY_CLASSIFICATION ( #282, ( #3 ) ) ;
#151 = ORIENTED_EDGE ( 'NONE', *, *, #204, .T. ) ;
#152 = DIRECTION ( 'NONE',  ( 1.000000000000000000, 0.000000000000000000, 0.000000000000000000 ) ) ;
#153 = CARTESIAN_POINT ( 'NONE',  ( 0.000000000000000000, 0.000000000000000000, 0.000000000000000000 ) ) ;
#154 = DATE_AND_TIME ( #273, #90 ) ;
#155 = APPROVAL_PERSON_ORGANIZATION ( #181, #148, #12 ) ;
#156 = COORDINATED_UNIVERSAL_TIME_OFFSET ( 1, 0, .AHEAD. ) ;
#157 = AXIS2_PLACEMENT_3D ( 'NONE', #107, #109, #42 ) ;
#158 = DIRECTION ( 'NONE',  ( 0.000000000000000000, 0.000000000000000000, -1.000000000000000000 ) ) ;
#159 = ORIENTED_EDGE ( 'NONE', *, *, #120, .F. ) ;
#160 =( GEOMETRIC_REPRESENTATION_CONTEXT ( 3 ) GLOBAL_UNCERTAINTY_ASSIGNED_CONTEXT ( ( #166 ) ) GLOBAL_UNIT_ASSIGNED_CONTEXT ( ( #212, #20, #306 ) ) REPRESENTATION_CONTEXT ( 'NONE', 'WORKASPACE' ) );
#161 = DIRECTION ( 'NONE',  ( 0.000000000000000000, 0.000000000000000000, 1.000000000000000000 ) ) ;
#162 = ORIENTED_EDGE ( 'NONE', *, *, #276, .T. ) ;
#163 = DATE_TIME_ROLE ( 'classification_date' ) ;
#164 = LINE ( 'NONE', #255, #237 ) ;
#165 = ORIENTED_EDGE ( 'NONE', *, *, #120, .T. ) ;
#166 = UNCERTAINTY_MEASURE_WITH_UNIT (LENGTH_MEASURE( 1.000000000000000082E-05 ), #212, 'distance_accuracy_value', 'NONE');
#167 = APPROVAL_ROLE ( '' ) ;
#168 = LOCAL_TIME ( 11, 45, 4.000000000000000000, #283 ) ;
#169 = DIRECTION ( 'NONE',  ( -0.000000000000000000, -0.000000000000000000, -1.000000000000000000 ) ) ;
#170 = DIRECTION ( 'NONE',  ( 0.000000000000000000, 0.000000000000000000, 1.000000000000000000 ) ) ;
#171 = CARTESIAN_POINT ( 'NONE',  ( 4.250000000000000000, 5.204748896376250699E-16, 5.200000000000009948 ) ) ;
#172 = ORIENTED_EDGE ( 'NONE', *, *, #38, .F. ) ;
#173 = EDGE_CURVE ( 'NONE', #275, #291, #19, .T. ) ;
#174 = PERSON ( 'NEURÈENÝ', 'NEURÈENÝ', 'NEURÈENÝ', ('NEURÈENÝ'), ('NEURÈENÝ'), ('NEURÈENÝ') ) ;
#175 = LINE ( 'NONE', #25, #129 ) ;
#176 = DIRECTION ( 'NONE',  ( 1.000000000000000000, 0.000000000000000000, 0.000000000000000000 ) ) ;
#177 = DIRECTION ( 'NONE',  ( 0.000000000000000000, 0.000000000000000000, 1.000000000000000000 ) ) ;
#178 = CARTESIAN_POINT ( 'NONE',  ( 7.000000000000000000, 8.572527594031473190E-16, 5.000000000000000000 ) ) ;
#179 = DATE_TIME_ROLE ( 'creation_date' ) ;
#180 = AXIS2_PLACEMENT_3D ( 'NONE', #287, #72, #95 ) ;
#181 = PERSON_AND_ORGANIZATION ( #174, #21 ) ;
#182 = CARTESIAN_POINT ( 'NONE',  ( 0.000000000000000000, 0.000000000000000000, 5.000000000000000000 ) ) ;
#183 = VERTEX_POINT ( 'NONE', #178 ) ;
#184 = DIRECTION ( 'NONE',  ( -0.000000000000000000, -0.000000000000000000, -1.000000000000000000 ) ) ;
#185 = ORIENTED_EDGE ( 'NONE', *, *, #223, .F. ) ;
#186 = VECTOR ( 'NONE', #117, 1000.000000000000000 ) ;
#187 = DIRECTION ( 'NONE',  ( 0.000000000000000000, 0.000000000000000000, 1.000000000000000000 ) ) ;
#188 = APPROVAL_DATE_TIME ( #66, #206 ) ;
#189 = SECURITY_CLASSIFICATION_LEVEL ( 'unclassified' ) ;
#190 = ORIENTED_EDGE ( 'NONE', *, *, #204, .F. ) ;
#191 = AXIS2_PLACEMENT_3D ( 'NONE', #182, #294, #152 ) ;
#192 = VERTEX_POINT ( 'NONE', #267 ) ;
#193 = AXIS2_PLACEMENT_3D ( 'NONE', #132, #17, #277 ) ;
#194 = DIRECTION ( 'NONE',  ( 1.224646799147353207E-16, 1.000000000000000000, -0.000000000000000000 ) ) ;
#195 = EDGE_CURVE ( 'NONE', #40, #291, #53, .T. ) ;
#196 = CARTESIAN_POINT ( 'NONE',  ( 0.000000000000000000, 0.000000000000000000, 5.200000000000009948 ) ) ;
#197 = PRODUCT_RELATED_PRODUCT_CATEGORY ( 'detail', '', ( #97 ) ) ;
#198 = DIRECTION ( 'NONE',  ( 0.000000000000000000, 0.000000000000000000, 1.000000000000000000 ) ) ;
#199 = CIRCLE ( 'NONE', #113, 7.000000000000000000 ) ;
#200 = DIRECTION ( 'NONE',  ( 0.000000000000000000, 0.000000000000000000, 1.000000000000000000 ) ) ;
#201 = AXIS2_PLACEMENT_3D ( 'NONE', #263, #67, #77 ) ;
#202 = DIRECTION ( 'NONE',  ( 1.000000000000000000, 0.000000000000000000, 0.000000000000000000 ) ) ;
#203 = PERSON_AND_ORGANIZATION_ROLE ( 'creator' ) ;
#204 = EDGE_CURVE ( 'NONE', #291, #275, #242, .T. ) ;
#205 = APPROVAL_STATUS ( 'not_yet_approved' ) ;
#206 = APPROVAL ( #41, 'NEURÈENÝ' ) ;
#207 = CYLINDRICAL_SURFACE ( 'NONE', #103, 4.250000000000000000 ) ;
#208 = ORIENTED_EDGE ( 'NONE', *, *, #280, .F. ) ;
#209 = CARTESIAN_POINT ( 'NONE',  ( -4.250000000000000000, 0.000000000000000000, 205.0000000000000284 ) ) ;
#210 = EDGE_LOOP ( 'NONE', ( #48, #142, #190, #261 ) ) ;
#211 = CIRCLE ( 'NONE', #269, 4.250000000000000000 ) ;
#212 =( LENGTH_UNIT ( ) NAMED_UNIT ( * ) SI_UNIT ( .MILLI., .METRE. ) );
#213 = EDGE_LOOP ( 'NONE', ( #125, #126, #232, #130 ) ) ;
#214 = AXIS2_PLACEMENT_3D ( 'NONE', #196, #79, #176 ) ;
#215 = PERSON_AND_ORGANIZATION_ROLE ( 'classification_officer' ) ;
#216 = CARTESIAN_POINT ( 'NONE',  ( 0.000000000000000000, 0.000000000000000000, 5.200000000000009948 ) ) ;
#217 = ORIENTED_EDGE ( 'NONE', *, *, #6, .T. ) ;
#218 = FACE_OUTER_BOUND ( 'NONE', #101, .T. ) ;
#219 = CC_DESIGN_APPROVAL ( #148, ( #58 ) ) ;
#220 = CARTESIAN_POINT ( 'NONE',  ( 4.250000000000000000, 5.204748896376250699E-16, 205.0000000000000284 ) ) ;
#221 = DIRECTION ( 'NONE',  ( -0.000000000000000000, -0.000000000000000000, -1.000000000000000000 ) ) ;
#222 = FACE_OUTER_BOUND ( 'NONE', #213, .T. ) ;
#223 = EDGE_CURVE ( 'NONE', #183, #272, #199, .T. ) ;
#224 = CARTESIAN_POINT ( 'NONE',  ( 0.000000000000000000, 0.000000000000000000, 205.0000000000000284 ) ) ;
#225 = APPROVAL_DATE_TIME ( #154, #70 ) ;
#226 = ADVANCED_FACE ( 'NONE', ( #266 ), #250, .F. ) ;
#227 = CARTESIAN_POINT ( 'NONE',  ( 0.000000000000000000, 0.000000000000000000, 5.000000000000000000 ) ) ;
#228 = CLOSED_SHELL ( 'NONE', ( #298, #245, #249, #279, #131, #226, #84, #75, #8 ) ) ;
#229 = LINE ( 'NONE', #16, #186 ) ;
#230 = ORIENTED_EDGE ( 'NONE', *, *, #173, .F. ) ;
#231 = CARTESIAN_POINT ( 'NONE',  ( 0.000000000000000000, 0.000000000000000000, 5.000000000000000000 ) ) ;
#232 = ORIENTED_EDGE ( 'NONE', *, *, #47, .T. ) ;
#233 = AXIS2_PLACEMENT_3D ( 'NONE', #82, #292, #158 ) ;
#234 = CARTESIAN_POINT ( 'NONE',  ( 0.000000000000000000, 0.000000000000000000, 5.200000000000009948 ) ) ;
#235 = DIRECTION ( 'NONE',  ( 1.000000000000000000, 0.000000000000000000, 0.000000000000000000 ) ) ;
#236 = VERTEX_POINT ( 'NONE', #61 ) ;
#237 = VECTOR ( 'NONE', #69, 1000.000000000000000 ) ;
#238 = ORIENTED_EDGE ( 'NONE', *, *, #268, .F. ) ;
#239 = CARTESIAN_POINT ( 'NONE',  ( -4.450000000000000178, 5.449678256205721784E-16, 5.200000000000009948 ) ) ;
#240 = ADVANCED_BREP_SHAPE_REPRESENTATION ( 'cc3a', ( #24, #180 ), #160 ) ;
#241 = CYLINDRICAL_SURFACE ( 'NONE', #34, 4.250000000000000000 ) ;
#242 = CIRCLE ( 'NONE', #10, 4.450000000000000178 ) ;
#243 = DIRECTION ( 'NONE',  ( 0.000000000000000000, 0.000000000000000000, 1.000000000000000000 ) ) ;
#244 = DIRECTION ( 'NONE',  ( 1.000000000000000000, 0.000000000000000000, -0.000000000000000000 ) ) ;
#245 = ADVANCED_FACE ( 'NONE', ( #31 ), #207, .T. ) ;
#246 = CARTESIAN_POINT ( 'NONE',  ( 0.000000000000000000, 0.000000000000000000, 5.000000000000000000 ) ) ;
#247 = VECTOR ( 'NONE', #14, 1000.000000000000000 ) ;
#248 = AXIS2_PLACEMENT_3D ( 'NONE', #265, #243, #29 ) ;
#249 = ADVANCED_FACE ( 'NONE', ( #54 ), #30, .T. ) ;
#250 = PLANE ( 'NONE',  #118 ) ;
#251 = AXIS2_PLACEMENT_3D ( 'NONE', #234, #170, #235 ) ;
#252 = DIRECTION ( 'NONE',  ( -0.000000000000000000, -0.000000000000000000, -1.000000000000000000 ) ) ;
#253 = EDGE_LOOP ( 'NONE', ( #172, #43, #106, #230 ) ) ;
#254 = COORDINATED_UNIVERSAL_TIME_OFFSET ( 1, 0, .AHEAD. ) ;
#255 = CARTESIAN_POINT ( 'NONE',  ( 7.000000000000000000, 8.572527594031473190E-16, 5.000000000000000000 ) ) ;
#256 = EDGE_LOOP ( 'NONE', ( #238, #303 ) ) ;
#257 = AXIS2_PLACEMENT_3D ( 'NONE', #137, #252, #11 ) ;
#258 = EDGE_CURVE ( 'NONE', #272, #183, #81, .T. ) ;
#259 = CC_DESIGN_PERSON_AND_ORGANIZATION_ASSIGNMENT ( #32, #297, ( #58 ) ) ;
#260 = EDGE_LOOP ( 'NONE', ( #151, #86 ) ) ;
#261 = ORIENTED_EDGE ( 'NONE', *, *, #195, .F. ) ;
#262 = APPROVAL_PERSON_ORGANIZATION ( #122, #206, #167 ) ;
#263 = CARTESIAN_POINT ( 'NONE',  ( 0.000000000000000000, 0.000000000000000000, 0.000000000000000000 ) ) ;
#264 = DIRECTION ( 'NONE',  ( 1.000000000000000000, 0.000000000000000000, -0.000000000000000000 ) ) ;
#265 = CARTESIAN_POINT ( 'NONE',  ( 0.000000000000000000, 0.000000000000000000, 205.0000000000000284 ) ) ;
#266 = FACE_OUTER_BOUND ( 'NONE', #256, .T. ) ;
#267 = CARTESIAN_POINT ( 'NONE',  ( -4.250000000000000000, 0.000000000000000000, 5.200000000000009948 ) ) ;
#268 = EDGE_CURVE ( 'NONE', #71, #236, #45, .T. ) ;
#269 = AXIS2_PLACEMENT_3D ( 'NONE', #91, #187, #64 ) ;
#270 = CALENDAR_DATE ( 2022, 20, 6 ) ;
#271 = DIRECTION ( 'NONE',  ( 1.000000000000000000, 0.000000000000000000, 0.000000000000000000 ) ) ;
#272 = VERTEX_POINT ( 'NONE', #119 ) ;
#273 = CALENDAR_DATE ( 2022, 20, 6 ) ;
#274 = CARTESIAN_POINT ( 'NONE',  ( 0.000000000000000000, 0.000000000000000000, 5.000000000000000000 ) ) ;
#275 = VERTEX_POINT ( 'NONE', #39 ) ;
#276 = EDGE_CURVE ( 'NONE', #288, #192, #85, .T. ) ;
#277 = DIRECTION ( 'NONE',  ( 1.000000000000000000, 0.000000000000000000, 0.000000000000000000 ) ) ;
#278 = TOROIDAL_SURFACE ( 'NONE', #138, 4.450000000000000178, 0.2000000000000000111 ) ;
#279 = ADVANCED_FACE ( 'NONE', ( #222 ), #9, .T. ) ;
#280 = EDGE_CURVE ( 'NONE', #89, #40, #229, .T. ) ;
#281 = FACE_OUTER_BOUND ( 'NONE', #210, .T. ) ;
#282 = SECURITY_CLASSIFICATION ( '', '', #189 ) ;
#283 = COORDINATED_UNIVERSAL_TIME_OFFSET ( 1, 0, .AHEAD. ) ;
#284 = MECHANICAL_CONTEXT ( 'NONE', #78, 'mechanical' ) ;
#285 = AXIS2_PLACEMENT_3D ( 'NONE', #239, #194, #286 ) ;
#286 = DIRECTION ( 'NONE',  ( -1.000000000000000000, 1.224646799147353454E-16, 0.000000000000000000 ) ) ;
#287 = CARTESIAN_POINT ( 'NONE',  ( 0.000000000000000000, 0.000000000000000000, 0.000000000000000000 ) ) ;
#288 = VERTEX_POINT ( 'NONE', #209 ) ;
#289 = AXIS2_PLACEMENT_3D ( 'NONE', #227, #200, #202 ) ;
#290 = DIRECTION ( 'NONE',  ( 0.000000000000000000, 0.000000000000000000, 1.000000000000000000 ) ) ;
#291 = VERTEX_POINT ( 'NONE', #301 ) ;
#292 = DIRECTION ( 'NONE',  ( 0.000000000000000000, -1.000000000000000000, 0.000000000000000000 ) ) ;
#293 = EDGE_CURVE ( 'NONE', #40, #192, #211, .T. ) ;
#294 = DIRECTION ( 'NONE',  ( -0.000000000000000000, -0.000000000000000000, -1.000000000000000000 ) ) ;
#295 = DIRECTION ( 'NONE',  ( 1.000000000000000000, 0.000000000000000000, 0.000000000000000000 ) ) ;
#296 = EDGE_CURVE ( 'NONE', #183, #236, #164, .T. ) ;
#297 = PERSON_AND_ORGANIZATION_ROLE ( 'creator' ) ;
#298 = ADVANCED_FACE ( 'NONE', ( #281 ), #99, .F. ) ;
#299 = LOCAL_TIME ( 11, 45, 4.000000000000000000, #254 ) ;
#300 = CALENDAR_DATE ( 2022, 20, 6 ) ;
#301 = CARTESIAN_POINT ( 'NONE',  ( 4.450000000000000178, 0.000000000000000000, 5.000000000000005329 ) ) ;
#302 = ORIENTED_EDGE ( 'NONE', *, *, #276, .F. ) ;
#303 = ORIENTED_EDGE ( 'NONE', *, *, #6, .F. ) ;
#304 = AXIS2_PLACEMENT_3D ( 'NONE', #104, #290, #264 ) ;
#305 = SHAPE_DEFINITION_REPRESENTATION ( #92, #240 ) ;
#306 =( NAMED_UNIT ( * ) SI_UNIT ( $, .STERADIAN. ) SOLID_ANGLE_UNIT ( ) );
#307 = ORIENTED_EDGE ( 'NONE', *, *, #223, .T. ) ;
ENDSEC;
END-ISO-10303-21;
