ISO-10303-21;
HEADER;
FILE_DESCRIPTION (( 'STEP AP203' ),
    '1' );
FILE_NAME ('ef98.STEP',
    '2022-06-20T09:42:48',
    ( '' ),
    ( '' ),
    'SwSTEP 2.0',
    'SolidWorks 2019',
    '' );
FILE_SCHEMA (( 'CONFIG_CONTROL_DESIGN' ));
ENDSEC;

DATA;
#1 = CARTESIAN_POINT ( 'NONE',  ( 7.000000000000000000, 8.572527594031473190E-16, 0.000000000000000000 ) ) ;
#2 = CIRCLE ( 'NONE', #175, 4.700000000000000178 ) ;
#3 = CARTESIAN_POINT ( 'NONE',  ( -4.700000000000000178, 5.755839955992559655E-16, 5.199999999999982414 ) ) ;
#4 = AXIS2_PLACEMENT_3D ( 'NONE', #104, #169, #286 ) ;
#5 = DIRECTION ( 'NONE',  ( -1.000000000000000000, 0.000000000000000000, 0.000000000000000000 ) ) ;
#6 = UNCERTAINTY_MEASURE_WITH_UNIT (LENGTH_MEASURE( 1.000000000000000082E-05 ), #123, 'distance_accuracy_value', 'NONE');
#7 = FACE_OUTER_BOUND ( 'NONE', #297, .T. ) ;
#8 =( NAMED_UNIT ( * ) PLANE_ANGLE_UNIT ( ) SI_UNIT ( $, .RADIAN. ) );
#9 = CC_DESIGN_PERSON_AND_ORGANIZATION_ASSIGNMENT ( #135, #219, ( #137 ) ) ;
#10 = APPROVAL_PERSON_ORGANIZATION ( #60, #174, #180 ) ;
#11 = ORIENTED_EDGE ( 'NONE', *, *, #294, .T. ) ;
#12 = ORIENTED_EDGE ( 'NONE', *, *, #271, .T. ) ;
#13 = MANIFOLD_SOLID_BREP ( 'Zaoblit1', #253 ) ;
#14 = ORIENTED_EDGE ( 'NONE', *, *, #29, .F. ) ;
#15 = DIRECTION ( 'NONE',  ( 0.000000000000000000, 0.000000000000000000, 1.000000000000000000 ) ) ;
#16 = PERSON_AND_ORGANIZATION_ROLE ( 'design_owner' ) ;
#17 = ADVANCED_FACE ( 'NONE', ( #111 ), #39, .T. ) ;
#18 = COORDINATED_UNIVERSAL_TIME_OFFSET ( 1, 0, .AHEAD. ) ;
#19 = AXIS2_PLACEMENT_3D ( 'NONE', #305, #100, #279 ) ;
#20 = ORIENTED_EDGE ( 'NONE', *, *, #26, .T. ) ;
#21 = DIRECTION ( 'NONE',  ( -0.000000000000000000, -0.000000000000000000, -1.000000000000000000 ) ) ;
#22 = CIRCLE ( 'NONE', #140, 7.000000000000000000 ) ;
#23 = DIRECTION ( 'NONE',  ( 1.000000000000000000, 0.000000000000000000, 0.000000000000000000 ) ) ;
#24 = LINE ( 'NONE', #99, #296 ) ;
#25 = CARTESIAN_POINT ( 'NONE',  ( 0.000000000000000000, 0.000000000000000000, 5.199999999999982414 ) ) ;
#26 = EDGE_CURVE ( 'NONE', #262, #61, #24, .T. ) ;
#27 = DIRECTION ( 'NONE',  ( 0.000000000000000000, 0.000000000000000000, 1.000000000000000000 ) ) ;
#28 = FACE_OUTER_BOUND ( 'NONE', #222, .T. ) ;
#29 = EDGE_CURVE ( 'NONE', #244, #262, #79, .T. ) ;
#30 = MECHANICAL_CONTEXT ( 'NONE', #49, 'mechanical' ) ;
#31 = LOCAL_TIME ( 11, 42, 48.00000000000000000, #40 ) ;
#32 = DIRECTION ( 'NONE',  ( 0.000000000000000000, -1.000000000000000000, 0.000000000000000000 ) ) ;
#33 = DIRECTION ( 'NONE',  ( 1.000000000000000000, 0.000000000000000000, 0.000000000000000000 ) ) ;
#34 = ADVANCED_FACE ( 'NONE', ( #252 ), #238, .F. ) ;
#35 = AXIS2_PLACEMENT_3D ( 'NONE', #141, #52, #120 ) ;
#36 = ORIENTED_EDGE ( 'NONE', *, *, #199, .F. ) ;
#37 = PERSON_AND_ORGANIZATION ( #235, #213 ) ;
#38 = ORIENTED_EDGE ( 'NONE', *, *, #164, .T. ) ;
#39 = PLANE ( 'NONE',  #138 ) ;
#40 = COORDINATED_UNIVERSAL_TIME_OFFSET ( 1, 0, .AHEAD. ) ;
#41 = PERSON_AND_ORGANIZATION_ROLE ( 'creator' ) ;
#42 = DATE_AND_TIME ( #114, #230 ) ;
#43 = ORIENTED_EDGE ( 'NONE', *, *, #282, .F. ) ;
#44 = AXIS2_PLACEMENT_3D ( 'NONE', #274, #163, #227 ) ;
#45 = CARTESIAN_POINT ( 'NONE',  ( 0.000000000000000000, 0.000000000000000000, 635.0000000000000000 ) ) ;
#46 = CARTESIAN_POINT ( 'NONE',  ( 4.500000000000000888, 5.510910596163089556E-16, 635.0000000000000000 ) ) ;
#47 = AXIS2_PLACEMENT_3D ( 'NONE', #257, #212, #102 ) ;
#48 = DIRECTION ( 'NONE',  ( 1.000000000000000000, 0.000000000000000000, 0.000000000000000000 ) ) ;
#49 = APPLICATION_CONTEXT ( 'configuration controlled 3d designs of mechanical parts and assemblies' ) ;
#50 = PRODUCT_DEFINITION ( 'NEZNÁMÝ', '', #137, #170 ) ;
#51 = EDGE_LOOP ( 'NONE', ( #36, #290, #12, #158 ) ) ;
#52 = DIRECTION ( 'NONE',  ( -0.000000000000000000, -0.000000000000000000, -1.000000000000000000 ) ) ;
#53 = DIRECTION ( 'NONE',  ( 0.000000000000000000, 0.000000000000000000, 1.000000000000000000 ) ) ;
#54 =( GEOMETRIC_REPRESENTATION_CONTEXT ( 3 ) GLOBAL_UNCERTAINTY_ASSIGNED_CONTEXT ( ( #6 ) ) GLOBAL_UNIT_ASSIGNED_CONTEXT ( ( #123, #8, #283 ) ) REPRESENTATION_CONTEXT ( 'NONE', 'WORKASPACE' ) );
#55 = ADVANCED_FACE ( 'NONE', ( #185, #183 ), #97, .T. ) ;
#56 = CARTESIAN_POINT ( 'NONE',  ( 0.000000000000000000, 0.000000000000000000, 0.000000000000000000 ) ) ;
#57 = CARTESIAN_POINT ( 'NONE',  ( 0.000000000000000000, 0.000000000000000000, 5.000000000000000000 ) ) ;
#58 = EDGE_CURVE ( 'NONE', #91, #115, #2, .T. ) ;
#59 = CARTESIAN_POINT ( 'NONE',  ( -4.500000000000000888, 0.000000000000000000, 635.0000000000000000 ) ) ;
#60 = PERSON_AND_ORGANIZATION ( #235, #213 ) ;
#61 = VERTEX_POINT ( 'NONE', #1 ) ;
#62 = VERTEX_POINT ( 'NONE', #186 ) ;
#63 = VERTEX_POINT ( 'NONE', #78 ) ;
#64 = AXIS2_PLACEMENT_3D ( 'NONE', #232, #32, #209 ) ;
#65 = CC_DESIGN_APPROVAL ( #174, ( #137 ) ) ;
#66 = ADVANCED_BREP_SHAPE_REPRESENTATION ( 'ef98', ( #13, #87 ), #54 ) ;
#67 = DATE_TIME_ROLE ( 'creation_date' ) ;
#68 = EDGE_LOOP ( 'NONE', ( #130, #303 ) ) ;
#69 = AXIS2_PLACEMENT_3D ( 'NONE', #103, #190, #210 ) ;
#70 = ORIENTED_EDGE ( 'NONE', *, *, #282, .T. ) ;
#71 = SECURITY_CLASSIFICATION ( '', '', #266 ) ;
#72 = CC_DESIGN_PERSON_AND_ORGANIZATION_ASSIGNMENT ( #37, #41, ( #137 ) ) ;
#73 = CARTESIAN_POINT ( 'NONE',  ( 0.000000000000000000, 0.000000000000000000, 635.0000000000000000 ) ) ;
#74 = FACE_OUTER_BOUND ( 'NONE', #51, .T. ) ;
#75 = DIRECTION ( 'NONE',  ( 1.000000000000000000, 0.000000000000000000, 0.000000000000000000 ) ) ;
#76 = EDGE_CURVE ( 'NONE', #115, #91, #83, .T. ) ;
#77 = AXIS2_PLACEMENT_3D ( 'NONE', #57, #171, #124 ) ;
#78 = CARTESIAN_POINT ( 'NONE',  ( 4.500000000000000888, 5.510910596163089556E-16, 5.199999999999982414 ) ) ;
#79 = CIRCLE ( 'NONE', #44, 7.000000000000000000 ) ;
#80 = CARTESIAN_POINT ( 'NONE',  ( 0.000000000000000000, 0.000000000000000000, 0.000000000000000000 ) ) ;
#81 = APPLICATION_PROTOCOL_DEFINITION ( 'international standard', 'config_control_design', 1994, #49 ) ;
#82 = LINE ( 'NONE', #59, #275 ) ;
#83 = CIRCLE ( 'NONE', #35, 4.700000000000000178 ) ;
#84 = APPROVAL_DATE_TIME ( #217, #101 ) ;
#85 = EDGE_CURVE ( 'NONE', #244, #194, #203, .T. ) ;
#86 = CALENDAR_DATE ( 2022, 20, 6 ) ;
#87 = AXIS2_PLACEMENT_3D ( 'NONE', #56, #233, #146 ) ;
#88 = APPROVAL_STATUS ( 'not_yet_approved' ) ;
#89 = ORIENTED_EDGE ( 'NONE', *, *, #29, .T. ) ;
#90 = CALENDAR_DATE ( 2022, 20, 6 ) ;
#91 = VERTEX_POINT ( 'NONE', #98 ) ;
#92 = ORIENTED_EDGE ( 'NONE', *, *, #85, .T. ) ;
#93 = APPROVAL ( #221, 'NEURÈENÝ' ) ;
#94 = EDGE_LOOP ( 'NONE', ( #43, #96, #218, #298 ) ) ;
#95 = ORIENTED_EDGE ( 'NONE', *, *, #231, .T. ) ;
#96 = ORIENTED_EDGE ( 'NONE', *, *, #271, .F. ) ;
#97 = PLANE ( 'NONE',  #19 ) ;
#98 = CARTESIAN_POINT ( 'NONE',  ( -4.700000000000000178, 5.755839955992559655E-16, 4.999999999999991118 ) ) ;
#99 = CARTESIAN_POINT ( 'NONE',  ( 7.000000000000000000, 8.572527594031473190E-16, 5.000000000000000000 ) ) ;
#100 = DIRECTION ( 'NONE',  ( 0.000000000000000000, 0.000000000000000000, 1.000000000000000000 ) ) ;
#101 = APPROVAL ( #197, 'NEURÈENÝ' ) ;
#102 = DIRECTION ( 'NONE',  ( 1.000000000000000000, 0.000000000000000000, 0.000000000000000000 ) ) ;
#103 = CARTESIAN_POINT ( 'NONE',  ( 0.000000000000000000, 0.000000000000000000, 5.199999999999982414 ) ) ;
#104 = CARTESIAN_POINT ( 'NONE',  ( 0.000000000000000000, 0.000000000000000000, 5.000000000000000000 ) ) ;
#105 = COORDINATED_UNIVERSAL_TIME_OFFSET ( 1, 0, .AHEAD. ) ;
#106 = APPROVAL_PERSON_ORGANIZATION ( #243, #101, #129 ) ;
#107 = EDGE_CURVE ( 'NONE', #193, #63, #228, .T. ) ;
#108 = CALENDAR_DATE ( 2022, 20, 6 ) ;
#109 = EDGE_LOOP ( 'NONE', ( #215, #70, #177, #198 ) ) ;
#110 = DATE_AND_TIME ( #86, #31 ) ;
#111 = FACE_OUTER_BOUND ( 'NONE', #118, .T. ) ;
#112 = APPLICATION_PROTOCOL_DEFINITION ( 'international standard', 'config_control_design', 1994, #167 ) ;
#113 = CC_DESIGN_SECURITY_CLASSIFICATION ( #71, ( #137 ) ) ;
#114 = CALENDAR_DATE ( 2022, 20, 6 ) ;
#115 = VERTEX_POINT ( 'NONE', #251 ) ;
#116 = ADVANCED_FACE ( 'NONE', ( #304 ), #281, .F. ) ;
#117 = AXIS2_PLACEMENT_3D ( 'NONE', #25, #121, #23 ) ;
#118 = EDGE_LOOP ( 'NONE', ( #182, #289 ) ) ;
#119 = CARTESIAN_POINT ( 'NONE',  ( 0.000000000000000000, 0.000000000000000000, 5.000000000000000000 ) ) ;
#120 = DIRECTION ( 'NONE',  ( 1.000000000000000000, 0.000000000000000000, 0.000000000000000000 ) ) ;
#121 = DIRECTION ( 'NONE',  ( 0.000000000000000000, 0.000000000000000000, 1.000000000000000000 ) ) ;
#122 = CARTESIAN_POINT ( 'NONE',  ( 4.500000000000000888, 5.510910596163089556E-16, 635.0000000000000000 ) ) ;
#123 =( LENGTH_UNIT ( ) NAMED_UNIT ( * ) SI_UNIT ( .MILLI., .METRE. ) );
#124 = DIRECTION ( 'NONE',  ( -1.000000000000000000, 0.000000000000000000, 0.000000000000000000 ) ) ;
#125 = LOCAL_TIME ( 11, 42, 48.00000000000000000, #261 ) ;
#126 = DIRECTION ( 'NONE',  ( 0.000000000000000000, 0.000000000000000000, 1.000000000000000000 ) ) ;
#127 = CARTESIAN_POINT ( 'NONE',  ( 7.000000000000000000, 8.572527594031473190E-16, 5.000000000000000000 ) ) ;
#128 = APPROVAL_DATE_TIME ( #157, #93 ) ;
#129 = APPROVAL_ROLE ( '' ) ;
#130 = ORIENTED_EDGE ( 'NONE', *, *, #76, .T. ) ;
#131 = PRODUCT_DEFINITION_SHAPE ( 'NONE', 'NONE',  #50 ) ;
#132 = CARTESIAN_POINT ( 'NONE',  ( 0.000000000000000000, 0.000000000000000000, 635.0000000000000000 ) ) ;
#133 = DATE_AND_TIME ( #292, #280 ) ;
#134 = ORIENTED_EDGE ( 'NONE', *, *, #300, .T. ) ;
#135 = PERSON_AND_ORGANIZATION ( #235, #213 ) ;
#136 = ORIENTED_EDGE ( 'NONE', *, *, #26, .F. ) ;
#137 = PRODUCT_DEFINITION_FORMATION_WITH_SPECIFIED_SOURCE ( 'LIBOVOLNÝ', '', #263, .NOT_KNOWN. ) ;
#138 = AXIS2_PLACEMENT_3D ( 'NONE', #132, #15, #291 ) ;
#139 = DIRECTION ( 'NONE',  ( -0.000000000000000000, -0.000000000000000000, -1.000000000000000000 ) ) ;
#140 = AXIS2_PLACEMENT_3D ( 'NONE', #144, #27, #48 ) ;
#141 = CARTESIAN_POINT ( 'NONE',  ( 0.000000000000000000, 0.000000000000000000, 5.000000000000000000 ) ) ;
#142 = AXIS2_PLACEMENT_3D ( 'NONE', #172, #126, #206 ) ;
#143 = FACE_OUTER_BOUND ( 'NONE', #150, .T. ) ;
#144 = CARTESIAN_POINT ( 'NONE',  ( 0.000000000000000000, 0.000000000000000000, 0.000000000000000000 ) ) ;
#145 = DIRECTION ( 'NONE',  ( 1.224646799147353207E-16, 1.000000000000000000, -0.000000000000000000 ) ) ;
#146 = DIRECTION ( 'NONE',  ( 1.000000000000000000, 0.000000000000000000, 0.000000000000000000 ) ) ;
#147 = ADVANCED_FACE ( 'NONE', ( #74 ), #165, .T. ) ;
#148 = DIRECTION ( 'NONE',  ( -0.000000000000000000, -0.000000000000000000, -1.000000000000000000 ) ) ;
#149 = DIRECTION ( 'NONE',  ( 0.000000000000000000, 0.000000000000000000, 1.000000000000000000 ) ) ;
#150 = EDGE_LOOP ( 'NONE', ( #136, #14, #92, #95 ) ) ;
#151 = CC_DESIGN_PERSON_AND_ORGANIZATION_ASSIGNMENT ( #295, #192, ( #71 ) ) ;
#152 = PERSON_AND_ORGANIZATION ( #235, #213 ) ;
#153 = ORIENTED_EDGE ( 'NONE', *, *, #231, .F. ) ;
#154 = DATE_TIME_ROLE ( 'classification_date' ) ;
#155 = EDGE_CURVE ( 'NONE', #176, #193, #156, .T. ) ;
#156 = CIRCLE ( 'NONE', #284, 4.500000000000000888 ) ;
#157 = DATE_AND_TIME ( #108, #125 ) ;
#158 = ORIENTED_EDGE ( 'NONE', *, *, #300, .F. ) ;
#159 = DIRECTION ( 'NONE',  ( 0.000000000000000000, 0.000000000000000000, 1.000000000000000000 ) ) ;
#160 = CARTESIAN_POINT ( 'NONE',  ( -4.500000000000000888, 0.000000000000000000, 635.0000000000000000 ) ) ;
#161 = VECTOR ( 'NONE', #21, 1000.000000000000000 ) ;
#162 = CARTESIAN_POINT ( 'NONE',  ( 0.000000000000000000, 0.000000000000000000, 5.199999999999982414 ) ) ;
#163 = DIRECTION ( 'NONE',  ( 0.000000000000000000, 0.000000000000000000, 1.000000000000000000 ) ) ;
#164 = EDGE_CURVE ( 'NONE', #61, #194, #22, .T. ) ;
#165 = CYLINDRICAL_SURFACE ( 'NONE', #239, 4.500000000000000888 ) ;
#166 = CIRCLE ( 'NONE', #256, 7.000000000000000000 ) ;
#167 = APPLICATION_CONTEXT ( 'configuration controlled 3d designs of mechanical parts and assemblies' ) ;
#168 = FACE_OUTER_BOUND ( 'NONE', #94, .T. ) ;
#169 = DIRECTION ( 'NONE',  ( -0.000000000000000000, -0.000000000000000000, -1.000000000000000000 ) ) ;
#170 = DESIGN_CONTEXT ( 'detailed design', #167, 'design' ) ;
#171 = DIRECTION ( 'NONE',  ( -0.000000000000000000, -0.000000000000000000, -1.000000000000000000 ) ) ;
#172 = CARTESIAN_POINT ( 'NONE',  ( 0.000000000000000000, 0.000000000000000000, 5.199999999999982414 ) ) ;
#173 = CIRCLE ( 'NONE', #287, 4.500000000000000888 ) ;
#174 = APPROVAL ( #88, 'NEURÈENÝ' ) ;
#175 = AXIS2_PLACEMENT_3D ( 'NONE', #119, #276, #302 ) ;
#176 = VERTEX_POINT ( 'NONE', #160 ) ;
#177 = ORIENTED_EDGE ( 'NONE', *, *, #76, .F. ) ;
#178 = CIRCLE ( 'NONE', #47, 7.000000000000000000 ) ;
#179 = EDGE_CURVE ( 'NONE', #62, #63, #207, .T. ) ;
#180 = APPROVAL_ROLE ( '' ) ;
#181 = SHAPE_DEFINITION_REPRESENTATION ( #131, #66 ) ;
#182 = ORIENTED_EDGE ( 'NONE', *, *, #155, .T. ) ;
#183 = FACE_OUTER_BOUND ( 'NONE', #264, .T. ) ;
#184 = DIRECTION ( 'NONE',  ( 1.000000000000000000, 0.000000000000000000, 0.000000000000000000 ) ) ;
#185 = FACE_BOUND ( 'NONE', #68, .T. ) ;
#186 = CARTESIAN_POINT ( 'NONE',  ( -4.500000000000000888, 0.000000000000000000, 5.199999999999982414 ) ) ;
#187 = DIRECTION ( 'NONE',  ( -1.000000000000000000, 1.224646799147353454E-16, 0.000000000000000000 ) ) ;
#188 = DIRECTION ( 'NONE',  ( -0.000000000000000000, -0.000000000000000000, -1.000000000000000000 ) ) ;
#189 = CYLINDRICAL_SURFACE ( 'NONE', #301, 4.500000000000000888 ) ;
#190 = DIRECTION ( 'NONE',  ( 0.000000000000000000, 0.000000000000000000, 1.000000000000000000 ) ) ;
#191 = TOROIDAL_SURFACE ( 'NONE', #142, 4.700000000000000178, 0.2000000000000000111 ) ;
#192 = PERSON_AND_ORGANIZATION_ROLE ( 'classification_officer' ) ;
#193 = VERTEX_POINT ( 'NONE', #46 ) ;
#194 = VERTEX_POINT ( 'NONE', #248 ) ;
#195 = COORDINATED_UNIVERSAL_TIME_OFFSET ( 1, 0, .AHEAD. ) ;
#196 = PERSON_AND_ORGANIZATION_ROLE ( 'creator' ) ;
#197 = APPROVAL_STATUS ( 'not_yet_approved' ) ;
#198 = ORIENTED_EDGE ( 'NONE', *, *, #250, .F. ) ;
#199 = EDGE_CURVE ( 'NONE', #193, #176, #173, .T. ) ;
#200 = DIRECTION ( 'NONE',  ( 1.000000000000000000, 0.000000000000000000, -0.000000000000000000 ) ) ;
#201 = DIRECTION ( 'NONE',  ( -0.000000000000000000, -0.000000000000000000, -1.000000000000000000 ) ) ;
#202 = CYLINDRICAL_SURFACE ( 'NONE', #77, 7.000000000000000000 ) ;
#203 = LINE ( 'NONE', #306, #161 ) ;
#204 = AXIS2_PLACEMENT_3D ( 'NONE', #162, #159, #249 ) ;
#205 = DIRECTION ( 'NONE',  ( -0.000000000000000000, -0.000000000000000000, -1.000000000000000000 ) ) ;
#206 = DIRECTION ( 'NONE',  ( 1.000000000000000000, 0.000000000000000000, 0.000000000000000000 ) ) ;
#207 = CIRCLE ( 'NONE', #204, 4.500000000000000888 ) ;
#208 = APPROVAL_PERSON_ORGANIZATION ( #288, #93, #242 ) ;
#209 = DIRECTION ( 'NONE',  ( 0.000000000000000000, 0.000000000000000000, -1.000000000000000000 ) ) ;
#210 = DIRECTION ( 'NONE',  ( 1.000000000000000000, 0.000000000000000000, 0.000000000000000000 ) ) ;
#211 = ADVANCED_FACE ( 'NONE', ( #143 ), #202, .T. ) ;
#212 = DIRECTION ( 'NONE',  ( 0.000000000000000000, 0.000000000000000000, 1.000000000000000000 ) ) ;
#213 = ORGANIZATION ( 'NEURÈENÝ', 'NEURÈENÝ', '' ) ;
#214 = CC_DESIGN_DATE_AND_TIME_ASSIGNMENT ( #133, #67, ( #50 ) ) ;
#215 = ORIENTED_EDGE ( 'NONE', *, *, #179, .F. ) ;
#216 = ORIENTED_EDGE ( 'NONE', *, *, #164, .F. ) ;
#217 = DATE_AND_TIME ( #90, #220 ) ;
#218 = ORIENTED_EDGE ( 'NONE', *, *, #250, .T. ) ;
#219 = PERSON_AND_ORGANIZATION_ROLE ( 'design_supplier' ) ;
#220 = LOCAL_TIME ( 11, 42, 48.00000000000000000, #195 ) ;
#221 = APPROVAL_STATUS ( 'not_yet_approved' ) ;
#222 = EDGE_LOOP ( 'NONE', ( #293, #270, #134, #299 ) ) ;
#223 = CC_DESIGN_PERSON_AND_ORGANIZATION_ASSIGNMENT ( #269, #196, ( #50 ) ) ;
#224 = DIRECTION ( 'NONE',  ( 0.000000000000000000, 0.000000000000000000, 1.000000000000000000 ) ) ;
#225 = DIRECTION ( 'NONE',  ( 0.000000000000000000, 0.000000000000000000, 1.000000000000000000 ) ) ;
#226 = CIRCLE ( 'NONE', #69, 4.500000000000000888 ) ;
#227 = DIRECTION ( 'NONE',  ( 1.000000000000000000, 0.000000000000000000, 0.000000000000000000 ) ) ;
#228 = LINE ( 'NONE', #122, #246 ) ;
#229 = CIRCLE ( 'NONE', #265, 0.1999999999999996503 ) ;
#230 = LOCAL_TIME ( 11, 42, 48.00000000000000000, #18 ) ;
#231 = EDGE_CURVE ( 'NONE', #194, #61, #166, .T. ) ;
#232 = CARTESIAN_POINT ( 'NONE',  ( 4.700000000000000178, 0.000000000000000000, 5.199999999999982414 ) ) ;
#233 = DIRECTION ( 'NONE',  ( 0.000000000000000000, 0.000000000000000000, 1.000000000000000000 ) ) ;
#234 = AXIS2_PLACEMENT_3D ( 'NONE', #80, #224, #200 ) ;
#235 = PERSON ( 'NEURÈENÝ', 'NEURÈENÝ', 'NEURÈENÝ', ('NEURÈENÝ'), ('NEURÈENÝ'), ('NEURÈENÝ') ) ;
#236 = CC_DESIGN_APPROVAL ( #93, ( #50 ) ) ;
#237 = CARTESIAN_POINT ( 'NONE',  ( 0.000000000000000000, 0.000000000000000000, 0.000000000000000000 ) ) ;
#238 = TOROIDAL_SURFACE ( 'NONE', #117, 4.700000000000000178, 0.2000000000000000111 ) ;
#239 = AXIS2_PLACEMENT_3D ( 'NONE', #254, #139, #278 ) ;
#240 = ADVANCED_FACE ( 'NONE', ( #28 ), #189, .T. ) ;
#241 = CIRCLE ( 'NONE', #64, 0.1999999999999996503 ) ;
#242 = APPROVAL_ROLE ( '' ) ;
#243 = PERSON_AND_ORGANIZATION ( #235, #213 ) ;
#244 = VERTEX_POINT ( 'NONE', #259 ) ;
#245 = APPROVAL_DATE_TIME ( #110, #174 ) ;
#246 = VECTOR ( 'NONE', #201, 1000.000000000000000 ) ;
#247 = ADVANCED_FACE ( 'NONE', ( #168 ), #191, .F. ) ;
#248 = CARTESIAN_POINT ( 'NONE',  ( -7.000000000000000000, 0.000000000000000000, 0.000000000000000000 ) ) ;
#249 = DIRECTION ( 'NONE',  ( 1.000000000000000000, 0.000000000000000000, 0.000000000000000000 ) ) ;
#250 = EDGE_CURVE ( 'NONE', #63, #115, #241, .T. ) ;
#251 = CARTESIAN_POINT ( 'NONE',  ( 4.700000000000000178, 0.000000000000000000, 4.999999999999991118 ) ) ;
#252 = FACE_OUTER_BOUND ( 'NONE', #109, .T. ) ;
#253 = CLOSED_SHELL ( 'NONE', ( #34, #147, #277, #211, #55, #116, #240, #17, #247 ) ) ;
#254 = CARTESIAN_POINT ( 'NONE',  ( 0.000000000000000000, 0.000000000000000000, 635.0000000000000000 ) ) ;
#255 = CC_DESIGN_DATE_AND_TIME_ASSIGNMENT ( #42, #154, ( #71 ) ) ;
#256 = AXIS2_PLACEMENT_3D ( 'NONE', #237, #149, #33 ) ;
#257 = CARTESIAN_POINT ( 'NONE',  ( 0.000000000000000000, 0.000000000000000000, 5.000000000000000000 ) ) ;
#258 = CARTESIAN_POINT ( 'NONE',  ( 0.000000000000000000, 0.000000000000000000, 635.0000000000000000 ) ) ;
#259 = CARTESIAN_POINT ( 'NONE',  ( -7.000000000000000000, 0.000000000000000000, 5.000000000000000000 ) ) ;
#260 = PRODUCT_RELATED_PRODUCT_CATEGORY ( 'detail', '', ( #263 ) ) ;
#261 = COORDINATED_UNIVERSAL_TIME_OFFSET ( 1, 0, .AHEAD. ) ;
#262 = VERTEX_POINT ( 'NONE', #127 ) ;
#263 = PRODUCT ( 'ef98', 'ef98', '', ( #30 ) ) ;
#264 = EDGE_LOOP ( 'NONE', ( #89, #11 ) ) ;
#265 = AXIS2_PLACEMENT_3D ( 'NONE', #3, #145, #187 ) ;
#266 = SECURITY_CLASSIFICATION_LEVEL ( 'unclassified' ) ;
#267 = CC_DESIGN_APPROVAL ( #101, ( #71 ) ) ;
#268 = ORIENTED_EDGE ( 'NONE', *, *, #85, .F. ) ;
#269 = PERSON_AND_ORGANIZATION ( #235, #213 ) ;
#270 = ORIENTED_EDGE ( 'NONE', *, *, #155, .F. ) ;
#271 = EDGE_CURVE ( 'NONE', #63, #62, #226, .T. ) ;
#272 = EDGE_LOOP ( 'NONE', ( #153, #216 ) ) ;
#273 = ORIENTED_EDGE ( 'NONE', *, *, #294, .F. ) ;
#274 = CARTESIAN_POINT ( 'NONE',  ( 0.000000000000000000, 0.000000000000000000, 5.000000000000000000 ) ) ;
#275 = VECTOR ( 'NONE', #148, 1000.000000000000000 ) ;
#276 = DIRECTION ( 'NONE',  ( -0.000000000000000000, -0.000000000000000000, -1.000000000000000000 ) ) ;
#277 = ADVANCED_FACE ( 'NONE', ( #7 ), #285, .T. ) ;
#278 = DIRECTION ( 'NONE',  ( -1.000000000000000000, 0.000000000000000000, 0.000000000000000000 ) ) ;
#279 = DIRECTION ( 'NONE',  ( 1.000000000000000000, 0.000000000000000000, -0.000000000000000000 ) ) ;
#280 = LOCAL_TIME ( 11, 42, 48.00000000000000000, #105 ) ;
#281 = PLANE ( 'NONE',  #234 ) ;
#282 = EDGE_CURVE ( 'NONE', #62, #91, #229, .T. ) ;
#283 =( NAMED_UNIT ( * ) SI_UNIT ( $, .STERADIAN. ) SOLID_ANGLE_UNIT ( ) );
#284 = AXIS2_PLACEMENT_3D ( 'NONE', #73, #53, #75 ) ;
#285 = CYLINDRICAL_SURFACE ( 'NONE', #4, 7.000000000000000000 ) ;
#286 = DIRECTION ( 'NONE',  ( -1.000000000000000000, 0.000000000000000000, 0.000000000000000000 ) ) ;
#287 = AXIS2_PLACEMENT_3D ( 'NONE', #45, #225, #184 ) ;
#288 = PERSON_AND_ORGANIZATION ( #235, #213 ) ;
#289 = ORIENTED_EDGE ( 'NONE', *, *, #199, .T. ) ;
#290 = ORIENTED_EDGE ( 'NONE', *, *, #107, .T. ) ;
#291 = DIRECTION ( 'NONE',  ( 1.000000000000000000, 0.000000000000000000, -0.000000000000000000 ) ) ;
#292 = CALENDAR_DATE ( 2022, 20, 6 ) ;
#293 = ORIENTED_EDGE ( 'NONE', *, *, #107, .F. ) ;
#294 = EDGE_CURVE ( 'NONE', #262, #244, #178, .T. ) ;
#295 = PERSON_AND_ORGANIZATION ( #235, #213 ) ;
#296 = VECTOR ( 'NONE', #205, 1000.000000000000000 ) ;
#297 = EDGE_LOOP ( 'NONE', ( #273, #20, #38, #268 ) ) ;
#298 = ORIENTED_EDGE ( 'NONE', *, *, #58, .F. ) ;
#299 = ORIENTED_EDGE ( 'NONE', *, *, #179, .T. ) ;
#300 = EDGE_CURVE ( 'NONE', #176, #62, #82, .T. ) ;
#301 = AXIS2_PLACEMENT_3D ( 'NONE', #258, #188, #5 ) ;
#302 = DIRECTION ( 'NONE',  ( 1.000000000000000000, 0.000000000000000000, 0.000000000000000000 ) ) ;
#303 = ORIENTED_EDGE ( 'NONE', *, *, #58, .T. ) ;
#304 = FACE_OUTER_BOUND ( 'NONE', #272, .T. ) ;
#305 = CARTESIAN_POINT ( 'NONE',  ( 0.000000000000000000, 0.000000000000000000, 5.000000000000000000 ) ) ;
#306 = CARTESIAN_POINT ( 'NONE',  ( -7.000000000000000000, 0.000000000000000000, 5.000000000000000000 ) ) ;
#307 = CC_DESIGN_PERSON_AND_ORGANIZATION_ASSIGNMENT ( #152, #16, ( #263 ) ) ;
ENDSEC;
END-ISO-10303-21;
