ISO-10303-21;
HEADER;
FILE_DESCRIPTION (( 'STEP AP203' ),
    '1' );
FILE_NAME ('a941.STEP',
    '2022-06-20T09:29:14',
    ( '' ),
    ( '' ),
    'SwSTEP 2.0',
    'SolidWorks 2019',
    '' );
FILE_SCHEMA (( 'CONFIG_CONTROL_DESIGN' ));
ENDSEC;

DATA;
#1 = DIRECTION ( 'NONE',  ( 1.000000000000000000, 0.000000000000000000, 0.000000000000000000 ) ) ;
#2 = VERTEX_POINT ( 'NONE', #17 ) ;
#3 = CARTESIAN_POINT ( 'NONE',  ( 0.000000000000000000, 0.000000000000000000, 7.199999999999998401 ) ) ;
#4 = LOCAL_TIME ( 11, 29, 14.00000000000000000, #200 ) ;
#5 = EDGE_CURVE ( 'NONE', #118, #32, #145, .T. ) ;
#6 = PERSON_AND_ORGANIZATION ( #28, #299 ) ;
#7 = CIRCLE ( 'NONE', #193, 6.450000000000000178 ) ;
#8 = ADVANCED_FACE ( 'NONE', ( #224 ), #300, .T. ) ;
#9 = CC_DESIGN_APPROVAL ( #199, ( #189 ) ) ;
#10 = ORIENTED_EDGE ( 'NONE', *, *, #37, .F. ) ;
#11 = MANIFOLD_SOLID_BREP ( 'Zaoblit1', #284 ) ;
#12 = SHAPE_DEFINITION_REPRESENTATION ( #90, #150 ) ;
#13 = EDGE_LOOP ( 'NONE', ( #221, #151 ) ) ;
#14 = VERTEX_POINT ( 'NONE', #202 ) ;
#15 = PERSON_AND_ORGANIZATION ( #28, #299 ) ;
#16 = ORIENTED_EDGE ( 'NONE', *, *, #127, .F. ) ;
#17 = CARTESIAN_POINT ( 'NONE',  ( -6.250000000000000000, 0.000000000000000000, 7.199999999999998401 ) ) ;
#18 = DIRECTION ( 'NONE',  ( -0.000000000000000000, -0.000000000000000000, -1.000000000000000000 ) ) ;
#19 = AXIS2_PLACEMENT_3D ( 'NONE', #181, #301, #276 ) ;
#20 = CARTESIAN_POINT ( 'NONE',  ( -6.250000000000000000, 0.000000000000000000, 107.0000000000000142 ) ) ;
#21 = CARTESIAN_POINT ( 'NONE',  ( 9.000000000000000000, 1.102182119232617714E-15, 7.000000000000000000 ) ) ;
#22 = CARTESIAN_POINT ( 'NONE',  ( -9.000000000000000000, 0.000000000000000000, 7.000000000000000000 ) ) ;
#23 = LINE ( 'NONE', #21, #236 ) ;
#24 = AXIS2_PLACEMENT_3D ( 'NONE', #240, #211, #91 ) ;
#25 = DIRECTION ( 'NONE',  ( -0.000000000000000000, -0.000000000000000000, -1.000000000000000000 ) ) ;
#26 = CARTESIAN_POINT ( 'NONE',  ( 0.000000000000000000, 0.000000000000000000, 107.0000000000000142 ) ) ;
#27 = AXIS2_PLACEMENT_3D ( 'NONE', #216, #191, #192 ) ;
#28 = PERSON ( 'NEURÈENÝ', 'NEURÈENÝ', 'NEURÈENÝ', ('NEURÈENÝ'), ('NEURÈENÝ'), ('NEURÈENÝ') ) ;
#29 = VERTEX_POINT ( 'NONE', #302 ) ;
#30 = CC_DESIGN_DATE_AND_TIME_ASSIGNMENT ( #273, #291, ( #228 ) ) ;
#31 = CALENDAR_DATE ( 2022, 20, 6 ) ;
#32 = VERTEX_POINT ( 'NONE', #229 ) ;
#33 = DATE_AND_TIME ( #61, #253 ) ;
#34 = VERTEX_POINT ( 'NONE', #129 ) ;
#35 = PERSON_AND_ORGANIZATION_ROLE ( 'classification_officer' ) ;
#36 = VERTEX_POINT ( 'NONE', #40 ) ;
#37 = EDGE_CURVE ( 'NONE', #29, #2, #280, .T. ) ;
#38 = ORIENTED_EDGE ( 'NONE', *, *, #255, .F. ) ;
#39 = CIRCLE ( 'NONE', #115, 6.450000000000000178 ) ;
#40 = CARTESIAN_POINT ( 'NONE',  ( -6.450000000000000178, 7.898971854500428692E-16, 6.999999999999999112 ) ) ;
#41 = CC_DESIGN_PERSON_AND_ORGANIZATION_ASSIGNMENT ( #143, #245, ( #277 ) ) ;
#42 = CYLINDRICAL_SURFACE ( 'NONE', #95, 6.250000000000000000 ) ;
#43 = LINE ( 'NONE', #20, #296 ) ;
#44 = DIRECTION ( 'NONE',  ( 1.000000000000000000, 0.000000000000000000, 0.000000000000000000 ) ) ;
#45 = DIRECTION ( 'NONE',  ( -0.000000000000000000, -0.000000000000000000, -1.000000000000000000 ) ) ;
#46 =( LENGTH_UNIT ( ) NAMED_UNIT ( * ) SI_UNIT ( .MILLI., .METRE. ) );
#47 = CC_DESIGN_SECURITY_CLASSIFICATION ( #189, ( #277 ) ) ;
#48 = DIRECTION ( 'NONE',  ( 1.000000000000000000, 0.000000000000000000, 0.000000000000000000 ) ) ;
#49 = DIRECTION ( 'NONE',  ( 0.000000000000000000, -1.000000000000000000, 0.000000000000000000 ) ) ;
#50 = APPLICATION_PROTOCOL_DEFINITION ( 'international standard', 'config_control_design', 1994, #293 ) ;
#51 = DATE_AND_TIME ( #265, #96 ) ;
#52 = COORDINATED_UNIVERSAL_TIME_OFFSET ( 1, 0, .AHEAD. ) ;
#53 = ORIENTED_EDGE ( 'NONE', *, *, #54, .T. ) ;
#54 = EDGE_CURVE ( 'NONE', #198, #118, #278, .T. ) ;
#55 = CIRCLE ( 'NONE', #268, 0.1999999999999996503 ) ;
#56 = DATE_TIME_ROLE ( 'classification_date' ) ;
#57 = CIRCLE ( 'NONE', #141, 9.000000000000000000 ) ;
#58 = VERTEX_POINT ( 'NONE', #158 ) ;
#59 = APPROVAL_DATE_TIME ( #33, #89 ) ;
#60 = EDGE_LOOP ( 'NONE', ( #292, #171, #53, #98 ) ) ;
#61 = CALENDAR_DATE ( 2022, 20, 6 ) ;
#62 = CARTESIAN_POINT ( 'NONE',  ( 0.000000000000000000, 0.000000000000000000, 107.0000000000000142 ) ) ;
#63 = VECTOR ( 'NONE', #232, 1000.000000000000000 ) ;
#64 = DIRECTION ( 'NONE',  ( -0.000000000000000000, -0.000000000000000000, -1.000000000000000000 ) ) ;
#65 = PLANE ( 'NONE',  #244 ) ;
#66 = FACE_OUTER_BOUND ( 'NONE', #267, .T. ) ;
#67 = DIRECTION ( 'NONE',  ( -1.000000000000000000, 1.224646799147353454E-16, 0.000000000000000000 ) ) ;
#68 = CC_DESIGN_PERSON_AND_ORGANIZATION_ASSIGNMENT ( #297, #219, ( #277 ) ) ;
#69 = LOCAL_TIME ( 11, 29, 14.00000000000000000, #120 ) ;
#70 =( NAMED_UNIT ( * ) SI_UNIT ( $, .STERADIAN. ) SOLID_ANGLE_UNIT ( ) );
#71 = DIRECTION ( 'NONE',  ( 1.000000000000000000, 0.000000000000000000, 0.000000000000000000 ) ) ;
#72 = APPROVAL_ROLE ( '' ) ;
#73 = APPROVAL_PERSON_ORGANIZATION ( #6, #146, #72 ) ;
#74 = DIRECTION ( 'NONE',  ( 1.000000000000000000, 0.000000000000000000, 0.000000000000000000 ) ) ;
#75 = APPROVAL_ROLE ( '' ) ;
#76 = EDGE_LOOP ( 'NONE', ( #225, #218 ) ) ;
#77 = ORIENTED_EDGE ( 'NONE', *, *, #137, .F. ) ;
#78 = CALENDAR_DATE ( 2022, 20, 6 ) ;
#79 = ORIENTED_EDGE ( 'NONE', *, *, #37, .T. ) ;
#80 = CARTESIAN_POINT ( 'NONE',  ( 0.000000000000000000, 0.000000000000000000, 7.000000000000000000 ) ) ;
#81 = DIRECTION ( 'NONE',  ( 0.000000000000000000, 0.000000000000000000, 1.000000000000000000 ) ) ;
#82 = CARTESIAN_POINT ( 'NONE',  ( 0.000000000000000000, 0.000000000000000000, 7.000000000000000000 ) ) ;
#83 = CC_DESIGN_PERSON_AND_ORGANIZATION_ASSIGNMENT ( #249, #149, ( #228 ) ) ;
#84 = DIRECTION ( 'NONE',  ( 0.000000000000000000, 0.000000000000000000, 1.000000000000000000 ) ) ;
#85 = DIRECTION ( 'NONE',  ( 1.224646799147353207E-16, 1.000000000000000000, -0.000000000000000000 ) ) ;
#86 = DIRECTION ( 'NONE',  ( 0.000000000000000000, 0.000000000000000000, 1.000000000000000000 ) ) ;
#87 = DIRECTION ( 'NONE',  ( 0.000000000000000000, 0.000000000000000000, 1.000000000000000000 ) ) ;
#88 = DIRECTION ( 'NONE',  ( 1.000000000000000000, 0.000000000000000000, 0.000000000000000000 ) ) ;
#89 = APPROVAL ( #251, 'NEURÈENÝ' ) ;
#90 = PRODUCT_DEFINITION_SHAPE ( 'NONE', 'NONE',  #228 ) ;
#91 = DIRECTION ( 'NONE',  ( 1.000000000000000000, 0.000000000000000000, 0.000000000000000000 ) ) ;
#92 = TOROIDAL_SURFACE ( 'NONE', #24, 6.450000000000000178, 0.2000000000000000111 ) ;
#93 = MECHANICAL_CONTEXT ( 'NONE', #246, 'mechanical' ) ;
#94 = DIRECTION ( 'NONE',  ( 1.000000000000000000, 0.000000000000000000, 0.000000000000000000 ) ) ;
#95 = AXIS2_PLACEMENT_3D ( 'NONE', #156, #64, #226 ) ;
#96 = LOCAL_TIME ( 11, 29, 14.00000000000000000, #166 ) ;
#97 = EDGE_LOOP ( 'NONE', ( #243, #201 ) ) ;
#98 = ORIENTED_EDGE ( 'NONE', *, *, #5, .T. ) ;
#99 = ORIENTED_EDGE ( 'NONE', *, *, #258, .F. ) ;
#100 = PERSON_AND_ORGANIZATION ( #28, #299 ) ;
#101 = APPROVAL_PERSON_ORGANIZATION ( #100, #89, #75 ) ;
#102 = EDGE_LOOP ( 'NONE', ( #168, #175, #144, #187 ) ) ;
#103 = CARTESIAN_POINT ( 'NONE',  ( 0.000000000000000000, 0.000000000000000000, 0.000000000000000000 ) ) ;
#104 = ADVANCED_FACE ( 'NONE', ( #109, #206 ), #110, .T. ) ;
#105 = DIRECTION ( 'NONE',  ( 0.000000000000000000, 0.000000000000000000, 1.000000000000000000 ) ) ;
#106 = DIRECTION ( 'NONE',  ( -0.000000000000000000, -0.000000000000000000, -1.000000000000000000 ) ) ;
#107 = DIRECTION ( 'NONE',  ( -0.000000000000000000, -0.000000000000000000, -1.000000000000000000 ) ) ;
#108 = ADVANCED_FACE ( 'NONE', ( #128 ), #42, .T. ) ;
#109 = FACE_BOUND ( 'NONE', #97, .T. ) ;
#110 = PLANE ( 'NONE',  #186 ) ;
#111 = AXIS2_PLACEMENT_3D ( 'NONE', #3, #87, #94 ) ;
#112 = FACE_OUTER_BOUND ( 'NONE', #214, .T. ) ;
#113 = AXIS2_PLACEMENT_3D ( 'NONE', #103, #250, #74 ) ;
#114 = DIRECTION ( 'NONE',  ( -0.000000000000000000, -0.000000000000000000, -1.000000000000000000 ) ) ;
#115 = AXIS2_PLACEMENT_3D ( 'NONE', #238, #114, #88 ) ;
#116 = EDGE_CURVE ( 'NONE', #2, #36, #55, .T. ) ;
#117 = AXIS2_PLACEMENT_3D ( 'NONE', #131, #86, #306 ) ;
#118 = VERTEX_POINT ( 'NONE', #177 ) ;
#119 = AXIS2_PLACEMENT_3D ( 'NONE', #264, #49, #138 ) ;
#120 = COORDINATED_UNIVERSAL_TIME_OFFSET ( 1, 0, .AHEAD. ) ;
#121 = ORIENTED_EDGE ( 'NONE', *, *, #285, .F. ) ;
#122 = EDGE_LOOP ( 'NONE', ( #173, #298 ) ) ;
#123 = PERSON_AND_ORGANIZATION ( #28, #299 ) ;
#124 = ORIENTED_EDGE ( 'NONE', *, *, #54, .F. ) ;
#125 = CIRCLE ( 'NONE', #178, 6.250000000000000000 ) ;
#126 = ORIENTED_EDGE ( 'NONE', *, *, #195, .T. ) ;
#127 = EDGE_CURVE ( 'NONE', #58, #2, #43, .T. ) ;
#128 = FACE_OUTER_BOUND ( 'NONE', #196, .T. ) ;
#129 = CARTESIAN_POINT ( 'NONE',  ( 9.000000000000000000, 1.102182119232617714E-15, 7.000000000000000000 ) ) ;
#130 = EDGE_CURVE ( 'NONE', #58, #271, #222, .T. ) ;
#131 = CARTESIAN_POINT ( 'NONE',  ( 0.000000000000000000, 0.000000000000000000, 0.000000000000000000 ) ) ;
#132 = LOCAL_TIME ( 11, 29, 14.00000000000000000, #152 ) ;
#133 = CARTESIAN_POINT ( 'NONE',  ( 6.250000000000000000, 7.654042494670957606E-16, 107.0000000000000142 ) ) ;
#134 = FACE_OUTER_BOUND ( 'NONE', #122, .T. ) ;
#135 = FACE_OUTER_BOUND ( 'NONE', #252, .T. ) ;
#136 = APPROVAL_PERSON_ORGANIZATION ( #123, #199, #223 ) ;
#137 = EDGE_CURVE ( 'NONE', #36, #14, #7, .T. ) ;
#138 = DIRECTION ( 'NONE',  ( 0.000000000000000000, 0.000000000000000000, -1.000000000000000000 ) ) ;
#139 = CARTESIAN_POINT ( 'NONE',  ( 6.250000000000000000, 7.654042494670957606E-16, 107.0000000000000142 ) ) ;
#140 = PRODUCT_RELATED_PRODUCT_CATEGORY ( 'detail', '', ( #231 ) ) ;
#141 = AXIS2_PLACEMENT_3D ( 'NONE', #160, #235, #1 ) ;
#142 = APPROVAL_DATE_TIME ( #51, #146 ) ;
#143 = PERSON_AND_ORGANIZATION ( #28, #299 ) ;
#144 = ORIENTED_EDGE ( 'NONE', *, *, #127, .T. ) ;
#145 = CIRCLE ( 'NONE', #113, 9.000000000000000000 ) ;
#146 = APPROVAL ( #288, 'NEURÈENÝ' ) ;
#147 = ORIENTED_EDGE ( 'NONE', *, *, #233, .F. ) ;
#148 = CIRCLE ( 'NONE', #210, 9.000000000000000000 ) ;
#149 = PERSON_AND_ORGANIZATION_ROLE ( 'creator' ) ;
#150 = ADVANCED_BREP_SHAPE_REPRESENTATION ( 'a941', ( #11, #27 ), #215 ) ;
#151 = ORIENTED_EDGE ( 'NONE', *, *, #255, .T. ) ;
#152 = COORDINATED_UNIVERSAL_TIME_OFFSET ( 1, 0, .AHEAD. ) ;
#153 = DIRECTION ( 'NONE',  ( -1.000000000000000000, 0.000000000000000000, 0.000000000000000000 ) ) ;
#154 = ADVANCED_FACE ( 'NONE', ( #134 ), #257, .F. ) ;
#155 = CIRCLE ( 'NONE', #119, 0.1999999999999996503 ) ;
#156 = CARTESIAN_POINT ( 'NONE',  ( 0.000000000000000000, 0.000000000000000000, 107.0000000000000142 ) ) ;
#157 = DIRECTION ( 'NONE',  ( -1.000000000000000000, 0.000000000000000000, 0.000000000000000000 ) ) ;
#158 = CARTESIAN_POINT ( 'NONE',  ( -6.250000000000000000, 0.000000000000000000, 107.0000000000000142 ) ) ;
#159 = LINE ( 'NONE', #133, #63 ) ;
#160 = CARTESIAN_POINT ( 'NONE',  ( 0.000000000000000000, 0.000000000000000000, 0.000000000000000000 ) ) ;
#161 = DIRECTION ( 'NONE',  ( -1.000000000000000000, 0.000000000000000000, 0.000000000000000000 ) ) ;
#162 = ADVANCED_FACE ( 'NONE', ( #204 ), #65, .T. ) ;
#163 = APPLICATION_PROTOCOL_DEFINITION ( 'international standard', 'config_control_design', 1994, #246 ) ;
#164 = DIRECTION ( 'NONE',  ( 0.000000000000000000, 0.000000000000000000, 1.000000000000000000 ) ) ;
#165 = DIRECTION ( 'NONE',  ( 0.000000000000000000, 0.000000000000000000, 1.000000000000000000 ) ) ;
#166 = COORDINATED_UNIVERSAL_TIME_OFFSET ( 1, 0, .AHEAD. ) ;
#167 = CIRCLE ( 'NONE', #282, 9.000000000000000000 ) ;
#168 = ORIENTED_EDGE ( 'NONE', *, *, #195, .F. ) ;
#169 = UNCERTAINTY_MEASURE_WITH_UNIT (LENGTH_MEASURE( 1.000000000000000082E-05 ), #46, 'distance_accuracy_value', 'NONE');
#170 = APPROVAL_DATE_TIME ( #194, #199 ) ;
#171 = ORIENTED_EDGE ( 'NONE', *, *, #304, .F. ) ;
#172 = ORIENTED_EDGE ( 'NONE', *, *, #116, .T. ) ;
#173 = ORIENTED_EDGE ( 'NONE', *, *, #5, .F. ) ;
#174 = EDGE_CURVE ( 'NONE', #34, #32, #23, .T. ) ;
#175 = ORIENTED_EDGE ( 'NONE', *, *, #130, .F. ) ;
#176 = DESIGN_CONTEXT ( 'detailed design', #293, 'design' ) ;
#177 = CARTESIAN_POINT ( 'NONE',  ( -9.000000000000000000, 0.000000000000000000, 0.000000000000000000 ) ) ;
#178 = AXIS2_PLACEMENT_3D ( 'NONE', #26, #164, #71 ) ;
#179 = CARTESIAN_POINT ( 'NONE',  ( 0.000000000000000000, 0.000000000000000000, 107.0000000000000142 ) ) ;
#180 = ADVANCED_FACE ( 'NONE', ( #183 ), #207, .T. ) ;
#181 = CARTESIAN_POINT ( 'NONE',  ( 0.000000000000000000, 0.000000000000000000, 7.199999999999998401 ) ) ;
#182 = CARTESIAN_POINT ( 'NONE',  ( -9.000000000000000000, 0.000000000000000000, 7.000000000000000000 ) ) ;
#183 = FACE_OUTER_BOUND ( 'NONE', #102, .T. ) ;
#184 = AXIS2_PLACEMENT_3D ( 'NONE', #239, #25, #161 ) ;
#185 =( NAMED_UNIT ( * ) PLANE_ANGLE_UNIT ( ) SI_UNIT ( $, .RADIAN. ) );
#186 = AXIS2_PLACEMENT_3D ( 'NONE', #82, #81, #305 ) ;
#187 = ORIENTED_EDGE ( 'NONE', *, *, #213, .T. ) ;
#188 = CARTESIAN_POINT ( 'NONE',  ( 0.000000000000000000, 0.000000000000000000, 7.000000000000000000 ) ) ;
#189 = SECURITY_CLASSIFICATION ( '', '', #242 ) ;
#190 = ADVANCED_FACE ( 'NONE', ( #66 ), #247, .F. ) ;
#191 = DIRECTION ( 'NONE',  ( 0.000000000000000000, 0.000000000000000000, 1.000000000000000000 ) ) ;
#192 = DIRECTION ( 'NONE',  ( 1.000000000000000000, 0.000000000000000000, 0.000000000000000000 ) ) ;
#193 = AXIS2_PLACEMENT_3D ( 'NONE', #208, #45, #254 ) ;
#194 = DATE_AND_TIME ( #31, #4 ) ;
#195 = EDGE_CURVE ( 'NONE', #271, #29, #159, .T. ) ;
#196 = EDGE_LOOP ( 'NONE', ( #147, #126, #79, #16 ) ) ;
#197 = ORIENTED_EDGE ( 'NONE', *, *, #116, .F. ) ;
#198 = VERTEX_POINT ( 'NONE', #22 ) ;
#199 = APPROVAL ( #289, 'NEURÈENÝ' ) ;
#200 = COORDINATED_UNIVERSAL_TIME_OFFSET ( 1, 0, .AHEAD. ) ;
#201 = ORIENTED_EDGE ( 'NONE', *, *, #137, .T. ) ;
#202 = CARTESIAN_POINT ( 'NONE',  ( 6.450000000000000178, 0.000000000000000000, 6.999999999999999112 ) ) ;
#203 = EDGE_CURVE ( 'NONE', #32, #118, #57, .T. ) ;
#204 = FACE_OUTER_BOUND ( 'NONE', #76, .T. ) ;
#205 = CC_DESIGN_APPROVAL ( #146, ( #228 ) ) ;
#206 = FACE_OUTER_BOUND ( 'NONE', #13, .T. ) ;
#207 = CYLINDRICAL_SURFACE ( 'NONE', #307, 6.250000000000000000 ) ;
#208 = CARTESIAN_POINT ( 'NONE',  ( 0.000000000000000000, 0.000000000000000000, 7.000000000000000000 ) ) ;
#209 = CYLINDRICAL_SURFACE ( 'NONE', #184, 9.000000000000000000 ) ;
#210 = AXIS2_PLACEMENT_3D ( 'NONE', #262, #165, #212 ) ;
#211 = DIRECTION ( 'NONE',  ( 0.000000000000000000, 0.000000000000000000, 1.000000000000000000 ) ) ;
#212 = DIRECTION ( 'NONE',  ( 1.000000000000000000, 0.000000000000000000, 0.000000000000000000 ) ) ;
#213 = EDGE_CURVE ( 'NONE', #2, #29, #266, .T. ) ;
#214 = EDGE_LOOP ( 'NONE', ( #38, #295, #274, #124 ) ) ;
#215 =( GEOMETRIC_REPRESENTATION_CONTEXT ( 3 ) GLOBAL_UNCERTAINTY_ASSIGNED_CONTEXT ( ( #169 ) ) GLOBAL_UNIT_ASSIGNED_CONTEXT ( ( #46, #185, #70 ) ) REPRESENTATION_CONTEXT ( 'NONE', 'WORKASPACE' ) );
#216 = CARTESIAN_POINT ( 'NONE',  ( 0.000000000000000000, 0.000000000000000000, 0.000000000000000000 ) ) ;
#217 = CC_DESIGN_PERSON_AND_ORGANIZATION_ASSIGNMENT ( #15, #35, ( #189 ) ) ;
#218 = ORIENTED_EDGE ( 'NONE', *, *, #233, .T. ) ;
#219 = PERSON_AND_ORGANIZATION_ROLE ( 'design_supplier' ) ;
#220 = ORIENTED_EDGE ( 'NONE', *, *, #258, .T. ) ;
#221 = ORIENTED_EDGE ( 'NONE', *, *, #304, .T. ) ;
#222 = CIRCLE ( 'NONE', #263, 6.250000000000000000 ) ;
#223 = APPROVAL_ROLE ( '' ) ;
#224 = FACE_OUTER_BOUND ( 'NONE', #60, .T. ) ;
#225 = ORIENTED_EDGE ( 'NONE', *, *, #130, .T. ) ;
#226 = DIRECTION ( 'NONE',  ( -1.000000000000000000, 0.000000000000000000, 0.000000000000000000 ) ) ;
#227 = AXIS2_PLACEMENT_3D ( 'NONE', #80, #275, #153 ) ;
#228 = PRODUCT_DEFINITION ( 'NEZNÁMÝ', '', #277, #176 ) ;
#229 = CARTESIAN_POINT ( 'NONE',  ( 9.000000000000000000, 1.102182119232617714E-15, 0.000000000000000000 ) ) ;
#230 = DIRECTION ( 'NONE',  ( 1.000000000000000000, 0.000000000000000000, -0.000000000000000000 ) ) ;
#231 = PRODUCT ( 'a941', 'a941', '', ( #93 ) ) ;
#232 = DIRECTION ( 'NONE',  ( -0.000000000000000000, -0.000000000000000000, -1.000000000000000000 ) ) ;
#233 = EDGE_CURVE ( 'NONE', #271, #58, #125, .T. ) ;
#234 = VECTOR ( 'NONE', #106, 1000.000000000000000 ) ;
#235 = DIRECTION ( 'NONE',  ( 0.000000000000000000, 0.000000000000000000, 1.000000000000000000 ) ) ;
#236 = VECTOR ( 'NONE', #107, 1000.000000000000000 ) ;
#237 = PERSON_AND_ORGANIZATION_ROLE ( 'design_owner' ) ;
#238 = CARTESIAN_POINT ( 'NONE',  ( 0.000000000000000000, 0.000000000000000000, 7.000000000000000000 ) ) ;
#239 = CARTESIAN_POINT ( 'NONE',  ( 0.000000000000000000, 0.000000000000000000, 7.000000000000000000 ) ) ;
#240 = CARTESIAN_POINT ( 'NONE',  ( 0.000000000000000000, 0.000000000000000000, 7.199999999999998401 ) ) ;
#241 = ADVANCED_FACE ( 'NONE', ( #112 ), #209, .T. ) ;
#242 = SECURITY_CLASSIFICATION_LEVEL ( 'unclassified' ) ;
#243 = ORIENTED_EDGE ( 'NONE', *, *, #285, .T. ) ;
#244 = AXIS2_PLACEMENT_3D ( 'NONE', #179, #84, #230 ) ;
#245 = PERSON_AND_ORGANIZATION_ROLE ( 'creator' ) ;
#246 = APPLICATION_CONTEXT ( 'configuration controlled 3d designs of mechanical parts and assemblies' ) ;
#247 = TOROIDAL_SURFACE ( 'NONE', #290, 6.450000000000000178, 0.2000000000000000111 ) ;
#248 = ORIENTED_EDGE ( 'NONE', *, *, #213, .F. ) ;
#249 = PERSON_AND_ORGANIZATION ( #28, #299 ) ;
#250 = DIRECTION ( 'NONE',  ( 0.000000000000000000, 0.000000000000000000, 1.000000000000000000 ) ) ;
#251 = APPROVAL_STATUS ( 'not_yet_approved' ) ;
#252 = EDGE_LOOP ( 'NONE', ( #197, #10, #220, #77 ) ) ;
#253 = LOCAL_TIME ( 11, 29, 14.00000000000000000, #52 ) ;
#254 = DIRECTION ( 'NONE',  ( 1.000000000000000000, 0.000000000000000000, 0.000000000000000000 ) ) ;
#255 = EDGE_CURVE ( 'NONE', #34, #198, #148, .T. ) ;
#256 = DIRECTION ( 'NONE',  ( 0.000000000000000000, 0.000000000000000000, 1.000000000000000000 ) ) ;
#257 = PLANE ( 'NONE',  #117 ) ;
#258 = EDGE_CURVE ( 'NONE', #29, #14, #155, .T. ) ;
#259 = CARTESIAN_POINT ( 'NONE',  ( 0.000000000000000000, 0.000000000000000000, 7.199999999999998401 ) ) ;
#260 = ADVANCED_FACE ( 'NONE', ( #135 ), #92, .F. ) ;
#261 = PERSON_AND_ORGANIZATION ( #28, #299 ) ;
#262 = CARTESIAN_POINT ( 'NONE',  ( 0.000000000000000000, 0.000000000000000000, 7.000000000000000000 ) ) ;
#263 = AXIS2_PLACEMENT_3D ( 'NONE', #62, #105, #303 ) ;
#264 = CARTESIAN_POINT ( 'NONE',  ( 6.450000000000000178, 0.000000000000000000, 7.199999999999998401 ) ) ;
#265 = CALENDAR_DATE ( 2022, 20, 6 ) ;
#266 = CIRCLE ( 'NONE', #111, 6.250000000000000000 ) ;
#267 = EDGE_LOOP ( 'NONE', ( #248, #172, #121, #99 ) ) ;
#268 = AXIS2_PLACEMENT_3D ( 'NONE', #279, #85, #67 ) ;
#269 = CC_DESIGN_PERSON_AND_ORGANIZATION_ASSIGNMENT ( #261, #237, ( #231 ) ) ;
#270 = CALENDAR_DATE ( 2022, 20, 6 ) ;
#271 = VERTEX_POINT ( 'NONE', #139 ) ;
#272 = CC_DESIGN_APPROVAL ( #89, ( #277 ) ) ;
#273 = DATE_AND_TIME ( #78, #69 ) ;
#274 = ORIENTED_EDGE ( 'NONE', *, *, #203, .T. ) ;
#275 = DIRECTION ( 'NONE',  ( -0.000000000000000000, -0.000000000000000000, -1.000000000000000000 ) ) ;
#276 = DIRECTION ( 'NONE',  ( 1.000000000000000000, 0.000000000000000000, 0.000000000000000000 ) ) ;
#277 = PRODUCT_DEFINITION_FORMATION_WITH_SPECIFIED_SOURCE ( 'LIBOVOLNÝ', '', #231, .NOT_KNOWN. ) ;
#278 = LINE ( 'NONE', #182, #234 ) ;
#279 = CARTESIAN_POINT ( 'NONE',  ( -6.450000000000000178, 7.898971854500428692E-16, 7.199999999999998401 ) ) ;
#280 = CIRCLE ( 'NONE', #19, 6.250000000000000000 ) ;
#281 = CARTESIAN_POINT ( 'NONE',  ( 0.000000000000000000, 0.000000000000000000, 107.0000000000000142 ) ) ;
#282 = AXIS2_PLACEMENT_3D ( 'NONE', #188, #286, #48 ) ;
#283 = DIRECTION ( 'NONE',  ( -0.000000000000000000, -0.000000000000000000, -1.000000000000000000 ) ) ;
#284 = CLOSED_SHELL ( 'NONE', ( #190, #108, #241, #8, #104, #154, #180, #162, #260 ) ) ;
#285 = EDGE_CURVE ( 'NONE', #14, #36, #39, .T. ) ;
#286 = DIRECTION ( 'NONE',  ( 0.000000000000000000, 0.000000000000000000, 1.000000000000000000 ) ) ;
#287 = CC_DESIGN_DATE_AND_TIME_ASSIGNMENT ( #294, #56, ( #189 ) ) ;
#288 = APPROVAL_STATUS ( 'not_yet_approved' ) ;
#289 = APPROVAL_STATUS ( 'not_yet_approved' ) ;
#290 = AXIS2_PLACEMENT_3D ( 'NONE', #259, #256, #44 ) ;
#291 = DATE_TIME_ROLE ( 'creation_date' ) ;
#292 = ORIENTED_EDGE ( 'NONE', *, *, #174, .F. ) ;
#293 = APPLICATION_CONTEXT ( 'configuration controlled 3d designs of mechanical parts and assemblies' ) ;
#294 = DATE_AND_TIME ( #270, #132 ) ;
#295 = ORIENTED_EDGE ( 'NONE', *, *, #174, .T. ) ;
#296 = VECTOR ( 'NONE', #18, 1000.000000000000000 ) ;
#297 = PERSON_AND_ORGANIZATION ( #28, #299 ) ;
#298 = ORIENTED_EDGE ( 'NONE', *, *, #203, .F. ) ;
#299 = ORGANIZATION ( 'NEURÈENÝ', 'NEURÈENÝ', '' ) ;
#300 = CYLINDRICAL_SURFACE ( 'NONE', #227, 9.000000000000000000 ) ;
#301 = DIRECTION ( 'NONE',  ( 0.000000000000000000, 0.000000000000000000, 1.000000000000000000 ) ) ;
#302 = CARTESIAN_POINT ( 'NONE',  ( 6.250000000000000000, 7.654042494670957606E-16, 7.199999999999998401 ) ) ;
#303 = DIRECTION ( 'NONE',  ( 1.000000000000000000, 0.000000000000000000, 0.000000000000000000 ) ) ;
#304 = EDGE_CURVE ( 'NONE', #198, #34, #167, .T. ) ;
#305 = DIRECTION ( 'NONE',  ( 1.000000000000000000, 0.000000000000000000, -0.000000000000000000 ) ) ;
#306 = DIRECTION ( 'NONE',  ( 1.000000000000000000, 0.000000000000000000, -0.000000000000000000 ) ) ;
#307 = AXIS2_PLACEMENT_3D ( 'NONE', #281, #283, #157 ) ;
ENDSEC;
END-ISO-10303-21;
