ISO-10303-21;
HEADER;
FILE_DESCRIPTION (( 'STEP AP203' ),
    '1' );
FILE_NAME ('7b00.STEP',
    '2022-06-20T09:53:14',
    ( '' ),
    ( '' ),
    'SwSTEP 2.0',
    'SolidWorks 2019',
    '' );
FILE_SCHEMA (( 'CONFIG_CONTROL_DESIGN' ));
ENDSEC;

DATA;
#1 = EDGE_CURVE ( 'NONE', #50, #52, #134, .T. ) ;
#2 = EDGE_LOOP ( 'NONE', ( #84, #222 ) ) ;
#3 = CYLINDRICAL_SURFACE ( 'NONE', #217, 6.000000000000000888 ) ;
#4 = ORIENTED_EDGE ( 'NONE', *, *, #148, .T. ) ;
#5 = APPLICATION_CONTEXT ( 'configuration controlled 3d designs of mechanical parts and assemblies' ) ;
#6 = CARTESIAN_POINT ( 'NONE',  ( -6.000000000000000888, 0.000000000000000000, 0.000000000000000000 ) ) ;
#7 = ORIENTED_EDGE ( 'NONE', *, *, #163, .T. ) ;
#8 = CARTESIAN_POINT ( 'NONE',  ( 3.700000000000000178, 0.000000000000000000, 4.999999999999998224 ) ) ;
#9 = CIRCLE ( 'NONE', #95, 0.2000000000000000944 ) ;
#10 = ORIENTED_EDGE ( 'NONE', *, *, #251, .F. ) ;
#11 = CIRCLE ( 'NONE', #178, 3.500000000000000000 ) ;
#12 = DIRECTION ( 'NONE',  ( -1.000000000000000000, 0.000000000000000000, 0.000000000000000000 ) ) ;
#13 = ORIENTED_EDGE ( 'NONE', *, *, #202, .F. ) ;
#14 = CC_DESIGN_PERSON_AND_ORGANIZATION_ASSIGNMENT ( #15, #114, ( #123 ) ) ;
#15 = PERSON_AND_ORGANIZATION ( #101, #71 ) ;
#16 = CIRCLE ( 'NONE', #121, 6.000000000000000888 ) ;
#17 = DIRECTION ( 'NONE',  ( 0.000000000000000000, 0.000000000000000000, 1.000000000000000000 ) ) ;
#18 = PLANE ( 'NONE',  #36 ) ;
#19 = APPROVAL_DATE_TIME ( #276, #216 ) ;
#20 = DIRECTION ( 'NONE',  ( 1.000000000000000000, 0.000000000000000000, 0.000000000000000000 ) ) ;
#21 = DIRECTION ( 'NONE',  ( 0.000000000000000000, 0.000000000000000000, 1.000000000000000000 ) ) ;
#22 = DIRECTION ( 'NONE',  ( -0.000000000000000000, -0.000000000000000000, -1.000000000000000000 ) ) ;
#23 = PLANE ( 'NONE',  #91 ) ;
#24 = VERTEX_POINT ( 'NONE', #64 ) ;
#25 = LINE ( 'NONE', #127, #173 ) ;
#26 = CC_DESIGN_APPROVAL ( #216, ( #96 ) ) ;
#27 = ORIENTED_EDGE ( 'NONE', *, *, #82, .T. ) ;
#28 = AXIS2_PLACEMENT_3D ( 'NONE', #133, #161, #75 ) ;
#29 = CARTESIAN_POINT ( 'NONE',  ( 6.000000000000000888, 7.347880794884120722E-16, 5.000000000000000000 ) ) ;
#30 = ADVANCED_FACE ( 'NONE', ( #275 ), #18, .T. ) ;
#31 = ORIENTED_EDGE ( 'NONE', *, *, #149, .F. ) ;
#32 = ADVANCED_FACE ( 'NONE', ( #88, #166 ), #254, .T. ) ;
#33 = FACE_OUTER_BOUND ( 'NONE', #34, .T. ) ;
#34 = EDGE_LOOP ( 'NONE', ( #220, #55, #4, #224 ) ) ;
#35 = CARTESIAN_POINT ( 'NONE',  ( 0.000000000000000000, 0.000000000000000000, 130.0000000000000000 ) ) ;
#36 = AXIS2_PLACEMENT_3D ( 'NONE', #167, #63, #40 ) ;
#37 = VERTEX_POINT ( 'NONE', #249 ) ;
#38 = APPROVAL_PERSON_ORGANIZATION ( #233, #62, #42 ) ;
#39 = PERSON_AND_ORGANIZATION_ROLE ( 'design_owner' ) ;
#40 = DIRECTION ( 'NONE',  ( 1.000000000000000000, 0.000000000000000000, -0.000000000000000000 ) ) ;
#41 = APPROVAL_DATE_TIME ( #137, #62 ) ;
#42 = APPROVAL_ROLE ( '' ) ;
#43 = AXIS2_PLACEMENT_3D ( 'NONE', #35, #108, #247 ) ;
#44 = LOCAL_TIME ( 11, 53, 14.00000000000000000, #61 ) ;
#45 = EDGE_CURVE ( 'NONE', #281, #243, #115, .T. ) ;
#46 = CARTESIAN_POINT ( 'NONE',  ( 3.700000000000000178, 0.000000000000000000, 5.199999999999996625 ) ) ;
#47 = DIRECTION ( 'NONE',  ( 0.000000000000000000, 0.000000000000000000, -1.000000000000000000 ) ) ;
#48 = ADVANCED_FACE ( 'NONE', ( #257 ), #208, .F. ) ;
#49 = CARTESIAN_POINT ( 'NONE',  ( 3.500000000000000000, 4.286263797015736595E-16, 130.0000000000000000 ) ) ;
#50 = VERTEX_POINT ( 'NONE', #279 ) ;
#51 = CARTESIAN_POINT ( 'NONE',  ( 6.000000000000000888, 7.347880794884120722E-16, 0.000000000000000000 ) ) ;
#52 = VERTEX_POINT ( 'NONE', #169 ) ;
#53 = CIRCLE ( 'NONE', #270, 3.500000000000000000 ) ;
#54 = FACE_OUTER_BOUND ( 'NONE', #107, .T. ) ;
#55 = ORIENTED_EDGE ( 'NONE', *, *, #1, .F. ) ;
#56 = CARTESIAN_POINT ( 'NONE',  ( 0.000000000000000000, 0.000000000000000000, 5.000000000000000000 ) ) ;
#57 = AXIS2_PLACEMENT_3D ( 'NONE', #221, #267, #154 ) ;
#58 = DESIGN_CONTEXT ( 'detailed design', #5, 'design' ) ;
#59 = SHAPE_DEFINITION_REPRESENTATION ( #246, #112 ) ;
#60 = ORIENTED_EDGE ( 'NONE', *, *, #111, .T. ) ;
#61 = COORDINATED_UNIVERSAL_TIME_OFFSET ( 1, 0, .AHEAD. ) ;
#62 = APPROVAL ( #146, 'NEURÈENÝ' ) ;
#63 = DIRECTION ( 'NONE',  ( 0.000000000000000000, 0.000000000000000000, 1.000000000000000000 ) ) ;
#64 = CARTESIAN_POINT ( 'NONE',  ( -3.700000000000000178, 4.531193156845206201E-16, 4.999999999999998224 ) ) ;
#65 = APPROVAL_ROLE ( '' ) ;
#66 = CARTESIAN_POINT ( 'NONE',  ( -3.500000000000000000, 0.000000000000000000, 130.0000000000000000 ) ) ;
#67 = AXIS2_PLACEMENT_3D ( 'NONE', #97, #261, #122 ) ;
#68 = CIRCLE ( 'NONE', #253, 3.700000000000000178 ) ;
#69 = DIRECTION ( 'NONE',  ( 0.000000000000000000, 0.000000000000000000, 1.000000000000000000 ) ) ;
#70 = CYLINDRICAL_SURFACE ( 'NONE', #67, 3.500000000000000000 ) ;
#71 = ORGANIZATION ( 'NEURÈENÝ', 'NEURÈENÝ', '' ) ;
#72 = EDGE_LOOP ( 'NONE', ( #60, #160 ) ) ;
#73 = APPLICATION_PROTOCOL_DEFINITION ( 'international standard', 'config_control_design', 1994, #106 ) ;
#74 = ORIENTED_EDGE ( 'NONE', *, *, #180, .T. ) ;
#75 = DIRECTION ( 'NONE',  ( 1.000000000000000000, 0.000000000000000000, 0.000000000000000000 ) ) ;
#76 = ORIENTED_EDGE ( 'NONE', *, *, #213, .T. ) ;
#77 = DIRECTION ( 'NONE',  ( -0.000000000000000000, -0.000000000000000000, -1.000000000000000000 ) ) ;
#78 = CIRCLE ( 'NONE', #194, 0.1999999999999996503 ) ;
#79 = DIRECTION ( 'NONE',  ( 1.000000000000000000, 0.000000000000000000, 0.000000000000000000 ) ) ;
#80 = ORIENTED_EDGE ( 'NONE', *, *, #180, .F. ) ;
#81 = DIRECTION ( 'NONE',  ( 0.000000000000000000, 0.000000000000000000, 1.000000000000000000 ) ) ;
#82 = EDGE_CURVE ( 'NONE', #52, #24, #9, .T. ) ;
#83 = DATE_TIME_ROLE ( 'classification_date' ) ;
#84 = ORIENTED_EDGE ( 'NONE', *, *, #45, .F. ) ;
#85 = PERSON_AND_ORGANIZATION_ROLE ( 'classification_officer' ) ;
#86 = COORDINATED_UNIVERSAL_TIME_OFFSET ( 1, 0, .AHEAD. ) ;
#87 = ADVANCED_FACE ( 'NONE', ( #120 ), #70, .T. ) ;
#88 = FACE_BOUND ( 'NONE', #226, .T. ) ;
#89 = APPROVAL_ROLE ( '' ) ;
#90 = PRODUCT_RELATED_PRODUCT_CATEGORY ( 'detail', '', ( #301 ) ) ;
#91 = AXIS2_PLACEMENT_3D ( 'NONE', #258, #21, #242 ) ;
#92 = APPROVAL_PERSON_ORGANIZATION ( #211, #216, #65 ) ;
#93 = PERSON_AND_ORGANIZATION ( #101, #71 ) ;
#94 = CARTESIAN_POINT ( 'NONE',  ( -3.700000000000000178, 4.531193156845206201E-16, 5.199999999999996625 ) ) ;
#95 = AXIS2_PLACEMENT_3D ( 'NONE', #94, #284, #256 ) ;
#96 = PRODUCT_DEFINITION_FORMATION_WITH_SPECIFIED_SOURCE ( 'LIBOVOLNÝ', '', #301, .NOT_KNOWN. ) ;
#97 = CARTESIAN_POINT ( 'NONE',  ( 0.000000000000000000, 0.000000000000000000, 130.0000000000000000 ) ) ;
#98 = DIRECTION ( 'NONE',  ( 1.000000000000000000, 0.000000000000000000, 0.000000000000000000 ) ) ;
#99 = CC_DESIGN_PERSON_AND_ORGANIZATION_ASSIGNMENT ( #299, #165, ( #96 ) ) ;
#100 = AXIS2_PLACEMENT_3D ( 'NONE', #145, #189, #117 ) ;
#101 = PERSON ( 'NEURÈENÝ', 'NEURÈENÝ', 'NEURÈENÝ', ('NEURÈENÝ'), ('NEURÈENÝ'), ('NEURÈENÝ') ) ;
#102 = ORIENTED_EDGE ( 'NONE', *, *, #1, .T. ) ;
#103 = CC_DESIGN_PERSON_AND_ORGANIZATION_ASSIGNMENT ( #207, #303, ( #96 ) ) ;
#104 = CARTESIAN_POINT ( 'NONE',  ( 0.000000000000000000, 0.000000000000000000, 5.000000000000000000 ) ) ;
#105 = VERTEX_POINT ( 'NONE', #49 ) ;
#106 = APPLICATION_CONTEXT ( 'configuration controlled 3d designs of mechanical parts and assemblies' ) ;
#107 = EDGE_LOOP ( 'NONE', ( #13, #7, #102, #131 ) ) ;
#108 = DIRECTION ( 'NONE',  ( -0.000000000000000000, -0.000000000000000000, -1.000000000000000000 ) ) ;
#109 = CIRCLE ( 'NONE', #28, 6.000000000000000888 ) ;
#110 = EDGE_LOOP ( 'NONE', ( #240, #201, #300, #266 ) ) ;
#111 = EDGE_CURVE ( 'NONE', #176, #105, #191, .T. ) ;
#112 = ADVANCED_BREP_SHAPE_REPRESENTATION ( '7b00', ( #138, #57 ), #259 ) ;
#113 = SECURITY_CLASSIFICATION_LEVEL ( 'unclassified' ) ;
#114 = PERSON_AND_ORGANIZATION_ROLE ( 'creator' ) ;
#115 = CIRCLE ( 'NONE', #282, 6.000000000000000888 ) ;
#116 = AXIS2_PLACEMENT_3D ( 'NONE', #174, #265, #237 ) ;
#117 = DIRECTION ( 'NONE',  ( 1.000000000000000000, 0.000000000000000000, -0.000000000000000000 ) ) ;
#118 = CALENDAR_DATE ( 2022, 20, 6 ) ;
#119 = DIRECTION ( 'NONE',  ( 1.000000000000000000, 0.000000000000000000, 0.000000000000000000 ) ) ;
#120 = FACE_OUTER_BOUND ( 'NONE', #110, .T. ) ;
#121 = AXIS2_PLACEMENT_3D ( 'NONE', #126, #69, #98 ) ;
#122 = DIRECTION ( 'NONE',  ( -1.000000000000000000, 0.000000000000000000, 0.000000000000000000 ) ) ;
#123 = PRODUCT_DEFINITION ( 'NEZNÁMÝ', '', #96, #58 ) ;
#124 = CC_DESIGN_APPROVAL ( #62, ( #123 ) ) ;
#125 = DIRECTION ( 'NONE',  ( 0.000000000000000000, 0.000000000000000000, 1.000000000000000000 ) ) ;
#126 = CARTESIAN_POINT ( 'NONE',  ( 0.000000000000000000, 0.000000000000000000, 0.000000000000000000 ) ) ;
#127 = CARTESIAN_POINT ( 'NONE',  ( -3.500000000000000000, 0.000000000000000000, 130.0000000000000000 ) ) ;
#128 = ORIENTED_EDGE ( 'NONE', *, *, #213, .F. ) ;
#129 = FACE_OUTER_BOUND ( 'NONE', #197, .T. ) ;
#130 = LOCAL_TIME ( 11, 53, 14.00000000000000000, #212 ) ;
#131 = ORIENTED_EDGE ( 'NONE', *, *, #286, .F. ) ;
#132 = CARTESIAN_POINT ( 'NONE',  ( 0.000000000000000000, 0.000000000000000000, 5.000000000000000000 ) ) ;
#133 = CARTESIAN_POINT ( 'NONE',  ( 0.000000000000000000, 0.000000000000000000, 5.000000000000000000 ) ) ;
#134 = CIRCLE ( 'NONE', #214, 3.500000000000000000 ) ;
#135 = EDGE_CURVE ( 'NONE', #243, #281, #16, .T. ) ;
#136 = TOROIDAL_SURFACE ( 'NONE', #283, 3.700000000000000178, 0.2000000000000000111 ) ;
#137 = DATE_AND_TIME ( #118, #44 ) ;
#138 = MANIFOLD_SOLID_BREP ( 'Zaoblit1', #204 ) ;
#139 = DIRECTION ( 'NONE',  ( 0.000000000000000000, 0.000000000000000000, 1.000000000000000000 ) ) ;
#140 = COORDINATED_UNIVERSAL_TIME_OFFSET ( 1, 0, .AHEAD. ) ;
#141 = VECTOR ( 'NONE', #22, 1000.000000000000000 ) ;
#142 = DIRECTION ( 'NONE',  ( 0.000000000000000000, 0.000000000000000000, 1.000000000000000000 ) ) ;
#143 = APPROVAL ( #232, 'NEURÈENÝ' ) ;
#144 = CALENDAR_DATE ( 2022, 20, 6 ) ;
#145 = CARTESIAN_POINT ( 'NONE',  ( 0.000000000000000000, 0.000000000000000000, 5.000000000000000000 ) ) ;
#146 = APPROVAL_STATUS ( 'not_yet_approved' ) ;
#147 = CARTESIAN_POINT ( 'NONE',  ( 0.000000000000000000, 0.000000000000000000, 5.199999999999996625 ) ) ;
#148 = EDGE_CURVE ( 'NONE', #50, #292, #78, .T. ) ;
#149 = EDGE_CURVE ( 'NONE', #52, #50, #53, .T. ) ;
#150 = CARTESIAN_POINT ( 'NONE',  ( 3.500000000000000000, 4.286263797015736595E-16, 130.0000000000000000 ) ) ;
#151 = AXIS2_PLACEMENT_3D ( 'NONE', #229, #17, #210 ) ;
#152 = APPROVAL_PERSON_ORGANIZATION ( #304, #143, #89 ) ;
#153 = DIRECTION ( 'NONE',  ( 1.000000000000000000, 0.000000000000000000, 0.000000000000000000 ) ) ;
#154 = DIRECTION ( 'NONE',  ( 1.000000000000000000, 0.000000000000000000, 0.000000000000000000 ) ) ;
#155 = EDGE_LOOP ( 'NONE', ( #80, #183, #199, #245 ) ) ;
#156 = AXIS2_PLACEMENT_3D ( 'NONE', #104, #77, #79 ) ;
#157 = DIRECTION ( 'NONE',  ( 1.000000000000000000, 0.000000000000000000, 0.000000000000000000 ) ) ;
#158 = CYLINDRICAL_SURFACE ( 'NONE', #43, 3.500000000000000000 ) ;
#159 = VERTEX_POINT ( 'NONE', #235 ) ;
#160 = ORIENTED_EDGE ( 'NONE', *, *, #202, .T. ) ;
#161 = DIRECTION ( 'NONE',  ( 0.000000000000000000, 0.000000000000000000, 1.000000000000000000 ) ) ;
#162 = CIRCLE ( 'NONE', #156, 3.700000000000000178 ) ;
#163 = EDGE_CURVE ( 'NONE', #105, #50, #171, .T. ) ;
#164 = CARTESIAN_POINT ( 'NONE',  ( 0.000000000000000000, 0.000000000000000000, 0.000000000000000000 ) ) ;
#165 = PERSON_AND_ORGANIZATION_ROLE ( 'design_supplier' ) ;
#166 = FACE_OUTER_BOUND ( 'NONE', #238, .T. ) ;
#167 = CARTESIAN_POINT ( 'NONE',  ( 0.000000000000000000, 0.000000000000000000, 130.0000000000000000 ) ) ;
#168 = EDGE_CURVE ( 'NONE', #37, #281, #196, .T. ) ;
#169 = CARTESIAN_POINT ( 'NONE',  ( -3.500000000000000000, 0.000000000000000000, 5.199999999999996625 ) ) ;
#170 = VECTOR ( 'NONE', #236, 1000.000000000000000 ) ;
#171 = LINE ( 'NONE', #150, #170 ) ;
#172 = CARTESIAN_POINT ( 'NONE',  ( -6.000000000000000888, 0.000000000000000000, 5.000000000000000000 ) ) ;
#173 = VECTOR ( 'NONE', #225, 1000.000000000000000 ) ;
#174 = CARTESIAN_POINT ( 'NONE',  ( 0.000000000000000000, 0.000000000000000000, 5.000000000000000000 ) ) ;
#175 = ORIENTED_EDGE ( 'NONE', *, *, #231, .T. ) ;
#176 = VERTEX_POINT ( 'NONE', #66 ) ;
#177 =( NAMED_UNIT ( * ) PLANE_ANGLE_UNIT ( ) SI_UNIT ( $, .RADIAN. ) );
#178 = AXIS2_PLACEMENT_3D ( 'NONE', #298, #81, #184 ) ;
#179 = LINE ( 'NONE', #29, #192 ) ;
#180 = EDGE_CURVE ( 'NONE', #159, #37, #263, .T. ) ;
#181 = ADVANCED_FACE ( 'NONE', ( #262 ), #23, .F. ) ;
#182 = CARTESIAN_POINT ( 'NONE',  ( 0.000000000000000000, 0.000000000000000000, 5.199999999999996625 ) ) ;
#183 = ORIENTED_EDGE ( 'NONE', *, *, #251, .T. ) ;
#184 = DIRECTION ( 'NONE',  ( 1.000000000000000000, 0.000000000000000000, 0.000000000000000000 ) ) ;
#185 = ORIENTED_EDGE ( 'NONE', *, *, #307, .F. ) ;
#186 = APPROVAL_DATE_TIME ( #280, #143 ) ;
#187 = LOCAL_TIME ( 11, 53, 14.00000000000000000, #86 ) ;
#188 = APPLICATION_PROTOCOL_DEFINITION ( 'international standard', 'config_control_design', 1994, #5 ) ;
#189 = DIRECTION ( 'NONE',  ( 0.000000000000000000, 0.000000000000000000, 1.000000000000000000 ) ) ;
#190 = CALENDAR_DATE ( 2022, 20, 6 ) ;
#191 = CIRCLE ( 'NONE', #287, 3.500000000000000000 ) ;
#192 = VECTOR ( 'NONE', #294, 1000.000000000000000 ) ;
#193 = DIRECTION ( 'NONE',  ( 1.000000000000000000, 0.000000000000000000, 0.000000000000000000 ) ) ;
#194 = AXIS2_PLACEMENT_3D ( 'NONE', #46, #260, #47 ) ;
#195 = CARTESIAN_POINT ( 'NONE',  ( 0.000000000000000000, 0.000000000000000000, 130.0000000000000000 ) ) ;
#196 = LINE ( 'NONE', #172, #141 ) ;
#197 = EDGE_LOOP ( 'NONE', ( #10, #185, #227, #269 ) ) ;
#198 = DIRECTION ( 'NONE',  ( -0.000000000000000000, -0.000000000000000000, -1.000000000000000000 ) ) ;
#199 = ORIENTED_EDGE ( 'NONE', *, *, #135, .T. ) ;
#200 = DIRECTION ( 'NONE',  ( 1.000000000000000000, 0.000000000000000000, 0.000000000000000000 ) ) ;
#201 = ORIENTED_EDGE ( 'NONE', *, *, #111, .F. ) ;
#202 = EDGE_CURVE ( 'NONE', #105, #176, #11, .T. ) ;
#203 = ADVANCED_FACE ( 'NONE', ( #129 ), #3, .T. ) ;
#204 = CLOSED_SHELL ( 'NONE', ( #48, #218, #278, #203, #32, #181, #87, #30, #248 ) ) ;
#205 = DIRECTION ( 'NONE',  ( 0.000000000000000000, 0.000000000000000000, 1.000000000000000000 ) ) ;
#206 = EDGE_LOOP ( 'NONE', ( #31, #27, #128, #291 ) ) ;
#207 = PERSON_AND_ORGANIZATION ( #101, #71 ) ;
#208 = TOROIDAL_SURFACE ( 'NONE', #151, 3.700000000000000178, 0.2000000000000000111 ) ;
#209 = DATE_AND_TIME ( #252, #130 ) ;
#210 = DIRECTION ( 'NONE',  ( 1.000000000000000000, 0.000000000000000000, 0.000000000000000000 ) ) ;
#211 = PERSON_AND_ORGANIZATION ( #101, #71 ) ;
#212 = COORDINATED_UNIVERSAL_TIME_OFFSET ( 1, 0, .AHEAD. ) ;
#213 = EDGE_CURVE ( 'NONE', #292, #24, #162, .T. ) ;
#214 = AXIS2_PLACEMENT_3D ( 'NONE', #147, #142, #119 ) ;
#215 = LOCAL_TIME ( 11, 53, 14.00000000000000000, #140 ) ;
#216 = APPROVAL ( #305, 'NEURÈENÝ' ) ;
#217 = AXIS2_PLACEMENT_3D ( 'NONE', #272, #244, #219 ) ;
#218 = ADVANCED_FACE ( 'NONE', ( #54 ), #158, .T. ) ;
#219 = DIRECTION ( 'NONE',  ( -1.000000000000000000, 0.000000000000000000, 0.000000000000000000 ) ) ;
#220 = ORIENTED_EDGE ( 'NONE', *, *, #82, .F. ) ;
#221 = CARTESIAN_POINT ( 'NONE',  ( 0.000000000000000000, 0.000000000000000000, 0.000000000000000000 ) ) ;
#222 = ORIENTED_EDGE ( 'NONE', *, *, #135, .F. ) ;
#223 = FACE_OUTER_BOUND ( 'NONE', #155, .T. ) ;
#224 = ORIENTED_EDGE ( 'NONE', *, *, #231, .F. ) ;
#225 = DIRECTION ( 'NONE',  ( -0.000000000000000000, -0.000000000000000000, -1.000000000000000000 ) ) ;
#226 = EDGE_LOOP ( 'NONE', ( #76, #175 ) ) ;
#227 = ORIENTED_EDGE ( 'NONE', *, *, #168, .T. ) ;
#228 = DATE_TIME_ROLE ( 'creation_date' ) ;
#229 = CARTESIAN_POINT ( 'NONE',  ( 0.000000000000000000, 0.000000000000000000, 5.199999999999996625 ) ) ;
#230 = CC_DESIGN_APPROVAL ( #143, ( #302 ) ) ;
#231 = EDGE_CURVE ( 'NONE', #24, #292, #68, .T. ) ;
#232 = APPROVAL_STATUS ( 'not_yet_approved' ) ;
#233 = PERSON_AND_ORGANIZATION ( #101, #71 ) ;
#234 = CC_DESIGN_PERSON_AND_ORGANIZATION_ASSIGNMENT ( #93, #85, ( #302 ) ) ;
#235 = CARTESIAN_POINT ( 'NONE',  ( 6.000000000000000888, 7.347880794884120722E-16, 5.000000000000000000 ) ) ;
#236 = DIRECTION ( 'NONE',  ( -0.000000000000000000, -0.000000000000000000, -1.000000000000000000 ) ) ;
#237 = DIRECTION ( 'NONE',  ( 1.000000000000000000, 0.000000000000000000, 0.000000000000000000 ) ) ;
#238 = EDGE_LOOP ( 'NONE', ( #273, #74 ) ) ;
#239 = MECHANICAL_CONTEXT ( 'NONE', #106, 'mechanical' ) ;
#240 = ORIENTED_EDGE ( 'NONE', *, *, #163, .F. ) ;
#241 =( LENGTH_UNIT ( ) NAMED_UNIT ( * ) SI_UNIT ( .MILLI., .METRE. ) );
#242 = DIRECTION ( 'NONE',  ( 1.000000000000000000, 0.000000000000000000, -0.000000000000000000 ) ) ;
#243 = VERTEX_POINT ( 'NONE', #51 ) ;
#244 = DIRECTION ( 'NONE',  ( -0.000000000000000000, -0.000000000000000000, -1.000000000000000000 ) ) ;
#245 = ORIENTED_EDGE ( 'NONE', *, *, #168, .F. ) ;
#246 = PRODUCT_DEFINITION_SHAPE ( 'NONE', 'NONE',  #123 ) ;
#247 = DIRECTION ( 'NONE',  ( -1.000000000000000000, 0.000000000000000000, 0.000000000000000000 ) ) ;
#248 = ADVANCED_FACE ( 'NONE', ( #33 ), #136, .F. ) ;
#249 = CARTESIAN_POINT ( 'NONE',  ( -6.000000000000000888, 0.000000000000000000, 5.000000000000000000 ) ) ;
#250 = PERSON_AND_ORGANIZATION ( #101, #71 ) ;
#251 = EDGE_CURVE ( 'NONE', #159, #243, #179, .T. ) ;
#252 = CALENDAR_DATE ( 2022, 20, 6 ) ;
#253 = AXIS2_PLACEMENT_3D ( 'NONE', #56, #198, #200 ) ;
#254 = PLANE ( 'NONE',  #100 ) ;
#255 = DATE_AND_TIME ( #285, #215 ) ;
#256 = DIRECTION ( 'NONE',  ( -1.000000000000000000, 1.224646799147350742E-16, 0.000000000000000000 ) ) ;
#257 = FACE_OUTER_BOUND ( 'NONE', #206, .T. ) ;
#258 = CARTESIAN_POINT ( 'NONE',  ( 0.000000000000000000, 0.000000000000000000, 0.000000000000000000 ) ) ;
#259 =( GEOMETRIC_REPRESENTATION_CONTEXT ( 3 ) GLOBAL_UNCERTAINTY_ASSIGNED_CONTEXT ( ( #297 ) ) GLOBAL_UNIT_ASSIGNED_CONTEXT ( ( #241, #177, #295 ) ) REPRESENTATION_CONTEXT ( 'NONE', 'WORKASPACE' ) );
#260 = DIRECTION ( 'NONE',  ( 0.000000000000000000, -1.000000000000000000, 0.000000000000000000 ) ) ;
#261 = DIRECTION ( 'NONE',  ( -0.000000000000000000, -0.000000000000000000, -1.000000000000000000 ) ) ;
#262 = FACE_OUTER_BOUND ( 'NONE', #2, .T. ) ;
#263 = CIRCLE ( 'NONE', #116, 6.000000000000000888 ) ;
#264 = CC_DESIGN_SECURITY_CLASSIFICATION ( #302, ( #96 ) ) ;
#265 = DIRECTION ( 'NONE',  ( 0.000000000000000000, 0.000000000000000000, 1.000000000000000000 ) ) ;
#266 = ORIENTED_EDGE ( 'NONE', *, *, #149, .T. ) ;
#267 = DIRECTION ( 'NONE',  ( 0.000000000000000000, 0.000000000000000000, 1.000000000000000000 ) ) ;
#268 = CC_DESIGN_DATE_AND_TIME_ASSIGNMENT ( #209, #228, ( #123 ) ) ;
#269 = ORIENTED_EDGE ( 'NONE', *, *, #45, .T. ) ;
#270 = AXIS2_PLACEMENT_3D ( 'NONE', #290, #125, #193 ) ;
#271 = DIRECTION ( 'NONE',  ( -0.000000000000000000, -0.000000000000000000, -1.000000000000000000 ) ) ;
#272 = CARTESIAN_POINT ( 'NONE',  ( 0.000000000000000000, 0.000000000000000000, 5.000000000000000000 ) ) ;
#273 = ORIENTED_EDGE ( 'NONE', *, *, #307, .T. ) ;
#274 = CYLINDRICAL_SURFACE ( 'NONE', #296, 6.000000000000000888 ) ;
#275 = FACE_OUTER_BOUND ( 'NONE', #72, .T. ) ;
#276 = DATE_AND_TIME ( #144, #187 ) ;
#277 = COORDINATED_UNIVERSAL_TIME_OFFSET ( 1, 0, .AHEAD. ) ;
#278 = ADVANCED_FACE ( 'NONE', ( #223 ), #274, .T. ) ;
#279 = CARTESIAN_POINT ( 'NONE',  ( 3.500000000000000000, 4.286263797015736595E-16, 5.199999999999996625 ) ) ;
#280 = DATE_AND_TIME ( #190, #306 ) ;
#281 = VERTEX_POINT ( 'NONE', #6 ) ;
#282 = AXIS2_PLACEMENT_3D ( 'NONE', #164, #139, #20 ) ;
#283 = AXIS2_PLACEMENT_3D ( 'NONE', #182, #205, #157 ) ;
#284 = DIRECTION ( 'NONE',  ( 1.224646799147353207E-16, 1.000000000000000000, -0.000000000000000000 ) ) ;
#285 = CALENDAR_DATE ( 2022, 20, 6 ) ;
#286 = EDGE_CURVE ( 'NONE', #176, #52, #25, .T. ) ;
#287 = AXIS2_PLACEMENT_3D ( 'NONE', #195, #288, #153 ) ;
#288 = DIRECTION ( 'NONE',  ( 0.000000000000000000, 0.000000000000000000, 1.000000000000000000 ) ) ;
#289 = CC_DESIGN_PERSON_AND_ORGANIZATION_ASSIGNMENT ( #250, #39, ( #301 ) ) ;
#290 = CARTESIAN_POINT ( 'NONE',  ( 0.000000000000000000, 0.000000000000000000, 5.199999999999996625 ) ) ;
#291 = ORIENTED_EDGE ( 'NONE', *, *, #148, .F. ) ;
#292 = VERTEX_POINT ( 'NONE', #8 ) ;
#293 = CC_DESIGN_DATE_AND_TIME_ASSIGNMENT ( #255, #83, ( #302 ) ) ;
#294 = DIRECTION ( 'NONE',  ( -0.000000000000000000, -0.000000000000000000, -1.000000000000000000 ) ) ;
#295 =( NAMED_UNIT ( * ) SI_UNIT ( $, .STERADIAN. ) SOLID_ANGLE_UNIT ( ) );
#296 = AXIS2_PLACEMENT_3D ( 'NONE', #132, #271, #12 ) ;
#297 = UNCERTAINTY_MEASURE_WITH_UNIT (LENGTH_MEASURE( 1.000000000000000082E-05 ), #241, 'distance_accuracy_value', 'NONE');
#298 = CARTESIAN_POINT ( 'NONE',  ( 0.000000000000000000, 0.000000000000000000, 130.0000000000000000 ) ) ;
#299 = PERSON_AND_ORGANIZATION ( #101, #71 ) ;
#300 = ORIENTED_EDGE ( 'NONE', *, *, #286, .T. ) ;
#301 = PRODUCT ( '7b00', '7b00', '', ( #239 ) ) ;
#302 = SECURITY_CLASSIFICATION ( '', '', #113 ) ;
#303 = PERSON_AND_ORGANIZATION_ROLE ( 'creator' ) ;
#304 = PERSON_AND_ORGANIZATION ( #101, #71 ) ;
#305 = APPROVAL_STATUS ( 'not_yet_approved' ) ;
#306 = LOCAL_TIME ( 11, 53, 14.00000000000000000, #277 ) ;
#307 = EDGE_CURVE ( 'NONE', #37, #159, #109, .T. ) ;
ENDSEC;
END-ISO-10303-21;
