ISO-10303-21;
HEADER;
FILE_DESCRIPTION (( 'STEP AP203' ),
    '1' );
FILE_NAME ('7a52.STEP',
    '2022-06-20T10:19:37',
    ( '' ),
    ( '' ),
    'SwSTEP 2.0',
    'SolidWorks 2019',
    '' );
FILE_SCHEMA (( 'CONFIG_CONTROL_DESIGN' ));
ENDSEC;

DATA;
#1 = CARTESIAN_POINT ( 'NONE',  ( 0.000000000000000000, 0.000000000000000000, 2.199999999999993516 ) ) ;
#2 = LOCAL_TIME ( 12, 19, 37.00000000000000000, #298 ) ;
#3 = EDGE_LOOP ( 'NONE', ( #189, #54 ) ) ;
#4 = ORIENTED_EDGE ( 'NONE', *, *, #272, .F. ) ;
#5 = CC_DESIGN_DATE_AND_TIME_ASSIGNMENT ( #61, #153, ( #128 ) ) ;
#6 = ORIENTED_EDGE ( 'NONE', *, *, #131, .T. ) ;
#7 = AXIS2_PLACEMENT_3D ( 'NONE', #12, #280, #198 ) ;
#8 = ORIENTED_EDGE ( 'NONE', *, *, #137, .F. ) ;
#9 = LOCAL_TIME ( 12, 19, 37.00000000000000000, #258 ) ;
#10 = VERTEX_POINT ( 'NONE', #117 ) ;
#11 = APPROVAL_STATUS ( 'not_yet_approved' ) ;
#12 = CARTESIAN_POINT ( 'NONE',  ( 0.000000000000000000, 0.000000000000000000, 0.000000000000000000 ) ) ;
#13 = DIRECTION ( 'NONE',  ( 1.000000000000000000, 0.000000000000000000, 0.000000000000000000 ) ) ;
#14 = PERSON_AND_ORGANIZATION_ROLE ( 'design_owner' ) ;
#15 = CARTESIAN_POINT ( 'NONE',  ( 0.000000000000000000, 0.000000000000000000, 2.000000000000000000 ) ) ;
#16 = EDGE_CURVE ( 'NONE', #145, #273, #209, .T. ) ;
#17 = CARTESIAN_POINT ( 'NONE',  ( -1.300000000000000266, 1.592040838891559342E-16, 2.199999999999993516 ) ) ;
#18 = SHAPE_DEFINITION_REPRESENTATION ( #269, #90 ) ;
#19 = DIRECTION ( 'NONE',  ( -0.000000000000000000, -0.000000000000000000, -1.000000000000000000 ) ) ;
#20 = EDGE_CURVE ( 'NONE', #218, #78, #265, .T. ) ;
#21 = FACE_OUTER_BOUND ( 'NONE', #222, .T. ) ;
#22 = CARTESIAN_POINT ( 'NONE',  ( 0.000000000000000000, 0.000000000000000000, 102.0000000000000142 ) ) ;
#23 = DIRECTION ( 'NONE',  ( 1.000000000000000000, 0.000000000000000000, -0.000000000000000000 ) ) ;
#24 = ORIENTED_EDGE ( 'NONE', *, *, #16, .F. ) ;
#25 = CARTESIAN_POINT ( 'NONE',  ( 2.000000000000000000, 2.449293598294706414E-16, 2.000000000000000000 ) ) ;
#26 = CIRCLE ( 'NONE', #184, 2.000000000000000000 ) ;
#27 = ORIENTED_EDGE ( 'NONE', *, *, #20, .T. ) ;
#28 = APPLICATION_CONTEXT ( 'configuration controlled 3d designs of mechanical parts and assemblies' ) ;
#29 =( NAMED_UNIT ( * ) SI_UNIT ( $, .STERADIAN. ) SOLID_ANGLE_UNIT ( ) );
#30 = DIRECTION ( 'NONE',  ( 1.000000000000000000, 0.000000000000000000, 0.000000000000000000 ) ) ;
#31 = AXIS2_PLACEMENT_3D ( 'NONE', #120, #212, #98 ) ;
#32 = EDGE_CURVE ( 'NONE', #165, #245, #162, .T. ) ;
#33 = CIRCLE ( 'NONE', #214, 0.2000000000000000944 ) ;
#34 = CARTESIAN_POINT ( 'NONE',  ( 1.100000000000000089, 1.347111479062088503E-16, 102.0000000000000142 ) ) ;
#35 = ORIENTED_EDGE ( 'NONE', *, *, #102, .F. ) ;
#36 = EDGE_CURVE ( 'NONE', #248, #273, #225, .T. ) ;
#37 = DATE_TIME_ROLE ( 'creation_date' ) ;
#38 = EDGE_LOOP ( 'NONE', ( #50, #4, #147, #122 ) ) ;
#39 = PLANE ( 'NONE',  #170 ) ;
#40 = PERSON_AND_ORGANIZATION_ROLE ( 'creator' ) ;
#41 = COORDINATED_UNIVERSAL_TIME_OFFSET ( 1, 0, .AHEAD. ) ;
#42 = CC_DESIGN_PERSON_AND_ORGANIZATION_ASSIGNMENT ( #195, #14, ( #215 ) ) ;
#43 = APPROVAL_ROLE ( '' ) ;
#44 = LINE ( 'NONE', #82, #302 ) ;
#45 = FACE_OUTER_BOUND ( 'NONE', #55, .T. ) ;
#46 = DIRECTION ( 'NONE',  ( 0.000000000000000000, 0.000000000000000000, 1.000000000000000000 ) ) ;
#47 = EDGE_LOOP ( 'NONE', ( #238, #275 ) ) ;
#48 = CIRCLE ( 'NONE', #94, 2.000000000000000000 ) ;
#49 = CC_DESIGN_DATE_AND_TIME_ASSIGNMENT ( #156, #37, ( #56 ) ) ;
#50 = ORIENTED_EDGE ( 'NONE', *, *, #20, .F. ) ;
#51 = CYLINDRICAL_SURFACE ( 'NONE', #211, 1.100000000000000089 ) ;
#52 = CIRCLE ( 'NONE', #84, 1.100000000000000089 ) ;
#53 = LOCAL_TIME ( 12, 19, 37.00000000000000000, #174 ) ;
#54 = ORIENTED_EDGE ( 'NONE', *, *, #112, .T. ) ;
#55 = EDGE_LOOP ( 'NONE', ( #246, #171, #105, #123 ) ) ;
#56 = PRODUCT_DEFINITION ( 'NEZNÁMÝ', '', #143, #253 ) ;
#57 = APPROVAL_STATUS ( 'not_yet_approved' ) ;
#58 = DIRECTION ( 'NONE',  ( 1.000000000000000000, 0.000000000000000000, 0.000000000000000000 ) ) ;
#59 = TOROIDAL_SURFACE ( 'NONE', #234, 1.300000000000000266, 0.2000000000000000111 ) ;
#60 = DIRECTION ( 'NONE',  ( -0.000000000000000000, -0.000000000000000000, -1.000000000000000000 ) ) ;
#61 = DATE_AND_TIME ( #230, #2 ) ;
#62 = CARTESIAN_POINT ( 'NONE',  ( 0.000000000000000000, 0.000000000000000000, 2.000000000000000000 ) ) ;
#63 = AXIS2_PLACEMENT_3D ( 'NONE', #257, #19, #150 ) ;
#64 = CALENDAR_DATE ( 2022, 20, 6 ) ;
#65 = CARTESIAN_POINT ( 'NONE',  ( -2.000000000000000000, 0.000000000000000000, 2.000000000000000000 ) ) ;
#66 = PERSON_AND_ORGANIZATION ( #276, #199 ) ;
#67 = DIRECTION ( 'NONE',  ( -0.000000000000000000, -0.000000000000000000, -1.000000000000000000 ) ) ;
#68 = PLANE ( 'NONE',  #256 ) ;
#69 = DIRECTION ( 'NONE',  ( -0.000000000000000000, -0.000000000000000000, -1.000000000000000000 ) ) ;
#70 = VERTEX_POINT ( 'NONE', #65 ) ;
#71 = EDGE_CURVE ( 'NONE', #145, #138, #76, .T. ) ;
#72 = DIRECTION ( 'NONE',  ( -0.000000000000000000, -0.000000000000000000, -1.000000000000000000 ) ) ;
#73 = CIRCLE ( 'NONE', #7, 2.000000000000000000 ) ;
#74 = DIRECTION ( 'NONE',  ( 1.000000000000000000, 0.000000000000000000, 0.000000000000000000 ) ) ;
#75 = AXIS2_PLACEMENT_3D ( 'NONE', #241, #69, #161 ) ;
#76 = CIRCLE ( 'NONE', #292, 1.100000000000000089 ) ;
#77 = CARTESIAN_POINT ( 'NONE',  ( 0.000000000000000000, 0.000000000000000000, 2.199999999999993516 ) ) ;
#78 = VERTEX_POINT ( 'NONE', #281 ) ;
#79 = APPLICATION_CONTEXT ( 'configuration controlled 3d designs of mechanical parts and assemblies' ) ;
#80 = AXIS2_PLACEMENT_3D ( 'NONE', #268, #242, #30 ) ;
#81 = ORIENTED_EDGE ( 'NONE', *, *, #112, .F. ) ;
#82 = CARTESIAN_POINT ( 'NONE',  ( -2.000000000000000000, 0.000000000000000000, 2.000000000000000000 ) ) ;
#83 = EDGE_CURVE ( 'NONE', #138, #248, #180, .T. ) ;
#84 = AXIS2_PLACEMENT_3D ( 'NONE', #1, #274, #217 ) ;
#85 = PERSON_AND_ORGANIZATION ( #276, #199 ) ;
#86 = DIRECTION ( 'NONE',  ( 1.000000000000000000, 0.000000000000000000, 0.000000000000000000 ) ) ;
#87 = CARTESIAN_POINT ( 'NONE',  ( 0.000000000000000000, 0.000000000000000000, 2.000000000000000000 ) ) ;
#88 = ADVANCED_FACE ( 'NONE', ( #201 ), #111, .T. ) ;
#89 = FACE_BOUND ( 'NONE', #47, .T. ) ;
#90 = ADVANCED_BREP_SHAPE_REPRESENTATION ( '7a52', ( #219, #80 ), #176 ) ;
#91 = CC_DESIGN_SECURITY_CLASSIFICATION ( #128, ( #143 ) ) ;
#92 = DIRECTION ( 'NONE',  ( 0.000000000000000000, 0.000000000000000000, 1.000000000000000000 ) ) ;
#93 = FACE_OUTER_BOUND ( 'NONE', #164, .T. ) ;
#94 = AXIS2_PLACEMENT_3D ( 'NONE', #303, #175, #13 ) ;
#95 = DIRECTION ( 'NONE',  ( 1.000000000000000000, 0.000000000000000000, 0.000000000000000000 ) ) ;
#96 = ORIENTED_EDGE ( 'NONE', *, *, #137, .T. ) ;
#97 = CARTESIAN_POINT ( 'NONE',  ( -1.100000000000000089, 0.000000000000000000, 2.199999999999993516 ) ) ;
#98 = DIRECTION ( 'NONE',  ( 1.000000000000000000, 0.000000000000000000, 0.000000000000000000 ) ) ;
#99 = AXIS2_PLACEMENT_3D ( 'NONE', #115, #46, #133 ) ;
#100 = CIRCLE ( 'NONE', #181, 2.000000000000000000 ) ;
#101 = ORIENTED_EDGE ( 'NONE', *, *, #71, .T. ) ;
#102 = EDGE_CURVE ( 'NONE', #138, #145, #191, .T. ) ;
#103 = ORIENTED_EDGE ( 'NONE', *, *, #167, .F. ) ;
#104 = APPROVAL_PERSON_ORGANIZATION ( #247, #116, #227 ) ;
#105 = ORIENTED_EDGE ( 'NONE', *, *, #296, .T. ) ;
#106 = DATE_AND_TIME ( #301, #53 ) ;
#107 = EDGE_CURVE ( 'NONE', #10, #78, #73, .T. ) ;
#108 = PERSON_AND_ORGANIZATION ( #276, #199 ) ;
#109 = DIRECTION ( 'NONE',  ( 1.000000000000000000, 0.000000000000000000, 0.000000000000000000 ) ) ;
#110 = PERSON_AND_ORGANIZATION ( #276, #199 ) ;
#111 = CYLINDRICAL_SURFACE ( 'NONE', #63, 2.000000000000000000 ) ;
#112 = EDGE_CURVE ( 'NONE', #218, #70, #100, .T. ) ;
#113 = DIRECTION ( 'NONE',  ( -0.000000000000000000, -0.000000000000000000, -1.000000000000000000 ) ) ;
#114 = DATE_AND_TIME ( #135, #9 ) ;
#115 = CARTESIAN_POINT ( 'NONE',  ( 0.000000000000000000, 0.000000000000000000, 2.199999999999993516 ) ) ;
#116 = APPROVAL ( #127, 'NEURÈENÝ' ) ;
#117 = CARTESIAN_POINT ( 'NONE',  ( -2.000000000000000000, 0.000000000000000000, 0.000000000000000000 ) ) ;
#118 = DIRECTION ( 'NONE',  ( -0.000000000000000000, -0.000000000000000000, -1.000000000000000000 ) ) ;
#119 =( NAMED_UNIT ( * ) PLANE_ANGLE_UNIT ( ) SI_UNIT ( $, .RADIAN. ) );
#120 = CARTESIAN_POINT ( 'NONE',  ( 0.000000000000000000, 0.000000000000000000, 2.000000000000000000 ) ) ;
#121 = EDGE_CURVE ( 'NONE', #78, #10, #48, .T. ) ;
#122 = ORIENTED_EDGE ( 'NONE', *, *, #107, .T. ) ;
#123 = ORIENTED_EDGE ( 'NONE', *, *, #83, .F. ) ;
#124 = DIRECTION ( 'NONE',  ( -1.000000000000000000, 0.000000000000000000, 0.000000000000000000 ) ) ;
#125 = APPROVAL_DATE_TIME ( #182, #305 ) ;
#126 = CARTESIAN_POINT ( 'NONE',  ( 0.000000000000000000, 0.000000000000000000, 102.0000000000000142 ) ) ;
#127 = APPROVAL_STATUS ( 'not_yet_approved' ) ;
#128 = SECURITY_CLASSIFICATION ( '', '', #282 ) ;
#129 = PERSON_AND_ORGANIZATION_ROLE ( 'creator' ) ;
#130 = DIRECTION ( 'NONE',  ( 0.000000000000000000, 0.000000000000000000, 1.000000000000000000 ) ) ;
#131 = EDGE_CURVE ( 'NONE', #273, #165, #205, .T. ) ;
#132 = CARTESIAN_POINT ( 'NONE',  ( 0.000000000000000000, 0.000000000000000000, 2.000000000000000000 ) ) ;
#133 = DIRECTION ( 'NONE',  ( 1.000000000000000000, 0.000000000000000000, 0.000000000000000000 ) ) ;
#134 = ORIENTED_EDGE ( 'NONE', *, *, #296, .F. ) ;
#135 = CALENDAR_DATE ( 2022, 20, 6 ) ;
#136 = CYLINDRICAL_SURFACE ( 'NONE', #75, 1.100000000000000089 ) ;
#137 = EDGE_CURVE ( 'NONE', #248, #245, #33, .T. ) ;
#138 = VERTEX_POINT ( 'NONE', #202 ) ;
#139 = CC_DESIGN_APPROVAL ( #305, ( #56 ) ) ;
#140 = CARTESIAN_POINT ( 'NONE',  ( 1.100000000000000089, 1.347111479062088503E-16, 2.199999999999993516 ) ) ;
#141 = VECTOR ( 'NONE', #72, 1000.000000000000000 ) ;
#142 = APPROVAL ( #11, 'NEURÈENÝ' ) ;
#143 = PRODUCT_DEFINITION_FORMATION_WITH_SPECIFIED_SOURCE ( 'LIBOVOLNÝ', '', #215, .NOT_KNOWN. ) ;
#144 = EDGE_LOOP ( 'NONE', ( #294, #289 ) ) ;
#145 = VERTEX_POINT ( 'NONE', #295 ) ;
#146 =( LENGTH_UNIT ( ) NAMED_UNIT ( * ) SI_UNIT ( .MILLI., .METRE. ) );
#147 = ORIENTED_EDGE ( 'NONE', *, *, #158, .T. ) ;
#148 = CC_DESIGN_PERSON_AND_ORGANIZATION_ASSIGNMENT ( #66, #177, ( #128 ) ) ;
#149 = CALENDAR_DATE ( 2022, 20, 6 ) ;
#150 = DIRECTION ( 'NONE',  ( -1.000000000000000000, 0.000000000000000000, 0.000000000000000000 ) ) ;
#151 = MECHANICAL_CONTEXT ( 'NONE', #28, 'mechanical' ) ;
#152 = DIRECTION ( 'NONE',  ( -1.000000000000000000, 1.224646799147353207E-16, 0.000000000000000000 ) ) ;
#153 = DATE_TIME_ROLE ( 'classification_date' ) ;
#154 = FACE_OUTER_BOUND ( 'NONE', #3, .T. ) ;
#155 = VECTOR ( 'NONE', #60, 1000.000000000000000 ) ;
#156 = DATE_AND_TIME ( #64, #243 ) ;
#157 = DIRECTION ( 'NONE',  ( 0.000000000000000000, 0.000000000000000000, 1.000000000000000000 ) ) ;
#158 = EDGE_CURVE ( 'NONE', #70, #10, #44, .T. ) ;
#159 = CIRCLE ( 'NONE', #286, 1.300000000000000266 ) ;
#160 = DIRECTION ( 'NONE',  ( 0.000000000000000000, -1.000000000000000000, 0.000000000000000000 ) ) ;
#161 = DIRECTION ( 'NONE',  ( -1.000000000000000000, 0.000000000000000000, 0.000000000000000000 ) ) ;
#162 = CIRCLE ( 'NONE', #31, 1.300000000000000266 ) ;
#163 = PRODUCT_RELATED_PRODUCT_CATEGORY ( 'detail', '', ( #215 ) ) ;
#164 = EDGE_LOOP ( 'NONE', ( #291, #96, #172, #260 ) ) ;
#165 = VERTEX_POINT ( 'NONE', #173 ) ;
#166 = DIRECTION ( 'NONE',  ( 0.000000000000000000, 0.000000000000000000, 1.000000000000000000 ) ) ;
#167 = EDGE_CURVE ( 'NONE', #245, #165, #159, .T. ) ;
#168 = ADVANCED_FACE ( 'NONE', ( #89, #154 ), #252, .T. ) ;
#169 = ORIENTED_EDGE ( 'NONE', *, *, #102, .T. ) ;
#170 = AXIS2_PLACEMENT_3D ( 'NONE', #187, #285, #23 ) ;
#171 = ORIENTED_EDGE ( 'NONE', *, *, #16, .T. ) ;
#172 = ORIENTED_EDGE ( 'NONE', *, *, #32, .F. ) ;
#173 = CARTESIAN_POINT ( 'NONE',  ( 1.300000000000000266, 0.000000000000000000, 1.999999999999996669 ) ) ;
#174 = COORDINATED_UNIVERSAL_TIME_OFFSET ( 1, 0, .AHEAD. ) ;
#175 = DIRECTION ( 'NONE',  ( 0.000000000000000000, 0.000000000000000000, 1.000000000000000000 ) ) ;
#176 =( GEOMETRIC_REPRESENTATION_CONTEXT ( 3 ) GLOBAL_UNCERTAINTY_ASSIGNED_CONTEXT ( ( #300 ) ) GLOBAL_UNIT_ASSIGNED_CONTEXT ( ( #146, #119, #29 ) ) REPRESENTATION_CONTEXT ( 'NONE', 'WORKASPACE' ) );
#177 = PERSON_AND_ORGANIZATION_ROLE ( 'classification_officer' ) ;
#178 = DIRECTION ( 'NONE',  ( 1.000000000000000000, 0.000000000000000000, 0.000000000000000000 ) ) ;
#179 = PERSON_AND_ORGANIZATION ( #276, #199 ) ;
#180 = LINE ( 'NONE', #231, #155 ) ;
#181 = AXIS2_PLACEMENT_3D ( 'NONE', #62, #130, #86 ) ;
#182 = DATE_AND_TIME ( #149, #240 ) ;
#183 = CARTESIAN_POINT ( 'NONE',  ( 0.000000000000000000, 0.000000000000000000, 2.000000000000000000 ) ) ;
#184 = AXIS2_PLACEMENT_3D ( 'NONE', #132, #92, #95 ) ;
#185 = FACE_OUTER_BOUND ( 'NONE', #270, .T. ) ;
#186 = APPROVAL_PERSON_ORGANIZATION ( #249, #142, #43 ) ;
#187 = CARTESIAN_POINT ( 'NONE',  ( 0.000000000000000000, 0.000000000000000000, 0.000000000000000000 ) ) ;
#188 = ORIENTED_EDGE ( 'NONE', *, *, #36, .T. ) ;
#189 = ORIENTED_EDGE ( 'NONE', *, *, #272, .T. ) ;
#190 = ADVANCED_FACE ( 'NONE', ( #228 ), #277, .T. ) ;
#191 = CIRCLE ( 'NONE', #237, 1.100000000000000089 ) ;
#192 = EDGE_LOOP ( 'NONE', ( #81, #27, #287, #284 ) ) ;
#193 = AXIS2_PLACEMENT_3D ( 'NONE', #15, #67, #124 ) ;
#194 = ORIENTED_EDGE ( 'NONE', *, *, #83, .T. ) ;
#195 = PERSON_AND_ORGANIZATION ( #276, #199 ) ;
#196 = CARTESIAN_POINT ( 'NONE',  ( 1.300000000000000266, 0.000000000000000000, 2.199999999999993516 ) ) ;
#197 = PERSON_AND_ORGANIZATION_ROLE ( 'design_supplier' ) ;
#198 = DIRECTION ( 'NONE',  ( 1.000000000000000000, 0.000000000000000000, 0.000000000000000000 ) ) ;
#199 = ORGANIZATION ( 'NEURÈENÝ', 'NEURÈENÝ', '' ) ;
#200 = CC_DESIGN_PERSON_AND_ORGANIZATION_ASSIGNMENT ( #108, #129, ( #143 ) ) ;
#201 = FACE_OUTER_BOUND ( 'NONE', #192, .T. ) ;
#202 = CARTESIAN_POINT ( 'NONE',  ( -1.100000000000000089, 0.000000000000000000, 102.0000000000000142 ) ) ;
#203 = CC_DESIGN_PERSON_AND_ORGANIZATION_ASSIGNMENT ( #179, #40, ( #56 ) ) ;
#204 = DIRECTION ( 'NONE',  ( -1.000000000000000000, 0.000000000000000000, 0.000000000000000000 ) ) ;
#205 = CIRCLE ( 'NONE', #262, 0.2000000000000000944 ) ;
#206 = FACE_OUTER_BOUND ( 'NONE', #264, .T. ) ;
#207 = AXIS2_PLACEMENT_3D ( 'NONE', #77, #216, #224 ) ;
#208 = CARTESIAN_POINT ( 'NONE',  ( -1.300000000000000266, 1.592040838891559342E-16, 1.999999999999996669 ) ) ;
#209 = LINE ( 'NONE', #34, #141 ) ;
#210 = ADVANCED_FACE ( 'NONE', ( #251 ), #39, .F. ) ;
#211 = AXIS2_PLACEMENT_3D ( 'NONE', #22, #113, #204 ) ;
#212 = DIRECTION ( 'NONE',  ( -0.000000000000000000, -0.000000000000000000, -1.000000000000000000 ) ) ;
#213 = CC_DESIGN_PERSON_AND_ORGANIZATION_ASSIGNMENT ( #85, #197, ( #143 ) ) ;
#214 = AXIS2_PLACEMENT_3D ( 'NONE', #17, #304, #152 ) ;
#215 = PRODUCT ( '7a52', '7a52', '', ( #151 ) ) ;
#216 = DIRECTION ( 'NONE',  ( 0.000000000000000000, 0.000000000000000000, 1.000000000000000000 ) ) ;
#217 = DIRECTION ( 'NONE',  ( 1.000000000000000000, 0.000000000000000000, 0.000000000000000000 ) ) ;
#218 = VERTEX_POINT ( 'NONE', #25 ) ;
#219 = MANIFOLD_SOLID_BREP ( 'Zaoblit1', #261 ) ;
#220 = COORDINATED_UNIVERSAL_TIME_OFFSET ( 1, 0, .AHEAD. ) ;
#221 = CC_DESIGN_APPROVAL ( #116, ( #128 ) ) ;
#222 = EDGE_LOOP ( 'NONE', ( #169, #101 ) ) ;
#223 = APPROVAL_ROLE ( '' ) ;
#224 = DIRECTION ( 'NONE',  ( 1.000000000000000000, 0.000000000000000000, 0.000000000000000000 ) ) ;
#225 = CIRCLE ( 'NONE', #207, 1.100000000000000089 ) ;
#226 = DIRECTION ( 'NONE',  ( 0.000000000000000000, 0.000000000000000000, 1.000000000000000000 ) ) ;
#227 = APPROVAL_ROLE ( '' ) ;
#228 = FACE_OUTER_BOUND ( 'NONE', #38, .T. ) ;
#229 = CC_DESIGN_APPROVAL ( #142, ( #143 ) ) ;
#230 = CALENDAR_DATE ( 2022, 20, 6 ) ;
#231 = CARTESIAN_POINT ( 'NONE',  ( -1.100000000000000089, 0.000000000000000000, 102.0000000000000142 ) ) ;
#232 = ADVANCED_FACE ( 'NONE', ( #93 ), #59, .F. ) ;
#233 = APPROVAL_DATE_TIME ( #114, #116 ) ;
#234 = AXIS2_PLACEMENT_3D ( 'NONE', #235, #288, #74 ) ;
#235 = CARTESIAN_POINT ( 'NONE',  ( 0.000000000000000000, 0.000000000000000000, 2.199999999999993516 ) ) ;
#236 = ADVANCED_FACE ( 'NONE', ( #206 ), #136, .T. ) ;
#237 = AXIS2_PLACEMENT_3D ( 'NONE', #259, #226, #58 ) ;
#238 = ORIENTED_EDGE ( 'NONE', *, *, #32, .T. ) ;
#239 = CARTESIAN_POINT ( 'NONE',  ( 2.000000000000000000, 2.449293598294706414E-16, 2.000000000000000000 ) ) ;
#240 = LOCAL_TIME ( 12, 19, 37.00000000000000000, #41 ) ;
#241 = CARTESIAN_POINT ( 'NONE',  ( 0.000000000000000000, 0.000000000000000000, 102.0000000000000142 ) ) ;
#242 = DIRECTION ( 'NONE',  ( 0.000000000000000000, 0.000000000000000000, 1.000000000000000000 ) ) ;
#243 = LOCAL_TIME ( 12, 19, 37.00000000000000000, #220 ) ;
#244 = APPLICATION_PROTOCOL_DEFINITION ( 'international standard', 'config_control_design', 1994, #28 ) ;
#245 = VERTEX_POINT ( 'NONE', #208 ) ;
#246 = ORIENTED_EDGE ( 'NONE', *, *, #71, .F. ) ;
#247 = PERSON_AND_ORGANIZATION ( #276, #199 ) ;
#248 = VERTEX_POINT ( 'NONE', #97 ) ;
#249 = PERSON_AND_ORGANIZATION ( #276, #199 ) ;
#250 = APPROVAL_PERSON_ORGANIZATION ( #110, #305, #223 ) ;
#251 = FACE_OUTER_BOUND ( 'NONE', #144, .T. ) ;
#252 = PLANE ( 'NONE',  #267 ) ;
#253 = DESIGN_CONTEXT ( 'detailed design', #79, 'design' ) ;
#254 = DIRECTION ( 'NONE',  ( 0.000000000000000000, 0.000000000000000000, 1.000000000000000000 ) ) ;
#255 = APPROVAL_DATE_TIME ( #106, #142 ) ;
#256 = AXIS2_PLACEMENT_3D ( 'NONE', #263, #166, #266 ) ;
#257 = CARTESIAN_POINT ( 'NONE',  ( 0.000000000000000000, 0.000000000000000000, 2.000000000000000000 ) ) ;
#258 = COORDINATED_UNIVERSAL_TIME_OFFSET ( 1, 0, .AHEAD. ) ;
#259 = CARTESIAN_POINT ( 'NONE',  ( 0.000000000000000000, 0.000000000000000000, 102.0000000000000142 ) ) ;
#260 = ORIENTED_EDGE ( 'NONE', *, *, #131, .F. ) ;
#261 = CLOSED_SHELL ( 'NONE', ( #232, #293, #88, #190, #168, #210, #236, #278, #290 ) ) ;
#262 = AXIS2_PLACEMENT_3D ( 'NONE', #196, #160, #299 ) ;
#263 = CARTESIAN_POINT ( 'NONE',  ( 0.000000000000000000, 0.000000000000000000, 102.0000000000000142 ) ) ;
#264 = EDGE_LOOP ( 'NONE', ( #24, #35, #194, #188 ) ) ;
#265 = LINE ( 'NONE', #239, #297 ) ;
#266 = DIRECTION ( 'NONE',  ( 1.000000000000000000, 0.000000000000000000, -0.000000000000000000 ) ) ;
#267 = AXIS2_PLACEMENT_3D ( 'NONE', #183, #254, #283 ) ;
#268 = CARTESIAN_POINT ( 'NONE',  ( 0.000000000000000000, 0.000000000000000000, 0.000000000000000000 ) ) ;
#269 = PRODUCT_DEFINITION_SHAPE ( 'NONE', 'NONE',  #56 ) ;
#270 = EDGE_LOOP ( 'NONE', ( #8, #134, #6, #103 ) ) ;
#271 = TOROIDAL_SURFACE ( 'NONE', #99, 1.300000000000000266, 0.2000000000000000111 ) ;
#272 = EDGE_CURVE ( 'NONE', #70, #218, #26, .T. ) ;
#273 = VERTEX_POINT ( 'NONE', #140 ) ;
#274 = DIRECTION ( 'NONE',  ( 0.000000000000000000, 0.000000000000000000, 1.000000000000000000 ) ) ;
#275 = ORIENTED_EDGE ( 'NONE', *, *, #167, .T. ) ;
#276 = PERSON ( 'NEURÈENÝ', 'NEURÈENÝ', 'NEURÈENÝ', ('NEURÈENÝ'), ('NEURÈENÝ'), ('NEURÈENÝ') ) ;
#277 = CYLINDRICAL_SURFACE ( 'NONE', #193, 2.000000000000000000 ) ;
#278 = ADVANCED_FACE ( 'NONE', ( #21 ), #68, .T. ) ;
#279 = DIRECTION ( 'NONE',  ( -0.000000000000000000, -0.000000000000000000, -1.000000000000000000 ) ) ;
#280 = DIRECTION ( 'NONE',  ( 0.000000000000000000, 0.000000000000000000, 1.000000000000000000 ) ) ;
#281 = CARTESIAN_POINT ( 'NONE',  ( 2.000000000000000000, 2.449293598294706414E-16, 0.000000000000000000 ) ) ;
#282 = SECURITY_CLASSIFICATION_LEVEL ( 'unclassified' ) ;
#283 = DIRECTION ( 'NONE',  ( 1.000000000000000000, 0.000000000000000000, -0.000000000000000000 ) ) ;
#284 = ORIENTED_EDGE ( 'NONE', *, *, #158, .F. ) ;
#285 = DIRECTION ( 'NONE',  ( 0.000000000000000000, 0.000000000000000000, 1.000000000000000000 ) ) ;
#286 = AXIS2_PLACEMENT_3D ( 'NONE', #87, #279, #178 ) ;
#287 = ORIENTED_EDGE ( 'NONE', *, *, #121, .T. ) ;
#288 = DIRECTION ( 'NONE',  ( 0.000000000000000000, 0.000000000000000000, 1.000000000000000000 ) ) ;
#289 = ORIENTED_EDGE ( 'NONE', *, *, #121, .F. ) ;
#290 = ADVANCED_FACE ( 'NONE', ( #185 ), #271, .F. ) ;
#291 = ORIENTED_EDGE ( 'NONE', *, *, #36, .F. ) ;
#292 = AXIS2_PLACEMENT_3D ( 'NONE', #126, #157, #109 ) ;
#293 = ADVANCED_FACE ( 'NONE', ( #45 ), #51, .T. ) ;
#294 = ORIENTED_EDGE ( 'NONE', *, *, #107, .F. ) ;
#295 = CARTESIAN_POINT ( 'NONE',  ( 1.100000000000000089, 1.347111479062088503E-16, 102.0000000000000142 ) ) ;
#296 = EDGE_CURVE ( 'NONE', #273, #248, #52, .T. ) ;
#297 = VECTOR ( 'NONE', #118, 1000.000000000000000 ) ;
#298 = COORDINATED_UNIVERSAL_TIME_OFFSET ( 1, 0, .AHEAD. ) ;
#299 = DIRECTION ( 'NONE',  ( 0.000000000000000000, 0.000000000000000000, -1.000000000000000000 ) ) ;
#300 = UNCERTAINTY_MEASURE_WITH_UNIT (LENGTH_MEASURE( 1.000000000000000082E-05 ), #146, 'distance_accuracy_value', 'NONE');
#301 = CALENDAR_DATE ( 2022, 20, 6 ) ;
#302 = VECTOR ( 'NONE', #307, 1000.000000000000000 ) ;
#303 = CARTESIAN_POINT ( 'NONE',  ( 0.000000000000000000, 0.000000000000000000, 0.000000000000000000 ) ) ;
#304 = DIRECTION ( 'NONE',  ( 1.224646799147353207E-16, 1.000000000000000000, -0.000000000000000000 ) ) ;
#305 = APPROVAL ( #57, 'NEURÈENÝ' ) ;
#306 = APPLICATION_PROTOCOL_DEFINITION ( 'international standard', 'config_control_design', 1994, #79 ) ;
#307 = DIRECTION ( 'NONE',  ( -0.000000000000000000, -0.000000000000000000, -1.000000000000000000 ) ) ;
ENDSEC;
END-ISO-10303-21;
