ISO-10303-21;
HEADER;
FILE_DESCRIPTION (( 'STEP AP203' ),
    '1' );
FILE_NAME ('7f15.STEP',
    '2022-06-20T10:26:22',
    ( '' ),
    ( '' ),
    'SwSTEP 2.0',
    'SolidWorks 2019',
    '' );
FILE_SCHEMA (( 'CONFIG_CONTROL_DESIGN' ));
ENDSEC;

DATA;
#1 = CALENDAR_DATE ( 2022, 20, 6 ) ;
#2 = EDGE_LOOP ( 'NONE', ( #194, #291 ) ) ;
#3 = CC_DESIGN_DATE_AND_TIME_ASSIGNMENT ( #27, #241, ( #53 ) ) ;
#4 = DIRECTION ( 'NONE',  ( 0.000000000000000000, 0.000000000000000000, 1.000000000000000000 ) ) ;
#5 = ORIENTED_EDGE ( 'NONE', *, *, #66, .F. ) ;
#6 = VECTOR ( 'NONE', #172, 1000.000000000000000 ) ;
#7 = APPROVAL_STATUS ( 'not_yet_approved' ) ;
#8 = ORIENTED_EDGE ( 'NONE', *, *, #59, .T. ) ;
#9 = ORIENTED_EDGE ( 'NONE', *, *, #184, .F. ) ;
#10 = CARTESIAN_POINT ( 'NONE',  ( 0.5000000000000000000, 6.123233995736766036E-17, 1.399999999999998579 ) ) ;
#11 = EDGE_CURVE ( 'NONE', #52, #83, #123, .T. ) ;
#12 = DIRECTION ( 'NONE',  ( 0.000000000000000000, 0.000000000000000000, -1.000000000000000000 ) ) ;
#13 = DIRECTION ( 'NONE',  ( -0.000000000000000000, -0.000000000000000000, -1.000000000000000000 ) ) ;
#14 = LOCAL_TIME ( 12, 26, 22.00000000000000000, #48 ) ;
#15 = CARTESIAN_POINT ( 'NONE',  ( -0.5000000000000000000, 0.000000000000000000, 101.2000000000000171 ) ) ;
#16 = ADVANCED_FACE ( 'NONE', ( #154 ), #28, .T. ) ;
#17 = CARTESIAN_POINT ( 'NONE',  ( 0.000000000000000000, 0.000000000000000000, 0.000000000000000000 ) ) ;
#18 = CARTESIAN_POINT ( 'NONE',  ( 0.000000000000000000, 0.000000000000000000, 101.2000000000000171 ) ) ;
#19 = PERSON_AND_ORGANIZATION_ROLE ( 'design_owner' ) ;
#20 = FACE_OUTER_BOUND ( 'NONE', #2, .T. ) ;
#21 = EDGE_CURVE ( 'NONE', #83, #130, #247, .T. ) ;
#22 = ORIENTED_EDGE ( 'NONE', *, *, #103, .F. ) ;
#23 = ORIENTED_EDGE ( 'NONE', *, *, #96, .F. ) ;
#24 = CC_DESIGN_APPROVAL ( #256, ( #53 ) ) ;
#25 = COORDINATED_UNIVERSAL_TIME_OFFSET ( 1, 0, .AHEAD. ) ;
#26 = APPROVAL ( #206, 'NEURÈENÝ' ) ;
#27 = DATE_AND_TIME ( #54, #94 ) ;
#28 = PLANE ( 'NONE',  #107 ) ;
#29 = DIRECTION ( 'NONE',  ( 1.000000000000000000, 0.000000000000000000, 0.000000000000000000 ) ) ;
#30 = DIRECTION ( 'NONE',  ( -1.000000000000000000, 1.224646799147352714E-16, 0.000000000000000000 ) ) ;
#31 = CALENDAR_DATE ( 2022, 20, 6 ) ;
#32 = ADVANCED_FACE ( 'NONE', ( #273 ), #106, .F. ) ;
#33 = EDGE_LOOP ( 'NONE', ( #144, #302 ) ) ;
#34 = AXIS2_PLACEMENT_3D ( 'NONE', #114, #199, #65 ) ;
#35 = DATE_AND_TIME ( #1, #134 ) ;
#36 = ORIENTED_EDGE ( 'NONE', *, *, #224, .F. ) ;
#37 = CYLINDRICAL_SURFACE ( 'NONE', #165, 0.5000000000000000000 ) ;
#38 = APPROVAL_PERSON_ORGANIZATION ( #188, #26, #142 ) ;
#39 = EDGE_CURVE ( 'NONE', #133, #197, #49, .T. ) ;
#40 = DIRECTION ( 'NONE',  ( -0.000000000000000000, -0.000000000000000000, -1.000000000000000000 ) ) ;
#41 = CARTESIAN_POINT ( 'NONE',  ( 0.000000000000000000, 0.000000000000000000, 101.2000000000000171 ) ) ;
#42 = CIRCLE ( 'NONE', #116, 0.2000000000000000944 ) ;
#43 = FACE_OUTER_BOUND ( 'NONE', #216, .T. ) ;
#44 = EDGE_CURVE ( 'NONE', #197, #195, #249, .T. ) ;
#45 = DIRECTION ( 'NONE',  ( -1.000000000000000000, 0.000000000000000000, 0.000000000000000000 ) ) ;
#46 = ORIENTED_EDGE ( 'NONE', *, *, #50, .T. ) ;
#47 = ADVANCED_FACE ( 'NONE', ( #151 ), #290, .T. ) ;
#48 = COORDINATED_UNIVERSAL_TIME_OFFSET ( 1, 0, .AHEAD. ) ;
#49 = CIRCLE ( 'NONE', #72, 0.5000000000000000000 ) ;
#50 = EDGE_CURVE ( 'NONE', #239, #133, #87, .T. ) ;
#51 = EDGE_LOOP ( 'NONE', ( #169, #8 ) ) ;
#52 = VERTEX_POINT ( 'NONE', #61 ) ;
#53 = SECURITY_CLASSIFICATION ( '', '', #168 ) ;
#54 = CALENDAR_DATE ( 2022, 20, 6 ) ;
#55 = CARTESIAN_POINT ( 'NONE',  ( 0.000000000000000000, 0.000000000000000000, 1.399999999999998579 ) ) ;
#56 = DIRECTION ( 'NONE',  ( 0.000000000000000000, 0.000000000000000000, 1.000000000000000000 ) ) ;
#57 = UNCERTAINTY_MEASURE_WITH_UNIT (LENGTH_MEASURE( 1.000000000000000082E-05 ), #285, 'distance_accuracy_value', 'NONE');
#58 = ORIENTED_EDGE ( 'NONE', *, *, #96, .T. ) ;
#59 = EDGE_CURVE ( 'NONE', #195, #260, #210, .T. ) ;
#60 = PRODUCT_DEFINITION_FORMATION_WITH_SPECIFIED_SOURCE ( 'LIBOVOLNÝ', '', #221, .NOT_KNOWN. ) ;
#61 = CARTESIAN_POINT ( 'NONE',  ( 1.250000000000000000, 1.530808498934191571E-16, 1.199999999999999956 ) ) ;
#62 = CARTESIAN_POINT ( 'NONE',  ( 0.5000000000000000000, 6.123233995736766036E-17, 101.2000000000000171 ) ) ;
#63 = DIRECTION ( 'NONE',  ( -0.000000000000000000, -0.000000000000000000, -1.000000000000000000 ) ) ;
#64 = DIRECTION ( 'NONE',  ( 1.000000000000000000, 0.000000000000000000, 0.000000000000000000 ) ) ;
#65 = DIRECTION ( 'NONE',  ( 1.000000000000000000, 0.000000000000000000, 0.000000000000000000 ) ) ;
#66 = EDGE_CURVE ( 'NONE', #83, #52, #153, .T. ) ;
#67 = CIRCLE ( 'NONE', #240, 0.6999999999999999556 ) ;
#68 = AXIS2_PLACEMENT_3D ( 'NONE', #161, #229, #262 ) ;
#69 = APPROVAL_STATUS ( 'not_yet_approved' ) ;
#70 = EDGE_CURVE ( 'NONE', #130, #232, #238, .T. ) ;
#71 = AXIS2_PLACEMENT_3D ( 'NONE', #251, #140, #279 ) ;
#72 = AXIS2_PLACEMENT_3D ( 'NONE', #55, #243, #147 ) ;
#73 = APPROVAL_DATE_TIME ( #35, #256 ) ;
#74 = PRODUCT_RELATED_PRODUCT_CATEGORY ( 'detail', '', ( #221 ) ) ;
#75 = LOCAL_TIME ( 12, 26, 22.00000000000000000, #163 ) ;
#76 = DIRECTION ( 'NONE',  ( 1.000000000000000000, 0.000000000000000000, -0.000000000000000000 ) ) ;
#77 = APPROVAL_ROLE ( '' ) ;
#78 = ORIENTED_EDGE ( 'NONE', *, *, #59, .F. ) ;
#79 = EDGE_LOOP ( 'NONE', ( #131, #108, #303, #101 ) ) ;
#80 = PERSON_AND_ORGANIZATION_ROLE ( 'classification_officer' ) ;
#81 = ORIENTED_EDGE ( 'NONE', *, *, #300, .F. ) ;
#82 = PRODUCT_DEFINITION ( 'NEZNÁMÝ', '', #60, #250 ) ;
#83 = VERTEX_POINT ( 'NONE', #257 ) ;
#84 = DIRECTION ( 'NONE',  ( 1.000000000000000000, 0.000000000000000000, 0.000000000000000000 ) ) ;
#85 = AXIS2_PLACEMENT_3D ( 'NONE', #126, #282, #227 ) ;
#86 = CARTESIAN_POINT ( 'NONE',  ( 0.000000000000000000, 0.000000000000000000, 1.399999999999998579 ) ) ;
#87 = LINE ( 'NONE', #62, #226 ) ;
#88 = CYLINDRICAL_SURFACE ( 'NONE', #261, 1.250000000000000000 ) ;
#89 = VECTOR ( 'NONE', #156, 1000.000000000000000 ) ;
#90 = DIRECTION ( 'NONE',  ( 0.000000000000000000, -1.000000000000000000, 0.000000000000000000 ) ) ;
#91 = AXIS2_PLACEMENT_3D ( 'NONE', #41, #254, #118 ) ;
#92 = DIRECTION ( 'NONE',  ( 0.000000000000000000, 0.000000000000000000, 1.000000000000000000 ) ) ;
#93 = DATE_TIME_ROLE ( 'creation_date' ) ;
#94 = LOCAL_TIME ( 12, 26, 22.00000000000000000, #191 ) ;
#95 = APPROVAL_DATE_TIME ( #264, #26 ) ;
#96 = EDGE_CURVE ( 'NONE', #189, #197, #301, .T. ) ;
#97 = DIRECTION ( 'NONE',  ( 0.000000000000000000, 0.000000000000000000, 1.000000000000000000 ) ) ;
#98 = AXIS2_PLACEMENT_3D ( 'NONE', #17, #158, #297 ) ;
#99 = APPLICATION_CONTEXT ( 'configuration controlled 3d designs of mechanical parts and assemblies' ) ;
#100 = PERSON_AND_ORGANIZATION ( #306, #284 ) ;
#101 = ORIENTED_EDGE ( 'NONE', *, *, #21, .F. ) ;
#102 = PERSON_AND_ORGANIZATION ( #306, #284 ) ;
#103 = EDGE_CURVE ( 'NONE', #197, #133, #125, .T. ) ;
#104 = CARTESIAN_POINT ( 'NONE',  ( -0.6999999999999999556, 8.572527594031471957E-17, 1.399999999999998579 ) ) ;
#105 = PERSON_AND_ORGANIZATION ( #306, #284 ) ;
#106 = PLANE ( 'NONE',  #177 ) ;
#107 = AXIS2_PLACEMENT_3D ( 'NONE', #110, #56, #269 ) ;
#108 = ORIENTED_EDGE ( 'NONE', *, *, #184, .T. ) ;
#109 = ADVANCED_FACE ( 'NONE', ( #201 ), #275, .F. ) ;
#110 = CARTESIAN_POINT ( 'NONE',  ( 0.000000000000000000, 0.000000000000000000, 101.2000000000000171 ) ) ;
#111 = CC_DESIGN_PERSON_AND_ORGANIZATION_ASSIGNMENT ( #183, #236, ( #82 ) ) ;
#112 = CARTESIAN_POINT ( 'NONE',  ( 0.000000000000000000, 0.000000000000000000, 101.2000000000000171 ) ) ;
#113 = VECTOR ( 'NONE', #159, 1000.000000000000000 ) ;
#114 = CARTESIAN_POINT ( 'NONE',  ( 0.000000000000000000, 0.000000000000000000, 1.199999999999999956 ) ) ;
#115 = AXIS2_PLACEMENT_3D ( 'NONE', #117, #280, #64 ) ;
#116 = AXIS2_PLACEMENT_3D ( 'NONE', #220, #90, #12 ) ;
#117 = CARTESIAN_POINT ( 'NONE',  ( 0.000000000000000000, 0.000000000000000000, 1.399999999999998579 ) ) ;
#118 = DIRECTION ( 'NONE',  ( 1.000000000000000000, 0.000000000000000000, 0.000000000000000000 ) ) ;
#119 = AXIS2_PLACEMENT_3D ( 'NONE', #104, #192, #30 ) ;
#120 = CARTESIAN_POINT ( 'NONE',  ( 0.5000000000000000000, 6.123233995736766036E-17, 101.2000000000000171 ) ) ;
#121 = FACE_BOUND ( 'NONE', #51, .T. ) ;
#122 = LOCAL_TIME ( 12, 26, 22.00000000000000000, #25 ) ;
#123 = CIRCLE ( 'NONE', #268, 1.250000000000000000 ) ;
#124 = APPLICATION_PROTOCOL_DEFINITION ( 'international standard', 'config_control_design', 1994, #233 ) ;
#125 = CIRCLE ( 'NONE', #217, 0.5000000000000000000 ) ;
#126 = CARTESIAN_POINT ( 'NONE',  ( 0.000000000000000000, 0.000000000000000000, 1.199999999999999956 ) ) ;
#127 = EDGE_LOOP ( 'NONE', ( #295, #152 ) ) ;
#128 = EDGE_LOOP ( 'NONE', ( #173, #46, #166, #23 ) ) ;
#129 =( GEOMETRIC_REPRESENTATION_CONTEXT ( 3 ) GLOBAL_UNCERTAINTY_ASSIGNED_CONTEXT ( ( #57 ) ) GLOBAL_UNIT_ASSIGNED_CONTEXT ( ( #285, #286, #162 ) ) REPRESENTATION_CONTEXT ( 'NONE', 'WORKASPACE' ) );
#130 = VERTEX_POINT ( 'NONE', #198 ) ;
#131 = ORIENTED_EDGE ( 'NONE', *, *, #11, .F. ) ;
#132 = MANIFOLD_SOLID_BREP ( 'Zaoblit1', #178 ) ;
#133 = VERTEX_POINT ( 'NONE', #10 ) ;
#134 = LOCAL_TIME ( 12, 26, 22.00000000000000000, #237 ) ;
#135 = AXIS2_PLACEMENT_3D ( 'NONE', #18, #92, #258 ) ;
#136 = CARTESIAN_POINT ( 'NONE',  ( 0.000000000000000000, 0.000000000000000000, 101.2000000000000171 ) ) ;
#137 = CARTESIAN_POINT ( 'NONE',  ( 0.6999999999999999556, 0.000000000000000000, 1.199999999999999289 ) ) ;
#138 = FACE_OUTER_BOUND ( 'NONE', #79, .T. ) ;
#139 = CARTESIAN_POINT ( 'NONE',  ( 0.000000000000000000, 0.000000000000000000, 1.199999999999999956 ) ) ;
#140 = DIRECTION ( 'NONE',  ( 0.000000000000000000, 0.000000000000000000, 1.000000000000000000 ) ) ;
#141 = CC_DESIGN_PERSON_AND_ORGANIZATION_ASSIGNMENT ( #145, #19, ( #221 ) ) ;
#142 = APPROVAL_ROLE ( '' ) ;
#143 = ORIENTED_EDGE ( 'NONE', *, *, #21, .T. ) ;
#144 = ORIENTED_EDGE ( 'NONE', *, *, #70, .F. ) ;
#145 = PERSON_AND_ORGANIZATION ( #306, #284 ) ;
#146 = DIRECTION ( 'NONE',  ( 1.000000000000000000, 0.000000000000000000, 0.000000000000000000 ) ) ;
#147 = DIRECTION ( 'NONE',  ( 1.000000000000000000, 0.000000000000000000, 0.000000000000000000 ) ) ;
#148 = CC_DESIGN_PERSON_AND_ORGANIZATION_ASSIGNMENT ( #105, #193, ( #60 ) ) ;
#149 = ORIENTED_EDGE ( 'NONE', *, *, #265, .F. ) ;
#150 = APPROVAL_PERSON_ORGANIZATION ( #185, #304, #263 ) ;
#151 = FACE_OUTER_BOUND ( 'NONE', #209, .T. ) ;
#152 = ORIENTED_EDGE ( 'NONE', *, *, #228, .T. ) ;
#153 = CIRCLE ( 'NONE', #71, 1.250000000000000000 ) ;
#154 = FACE_OUTER_BOUND ( 'NONE', #127, .T. ) ;
#155 = DIRECTION ( 'NONE',  ( -0.000000000000000000, -0.000000000000000000, -1.000000000000000000 ) ) ;
#156 = DIRECTION ( 'NONE',  ( -0.000000000000000000, -0.000000000000000000, -1.000000000000000000 ) ) ;
#157 = CC_DESIGN_DATE_AND_TIME_ASSIGNMENT ( #305, #93, ( #82 ) ) ;
#158 = DIRECTION ( 'NONE',  ( 0.000000000000000000, 0.000000000000000000, 1.000000000000000000 ) ) ;
#159 = DIRECTION ( 'NONE',  ( -0.000000000000000000, -0.000000000000000000, -1.000000000000000000 ) ) ;
#160 = APPLICATION_PROTOCOL_DEFINITION ( 'international standard', 'config_control_design', 1994, #99 ) ;
#161 = CARTESIAN_POINT ( 'NONE',  ( 0.000000000000000000, 0.000000000000000000, 1.399999999999998579 ) ) ;
#162 =( NAMED_UNIT ( * ) SI_UNIT ( $, .STERADIAN. ) SOLID_ANGLE_UNIT ( ) );
#163 = COORDINATED_UNIVERSAL_TIME_OFFSET ( 1, 0, .AHEAD. ) ;
#164 = SHAPE_DEFINITION_REPRESENTATION ( #181, #242 ) ;
#165 = AXIS2_PLACEMENT_3D ( 'NONE', #136, #276, #204 ) ;
#166 = ORIENTED_EDGE ( 'NONE', *, *, #39, .T. ) ;
#167 = ORIENTED_EDGE ( 'NONE', *, *, #39, .F. ) ;
#168 = SECURITY_CLASSIFICATION_LEVEL ( 'unclassified' ) ;
#169 = ORIENTED_EDGE ( 'NONE', *, *, #224, .T. ) ;
#170 = ADVANCED_FACE ( 'NONE', ( #296 ), #37, .T. ) ;
#171 = APPROVAL_DATE_TIME ( #292, #304 ) ;
#172 = DIRECTION ( 'NONE',  ( -0.000000000000000000, -0.000000000000000000, -1.000000000000000000 ) ) ;
#173 = ORIENTED_EDGE ( 'NONE', *, *, #228, .F. ) ;
#174 = CARTESIAN_POINT ( 'NONE',  ( -0.5000000000000000000, 0.000000000000000000, 101.2000000000000171 ) ) ;
#175 = CARTESIAN_POINT ( 'NONE',  ( 0.000000000000000000, 0.000000000000000000, 1.199999999999999956 ) ) ;
#176 = LINE ( 'NONE', #223, #89 ) ;
#177 = AXIS2_PLACEMENT_3D ( 'NONE', #270, #4, #76 ) ;
#178 = CLOSED_SHELL ( 'NONE', ( #288, #170, #272, #203, #294, #32, #47, #16, #109 ) ) ;
#179 = CARTESIAN_POINT ( 'NONE',  ( -0.6999999999999999556, 8.572527594031473190E-17, 1.199999999999999289 ) ) ;
#180 = DIRECTION ( 'NONE',  ( -1.000000000000000000, 0.000000000000000000, 0.000000000000000000 ) ) ;
#181 = PRODUCT_DEFINITION_SHAPE ( 'NONE', 'NONE',  #82 ) ;
#182 = PLANE ( 'NONE',  #85 ) ;
#183 = PERSON_AND_ORGANIZATION ( #306, #284 ) ;
#184 = EDGE_CURVE ( 'NONE', #52, #232, #176, .T. ) ;
#185 = PERSON_AND_ORGANIZATION ( #306, #284 ) ;
#186 = CC_DESIGN_APPROVAL ( #304, ( #60 ) ) ;
#187 = ORIENTED_EDGE ( 'NONE', *, *, #44, .F. ) ;
#188 = PERSON_AND_ORGANIZATION ( #306, #284 ) ;
#189 = VERTEX_POINT ( 'NONE', #174 ) ;
#190 = TOROIDAL_SURFACE ( 'NONE', #68, 0.6999999999999999556, 0.2000000000000000111 ) ;
#191 = COORDINATED_UNIVERSAL_TIME_OFFSET ( 1, 0, .AHEAD. ) ;
#192 = DIRECTION ( 'NONE',  ( 1.224646799147353207E-16, 1.000000000000000000, -0.000000000000000000 ) ) ;
#193 = PERSON_AND_ORGANIZATION_ROLE ( 'design_supplier' ) ;
#194 = ORIENTED_EDGE ( 'NONE', *, *, #66, .T. ) ;
#195 = VERTEX_POINT ( 'NONE', #179 ) ;
#196 = CC_DESIGN_PERSON_AND_ORGANIZATION_ASSIGNMENT ( #100, #245, ( #60 ) ) ;
#197 = VERTEX_POINT ( 'NONE', #278 ) ;
#198 = CARTESIAN_POINT ( 'NONE',  ( -1.250000000000000000, 0.000000000000000000, 0.000000000000000000 ) ) ;
#199 = DIRECTION ( 'NONE',  ( -0.000000000000000000, -0.000000000000000000, -1.000000000000000000 ) ) ;
#200 = AXIS2_PLACEMENT_3D ( 'NONE', #277, #299, #84 ) ;
#201 = FACE_OUTER_BOUND ( 'NONE', #293, .T. ) ;
#202 = CARTESIAN_POINT ( 'NONE',  ( 1.250000000000000000, 1.530808498934191571E-16, 0.000000000000000000 ) ) ;
#203 = ADVANCED_FACE ( 'NONE', ( #43 ), #88, .T. ) ;
#204 = DIRECTION ( 'NONE',  ( -1.000000000000000000, 0.000000000000000000, 0.000000000000000000 ) ) ;
#205 = CALENDAR_DATE ( 2022, 20, 6 ) ;
#206 = APPROVAL_STATUS ( 'not_yet_approved' ) ;
#207 = CALENDAR_DATE ( 2022, 20, 6 ) ;
#208 = CARTESIAN_POINT ( 'NONE',  ( 0.000000000000000000, 0.000000000000000000, 0.000000000000000000 ) ) ;
#209 = EDGE_LOOP ( 'NONE', ( #215, #81, #58, #230 ) ) ;
#210 = CIRCLE ( 'NONE', #34, 0.6999999999999999556 ) ;
#211 = CIRCLE ( 'NONE', #200, 1.250000000000000000 ) ;
#212 = ORIENTED_EDGE ( 'NONE', *, *, #44, .T. ) ;
#213 = AXIS2_PLACEMENT_3D ( 'NONE', #298, #231, #45 ) ;
#214 = DIRECTION ( 'NONE',  ( 0.000000000000000000, 0.000000000000000000, 1.000000000000000000 ) ) ;
#215 = ORIENTED_EDGE ( 'NONE', *, *, #50, .F. ) ;
#216 = EDGE_LOOP ( 'NONE', ( #9, #5, #143, #248 ) ) ;
#217 = AXIS2_PLACEMENT_3D ( 'NONE', #86, #255, #225 ) ;
#218 = EDGE_CURVE ( 'NONE', #232, #130, #211, .T. ) ;
#219 = DIRECTION ( 'NONE',  ( 1.000000000000000000, 0.000000000000000000, 0.000000000000000000 ) ) ;
#220 = CARTESIAN_POINT ( 'NONE',  ( 0.6999999999999999556, 0.000000000000000000, 1.399999999999998579 ) ) ;
#221 = PRODUCT ( '7f15', '7f15', '', ( #259 ) ) ;
#222 = CYLINDRICAL_SURFACE ( 'NONE', #213, 1.250000000000000000 ) ;
#223 = CARTESIAN_POINT ( 'NONE',  ( 1.250000000000000000, 1.530808498934191571E-16, 1.199999999999999956 ) ) ;
#224 = EDGE_CURVE ( 'NONE', #260, #195, #67, .T. ) ;
#225 = DIRECTION ( 'NONE',  ( 1.000000000000000000, 0.000000000000000000, 0.000000000000000000 ) ) ;
#226 = VECTOR ( 'NONE', #63, 1000.000000000000000 ) ;
#227 = DIRECTION ( 'NONE',  ( 1.000000000000000000, 0.000000000000000000, -0.000000000000000000 ) ) ;
#228 = EDGE_CURVE ( 'NONE', #239, #189, #283, .T. ) ;
#229 = DIRECTION ( 'NONE',  ( 0.000000000000000000, 0.000000000000000000, 1.000000000000000000 ) ) ;
#230 = ORIENTED_EDGE ( 'NONE', *, *, #103, .T. ) ;
#231 = DIRECTION ( 'NONE',  ( -0.000000000000000000, -0.000000000000000000, -1.000000000000000000 ) ) ;
#232 = VERTEX_POINT ( 'NONE', #202 ) ;
#233 = APPLICATION_CONTEXT ( 'configuration controlled 3d designs of mechanical parts and assemblies' ) ;
#234 = EDGE_LOOP ( 'NONE', ( #22, #212, #36, #149 ) ) ;
#235 = CC_DESIGN_SECURITY_CLASSIFICATION ( #53, ( #60 ) ) ;
#236 = PERSON_AND_ORGANIZATION_ROLE ( 'creator' ) ;
#237 = COORDINATED_UNIVERSAL_TIME_OFFSET ( 1, 0, .AHEAD. ) ;
#238 = CIRCLE ( 'NONE', #98, 1.250000000000000000 ) ;
#239 = VERTEX_POINT ( 'NONE', #120 ) ;
#240 = AXIS2_PLACEMENT_3D ( 'NONE', #139, #40, #219 ) ;
#241 = DATE_TIME_ROLE ( 'classification_date' ) ;
#242 = ADVANCED_BREP_SHAPE_REPRESENTATION ( '7f15', ( #132, #244 ), #129 ) ;
#243 = DIRECTION ( 'NONE',  ( 0.000000000000000000, 0.000000000000000000, 1.000000000000000000 ) ) ;
#244 = AXIS2_PLACEMENT_3D ( 'NONE', #208, #97, #146 ) ;
#245 = PERSON_AND_ORGANIZATION_ROLE ( 'creator' ) ;
#246 = CC_DESIGN_PERSON_AND_ORGANIZATION_ASSIGNMENT ( #102, #80, ( #53 ) ) ;
#247 = LINE ( 'NONE', #289, #6 ) ;
#248 = ORIENTED_EDGE ( 'NONE', *, *, #70, .T. ) ;
#249 = CIRCLE ( 'NONE', #119, 0.1999999999999999833 ) ;
#250 = DESIGN_CONTEXT ( 'detailed design', #99, 'design' ) ;
#251 = CARTESIAN_POINT ( 'NONE',  ( 0.000000000000000000, 0.000000000000000000, 1.199999999999999956 ) ) ;
#252 = CC_DESIGN_APPROVAL ( #26, ( #82 ) ) ;
#253 = DIRECTION ( 'NONE',  ( -1.000000000000000000, 0.000000000000000000, 0.000000000000000000 ) ) ;
#254 = DIRECTION ( 'NONE',  ( 0.000000000000000000, 0.000000000000000000, 1.000000000000000000 ) ) ;
#255 = DIRECTION ( 'NONE',  ( 0.000000000000000000, 0.000000000000000000, 1.000000000000000000 ) ) ;
#256 = APPROVAL ( #7, 'NEURÈENÝ' ) ;
#257 = CARTESIAN_POINT ( 'NONE',  ( -1.250000000000000000, 0.000000000000000000, 1.199999999999999956 ) ) ;
#258 = DIRECTION ( 'NONE',  ( 1.000000000000000000, 0.000000000000000000, 0.000000000000000000 ) ) ;
#259 = MECHANICAL_CONTEXT ( 'NONE', #233, 'mechanical' ) ;
#260 = VERTEX_POINT ( 'NONE', #137 ) ;
#261 = AXIS2_PLACEMENT_3D ( 'NONE', #175, #155, #253 ) ;
#262 = DIRECTION ( 'NONE',  ( 1.000000000000000000, 0.000000000000000000, 0.000000000000000000 ) ) ;
#263 = APPROVAL_ROLE ( '' ) ;
#264 = DATE_AND_TIME ( #207, #75 ) ;
#265 = EDGE_CURVE ( 'NONE', #133, #260, #42, .T. ) ;
#266 = CIRCLE ( 'NONE', #135, 0.5000000000000000000 ) ;
#267 = ORIENTED_EDGE ( 'NONE', *, *, #265, .T. ) ;
#268 = AXIS2_PLACEMENT_3D ( 'NONE', #274, #214, #29 ) ;
#269 = DIRECTION ( 'NONE',  ( 1.000000000000000000, 0.000000000000000000, -0.000000000000000000 ) ) ;
#270 = CARTESIAN_POINT ( 'NONE',  ( 0.000000000000000000, 0.000000000000000000, 0.000000000000000000 ) ) ;
#271 = APPROVAL_PERSON_ORGANIZATION ( #287, #256, #77 ) ;
#272 = ADVANCED_FACE ( 'NONE', ( #138 ), #222, .T. ) ;
#273 = FACE_OUTER_BOUND ( 'NONE', #33, .T. ) ;
#274 = CARTESIAN_POINT ( 'NONE',  ( 0.000000000000000000, 0.000000000000000000, 1.199999999999999956 ) ) ;
#275 = TOROIDAL_SURFACE ( 'NONE', #115, 0.6999999999999999556, 0.2000000000000000111 ) ;
#276 = DIRECTION ( 'NONE',  ( -0.000000000000000000, -0.000000000000000000, -1.000000000000000000 ) ) ;
#277 = CARTESIAN_POINT ( 'NONE',  ( 0.000000000000000000, 0.000000000000000000, 0.000000000000000000 ) ) ;
#278 = CARTESIAN_POINT ( 'NONE',  ( -0.5000000000000000000, 0.000000000000000000, 1.399999999999998579 ) ) ;
#279 = DIRECTION ( 'NONE',  ( 1.000000000000000000, 0.000000000000000000, 0.000000000000000000 ) ) ;
#280 = DIRECTION ( 'NONE',  ( 0.000000000000000000, 0.000000000000000000, 1.000000000000000000 ) ) ;
#281 = FACE_OUTER_BOUND ( 'NONE', #234, .T. ) ;
#282 = DIRECTION ( 'NONE',  ( 0.000000000000000000, 0.000000000000000000, 1.000000000000000000 ) ) ;
#283 = CIRCLE ( 'NONE', #91, 0.5000000000000000000 ) ;
#284 = ORGANIZATION ( 'NEURÈENÝ', 'NEURÈENÝ', '' ) ;
#285 =( LENGTH_UNIT ( ) NAMED_UNIT ( * ) SI_UNIT ( .MILLI., .METRE. ) );
#286 =( NAMED_UNIT ( * ) PLANE_ANGLE_UNIT ( ) SI_UNIT ( $, .RADIAN. ) );
#287 = PERSON_AND_ORGANIZATION ( #306, #284 ) ;
#288 = ADVANCED_FACE ( 'NONE', ( #281 ), #190, .F. ) ;
#289 = CARTESIAN_POINT ( 'NONE',  ( -1.250000000000000000, 0.000000000000000000, 1.199999999999999956 ) ) ;
#290 = CYLINDRICAL_SURFACE ( 'NONE', #307, 0.5000000000000000000 ) ;
#291 = ORIENTED_EDGE ( 'NONE', *, *, #11, .T. ) ;
#292 = DATE_AND_TIME ( #31, #14 ) ;
#293 = EDGE_LOOP ( 'NONE', ( #187, #167, #267, #78 ) ) ;
#294 = ADVANCED_FACE ( 'NONE', ( #121, #20 ), #182, .T. ) ;
#295 = ORIENTED_EDGE ( 'NONE', *, *, #300, .T. ) ;
#296 = FACE_OUTER_BOUND ( 'NONE', #128, .T. ) ;
#297 = DIRECTION ( 'NONE',  ( 1.000000000000000000, 0.000000000000000000, 0.000000000000000000 ) ) ;
#298 = CARTESIAN_POINT ( 'NONE',  ( 0.000000000000000000, 0.000000000000000000, 1.199999999999999956 ) ) ;
#299 = DIRECTION ( 'NONE',  ( 0.000000000000000000, 0.000000000000000000, 1.000000000000000000 ) ) ;
#300 = EDGE_CURVE ( 'NONE', #189, #239, #266, .T. ) ;
#301 = LINE ( 'NONE', #15, #113 ) ;
#302 = ORIENTED_EDGE ( 'NONE', *, *, #218, .F. ) ;
#303 = ORIENTED_EDGE ( 'NONE', *, *, #218, .T. ) ;
#304 = APPROVAL ( #69, 'NEURÈENÝ' ) ;
#305 = DATE_AND_TIME ( #205, #122 ) ;
#306 = PERSON ( 'NEURÈENÝ', 'NEURÈENÝ', 'NEURÈENÝ', ('NEURÈENÝ'), ('NEURÈENÝ'), ('NEURÈENÝ') ) ;
#307 = AXIS2_PLACEMENT_3D ( 'NONE', #112, #13, #180 ) ;
ENDSEC;
END-ISO-10303-21;
