ISO-10303-21;
HEADER;
FILE_DESCRIPTION (( 'STEP AP203' ),
    '1' );
FILE_NAME ('7981.STEP',
    '2022-06-20T09:33:59',
    ( '' ),
    ( '' ),
    'SwSTEP 2.0',
    'SolidWorks 2019',
    '' );
FILE_SCHEMA (( 'CONFIG_CONTROL_DESIGN' ));
ENDSEC;

DATA;
#1 = ADVANCED_FACE ( 'NONE', ( #114 ), #139, .F. ) ;
#2 = DIRECTION ( 'NONE',  ( -0.000000000000000000, -0.000000000000000000, -1.000000000000000000 ) ) ;
#3 = DIRECTION ( 'NONE',  ( 0.000000000000000000, 0.000000000000000000, 1.000000000000000000 ) ) ;
#4 = DATE_AND_TIME ( #140, #307 ) ;
#5 = DIRECTION ( 'NONE',  ( -0.000000000000000000, -0.000000000000000000, -1.000000000000000000 ) ) ;
#6 = CARTESIAN_POINT ( 'NONE',  ( 0.000000000000000000, 0.000000000000000000, 5.000000000000000000 ) ) ;
#7 = EDGE_CURVE ( 'NONE', #171, #278, #133, .T. ) ;
#8 = CARTESIAN_POINT ( 'NONE',  ( 0.000000000000000000, 0.000000000000000000, 5.000000000000000000 ) ) ;
#9 =( NAMED_UNIT ( * ) PLANE_ANGLE_UNIT ( ) SI_UNIT ( $, .RADIAN. ) );
#10 = PERSON_AND_ORGANIZATION ( #56, #61 ) ;
#11 = DIRECTION ( 'NONE',  ( -0.000000000000000000, -0.000000000000000000, -1.000000000000000000 ) ) ;
#12 = EDGE_CURVE ( 'NONE', #109, #20, #46, .T. ) ;
#13 = CYLINDRICAL_SURFACE ( 'NONE', #128, 8.000000000000000000 ) ;
#14 = FACE_OUTER_BOUND ( 'NONE', #178, .T. ) ;
#15 = FACE_BOUND ( 'NONE', #108, .T. ) ;
#16 = VERTEX_POINT ( 'NONE', #267 ) ;
#17 = DATE_AND_TIME ( #40, #239 ) ;
#18 = EDGE_LOOP ( 'NONE', ( #257, #225, #45, #177 ) ) ;
#19 = MANIFOLD_SOLID_BREP ( 'Zaoblit1', #70 ) ;
#20 = VERTEX_POINT ( 'NONE', #90 ) ;
#21 = EDGE_CURVE ( 'NONE', #278, #16, #219, .T. ) ;
#22 = AXIS2_PLACEMENT_3D ( 'NONE', #144, #241, #119 ) ;
#23 = EDGE_LOOP ( 'NONE', ( #28, #153, #205, #49 ) ) ;
#24 = ORIENTED_EDGE ( 'NONE', *, *, #300, .F. ) ;
#25 = CARTESIAN_POINT ( 'NONE',  ( 0.000000000000000000, 0.000000000000000000, 1004.999999999999886 ) ) ;
#26 = UNCERTAINTY_MEASURE_WITH_UNIT (LENGTH_MEASURE( 1.000000000000000082E-05 ), #34, 'distance_accuracy_value', 'NONE');
#27 = CC_DESIGN_PERSON_AND_ORGANIZATION_ASSIGNMENT ( #186, #113, ( #255 ) ) ;
#28 = ORIENTED_EDGE ( 'NONE', *, *, #234, .F. ) ;
#29 = DIRECTION ( 'NONE',  ( -0.000000000000000000, -0.000000000000000000, -1.000000000000000000 ) ) ;
#30 = DIRECTION ( 'NONE',  ( -0.000000000000000000, -0.000000000000000000, -1.000000000000000000 ) ) ;
#31 = CALENDAR_DATE ( 2022, 20, 6 ) ;
#32 = DIRECTION ( 'NONE',  ( 0.000000000000000000, 0.000000000000000000, 1.000000000000000000 ) ) ;
#33 = DATE_AND_TIME ( #240, #277 ) ;
#34 =( LENGTH_UNIT ( ) NAMED_UNIT ( * ) SI_UNIT ( .MILLI., .METRE. ) );
#35 = PERSON_AND_ORGANIZATION_ROLE ( 'creator' ) ;
#36 = APPROVAL ( #279, 'NEURÈENÝ' ) ;
#37 = VECTOR ( 'NONE', #197, 1000.000000000000000 ) ;
#38 = DIRECTION ( 'NONE',  ( -1.000000000000000000, 0.000000000000000000, 0.000000000000000000 ) ) ;
#39 = CARTESIAN_POINT ( 'NONE',  ( -5.500000000000000000, 0.000000000000000000, 5.199999999999982414 ) ) ;
#40 = CALENDAR_DATE ( 2022, 20, 6 ) ;
#41 = ORIENTED_EDGE ( 'NONE', *, *, #131, .T. ) ;
#42 = AXIS2_PLACEMENT_3D ( 'NONE', #25, #3, #233 ) ;
#43 = ORIENTED_EDGE ( 'NONE', *, *, #147, .F. ) ;
#44 = ADVANCED_FACE ( 'NONE', ( #236 ), #72, .T. ) ;
#45 = ORIENTED_EDGE ( 'NONE', *, *, #202, .T. ) ;
#46 = LINE ( 'NONE', #292, #50 ) ;
#47 = ADVANCED_FACE ( 'NONE', ( #112 ), #162, .T. ) ;
#48 = DIRECTION ( 'NONE',  ( 1.000000000000000000, 0.000000000000000000, 0.000000000000000000 ) ) ;
#49 = ORIENTED_EDGE ( 'NONE', *, *, #188, .F. ) ;
#50 = VECTOR ( 'NONE', #291, 1000.000000000000000 ) ;
#51 = ORIENTED_EDGE ( 'NONE', *, *, #63, .F. ) ;
#52 = CARTESIAN_POINT ( 'NONE',  ( 0.000000000000000000, 0.000000000000000000, 5.000000000000000000 ) ) ;
#53 = CARTESIAN_POINT ( 'NONE',  ( 5.500000000000000000, 6.735557395310442023E-16, 1004.999999999999886 ) ) ;
#54 = APPROVAL_STATUS ( 'not_yet_approved' ) ;
#55 = PLANE ( 'NONE',  #149 ) ;
#56 = PERSON ( 'NEURÈENÝ', 'NEURÈENÝ', 'NEURÈENÝ', ('NEURÈENÝ'), ('NEURÈENÝ'), ('NEURÈENÝ') ) ;
#57 = EDGE_CURVE ( 'NONE', #302, #16, #74, .T. ) ;
#58 = DIRECTION ( 'NONE',  ( 1.000000000000000000, 0.000000000000000000, 0.000000000000000000 ) ) ;
#59 = PERSON_AND_ORGANIZATION ( #56, #61 ) ;
#60 = AXIS2_PLACEMENT_3D ( 'NONE', #6, #5, #92 ) ;
#61 = ORGANIZATION ( 'NEURÈENÝ', 'NEURÈENÝ', '' ) ;
#62 = SHAPE_DEFINITION_REPRESENTATION ( #298, #256 ) ;
#63 = EDGE_CURVE ( 'NONE', #16, #126, #289, .T. ) ;
#64 = ORIENTED_EDGE ( 'NONE', *, *, #188, .T. ) ;
#65 = DESIGN_CONTEXT ( 'detailed design', #166, 'design' ) ;
#66 = CC_DESIGN_SECURITY_CLASSIFICATION ( #195, ( #264 ) ) ;
#67 = ORIENTED_EDGE ( 'NONE', *, *, #179, .T. ) ;
#68 = CC_DESIGN_PERSON_AND_ORGANIZATION_ASSIGNMENT ( #10, #99, ( #264 ) ) ;
#69 = ORIENTED_EDGE ( 'NONE', *, *, #150, .T. ) ;
#70 = CLOSED_SHELL ( 'NONE', ( #286, #44, #193, #76, #242, #1, #207, #47, #275 ) ) ;
#71 = APPROVAL_PERSON_ORGANIZATION ( #80, #224, #191 ) ;
#72 = CYLINDRICAL_SURFACE ( 'NONE', #83, 5.500000000000000000 ) ;
#73 = DIRECTION ( 'NONE',  ( 1.000000000000000000, 0.000000000000000000, 0.000000000000000000 ) ) ;
#74 = LINE ( 'NONE', #53, #106 ) ;
#75 = CIRCLE ( 'NONE', #290, 8.000000000000000000 ) ;
#76 = ADVANCED_FACE ( 'NONE', ( #77 ), #214, .T. ) ;
#77 = FACE_OUTER_BOUND ( 'NONE', #18, .T. ) ;
#78 = DATE_TIME_ROLE ( 'creation_date' ) ;
#79 = DIRECTION ( 'NONE',  ( 1.000000000000000000, 0.000000000000000000, 0.000000000000000000 ) ) ;
#80 = PERSON_AND_ORGANIZATION ( #56, #61 ) ;
#81 = DIRECTION ( 'NONE',  ( 0.000000000000000000, 0.000000000000000000, 1.000000000000000000 ) ) ;
#82 = FACE_OUTER_BOUND ( 'NONE', #23, .T. ) ;
#83 = AXIS2_PLACEMENT_3D ( 'NONE', #138, #2, #229 ) ;
#84 = EDGE_LOOP ( 'NONE', ( #203, #281, #156, #223 ) ) ;
#85 = EDGE_LOOP ( 'NONE', ( #303, #254, #206, #305 ) ) ;
#86 = AXIS2_PLACEMENT_3D ( 'NONE', #244, #273, #79 ) ;
#87 = ORIENTED_EDGE ( 'NONE', *, *, #103, .T. ) ;
#88 = VERTEX_POINT ( 'NONE', #183 ) ;
#89 = EDGE_LOOP ( 'NONE', ( #251, #43 ) ) ;
#90 = CARTESIAN_POINT ( 'NONE',  ( 8.000000000000000000, 9.797174393178825657E-16, 0.000000000000000000 ) ) ;
#91 = DIRECTION ( 'NONE',  ( 0.000000000000000000, 0.000000000000000000, -1.000000000000000000 ) ) ;
#92 = DIRECTION ( 'NONE',  ( -1.000000000000000000, 0.000000000000000000, 0.000000000000000000 ) ) ;
#93 = CC_DESIGN_PERSON_AND_ORGANIZATION_ASSIGNMENT ( #287, #250, ( #195 ) ) ;
#94 = CARTESIAN_POINT ( 'NONE',  ( 0.000000000000000000, 0.000000000000000000, 1004.999999999999886 ) ) ;
#95 = CIRCLE ( 'NONE', #216, 5.500000000000000000 ) ;
#96 = DIRECTION ( 'NONE',  ( 0.000000000000000000, 0.000000000000000000, 1.000000000000000000 ) ) ;
#97 = CARTESIAN_POINT ( 'NONE',  ( 0.000000000000000000, 0.000000000000000000, 5.199999999999982414 ) ) ;
#98 = APPLICATION_PROTOCOL_DEFINITION ( 'international standard', 'config_control_design', 1994, #166 ) ;
#99 = PERSON_AND_ORGANIZATION_ROLE ( 'design_supplier' ) ;
#100 = AXIS2_PLACEMENT_3D ( 'NONE', #8, #245, #58 ) ;
#101 = DIRECTION ( 'NONE',  ( -0.000000000000000000, -0.000000000000000000, -1.000000000000000000 ) ) ;
#102 = DIRECTION ( 'NONE',  ( 0.000000000000000000, 0.000000000000000000, 1.000000000000000000 ) ) ;
#103 = EDGE_CURVE ( 'NONE', #282, #109, #184, .T. ) ;
#104 = ORIENTED_EDGE ( 'NONE', *, *, #300, .T. ) ;
#105 = VERTEX_POINT ( 'NONE', #261 ) ;
#106 = VECTOR ( 'NONE', #30, 1000.000000000000000 ) ;
#107 = CIRCLE ( 'NONE', #123, 5.500000000000000000 ) ;
#108 = EDGE_LOOP ( 'NONE', ( #104, #64 ) ) ;
#109 = VERTEX_POINT ( 'NONE', #181 ) ;
#110 = EDGE_CURVE ( 'NONE', #302, #171, #95, .T. ) ;
#111 = DIRECTION ( 'NONE',  ( 1.000000000000000000, 0.000000000000000000, 0.000000000000000000 ) ) ;
#112 = FACE_OUTER_BOUND ( 'NONE', #201, .T. ) ;
#113 = PERSON_AND_ORGANIZATION_ROLE ( 'creator' ) ;
#114 = FACE_OUTER_BOUND ( 'NONE', #89, .T. ) ;
#115 = CARTESIAN_POINT ( 'NONE',  ( -5.500000000000000000, 0.000000000000000000, 1004.999999999999886 ) ) ;
#116 = DIRECTION ( 'NONE',  ( 1.000000000000000000, 0.000000000000000000, 0.000000000000000000 ) ) ;
#117 = CIRCLE ( 'NONE', #260, 8.000000000000000000 ) ;
#118 = APPROVAL_STATUS ( 'not_yet_approved' ) ;
#119 = DIRECTION ( 'NONE',  ( 1.000000000000000000, 0.000000000000000000, 0.000000000000000000 ) ) ;
#120 = DATE_AND_TIME ( #31, #227 ) ;
#121 = CYLINDRICAL_SURFACE ( 'NONE', #157, 5.500000000000000000 ) ;
#122 = FACE_OUTER_BOUND ( 'NONE', #84, .T. ) ;
#123 = AXIS2_PLACEMENT_3D ( 'NONE', #238, #32, #116 ) ;
#124 = APPROVAL ( #54, 'NEURÈENÝ' ) ;
#125 = DIRECTION ( 'NONE',  ( 1.224646799147353207E-16, 1.000000000000000000, -0.000000000000000000 ) ) ;
#126 = VERTEX_POINT ( 'NONE', #208 ) ;
#127 = CC_DESIGN_DATE_AND_TIME_ASSIGNMENT ( #120, #78, ( #255 ) ) ;
#128 = AXIS2_PLACEMENT_3D ( 'NONE', #194, #270, #38 ) ;
#129 = EDGE_LOOP ( 'NONE', ( #155, #258, #24, #51 ) ) ;
#130 = CC_DESIGN_APPROVAL ( #36, ( #195 ) ) ;
#131 = EDGE_CURVE ( 'NONE', #171, #302, #107, .T. ) ;
#132 = ORIENTED_EDGE ( 'NONE', *, *, #7, .F. ) ;
#133 = LINE ( 'NONE', #115, #226 ) ;
#134 = CARTESIAN_POINT ( 'NONE',  ( 0.000000000000000000, 0.000000000000000000, 0.000000000000000000 ) ) ;
#135 = APPLICATION_CONTEXT ( 'configuration controlled 3d designs of mechanical parts and assemblies' ) ;
#136 = PRODUCT_RELATED_PRODUCT_CATEGORY ( 'detail', '', ( #176 ) ) ;
#137 = LOCAL_TIME ( 11, 33, 59.00000000000000000, #196 ) ;
#138 = CARTESIAN_POINT ( 'NONE',  ( 0.000000000000000000, 0.000000000000000000, 1004.999999999999886 ) ) ;
#139 = PLANE ( 'NONE',  #231 ) ;
#140 = CALENDAR_DATE ( 2022, 20, 6 ) ;
#141 = DIRECTION ( 'NONE',  ( 0.000000000000000000, -1.000000000000000000, 0.000000000000000000 ) ) ;
#142 = AXIS2_PLACEMENT_3D ( 'NONE', #213, #158, #263 ) ;
#143 = COORDINATED_UNIVERSAL_TIME_OFFSET ( 1, 0, .AHEAD. ) ;
#144 = CARTESIAN_POINT ( 'NONE',  ( 0.000000000000000000, 0.000000000000000000, 5.199999999999982414 ) ) ;
#145 = DIRECTION ( 'NONE',  ( 1.000000000000000000, 0.000000000000000000, 0.000000000000000000 ) ) ;
#146 = LINE ( 'NONE', #249, #37 ) ;
#147 = EDGE_CURVE ( 'NONE', #20, #88, #204, .T. ) ;
#148 = CARTESIAN_POINT ( 'NONE',  ( 0.000000000000000000, 0.000000000000000000, 1004.999999999999886 ) ) ;
#149 = AXIS2_PLACEMENT_3D ( 'NONE', #276, #102, #297 ) ;
#150 = EDGE_CURVE ( 'NONE', #16, #278, #259, .T. ) ;
#151 = DATE_TIME_ROLE ( 'classification_date' ) ;
#152 = CARTESIAN_POINT ( 'NONE',  ( -8.000000000000000000, 0.000000000000000000, 5.000000000000000000 ) ) ;
#153 = ORIENTED_EDGE ( 'NONE', *, *, #150, .F. ) ;
#154 = CC_DESIGN_APPROVAL ( #124, ( #264 ) ) ;
#155 = ORIENTED_EDGE ( 'NONE', *, *, #21, .F. ) ;
#156 = ORIENTED_EDGE ( 'NONE', *, *, #147, .T. ) ;
#157 = AXIS2_PLACEMENT_3D ( 'NONE', #148, #11, #199 ) ;
#158 = DIRECTION ( 'NONE',  ( 0.000000000000000000, 0.000000000000000000, 1.000000000000000000 ) ) ;
#159 = DIRECTION ( 'NONE',  ( 0.000000000000000000, 0.000000000000000000, 1.000000000000000000 ) ) ;
#160 = DIRECTION ( 'NONE',  ( 1.000000000000000000, 0.000000000000000000, -0.000000000000000000 ) ) ;
#161 = AXIS2_PLACEMENT_3D ( 'NONE', #97, #262, #48 ) ;
#162 = PLANE ( 'NONE',  #42 ) ;
#163 = CARTESIAN_POINT ( 'NONE',  ( 0.000000000000000000, 0.000000000000000000, 5.000000000000000000 ) ) ;
#164 = COORDINATED_UNIVERSAL_TIME_OFFSET ( 1, 0, .AHEAD. ) ;
#165 = DIRECTION ( 'NONE',  ( 1.000000000000000000, 0.000000000000000000, 0.000000000000000000 ) ) ;
#166 = APPLICATION_CONTEXT ( 'configuration controlled 3d designs of mechanical parts and assemblies' ) ;
#167 = APPROVAL_ROLE ( '' ) ;
#168 = FACE_OUTER_BOUND ( 'NONE', #85, .T. ) ;
#169 = DIRECTION ( 'NONE',  ( 1.000000000000000000, 0.000000000000000000, 0.000000000000000000 ) ) ;
#170 = AXIS2_PLACEMENT_3D ( 'NONE', #163, #159, #111 ) ;
#171 = VERTEX_POINT ( 'NONE', #285 ) ;
#172 = DATE_AND_TIME ( #295, #137 ) ;
#173 = TOROIDAL_SURFACE ( 'NONE', #22, 5.699999999999999289, 0.2000000000000000111 ) ;
#174 = ORIENTED_EDGE ( 'NONE', *, *, #110, .T. ) ;
#175 = EDGE_CURVE ( 'NONE', #88, #20, #117, .T. ) ;
#176 = PRODUCT ( '7981', '7981', '', ( #265 ) ) ;
#177 = ORIENTED_EDGE ( 'NONE', *, *, #175, .T. ) ;
#178 = EDGE_LOOP ( 'NONE', ( #87, #67 ) ) ;
#179 = EDGE_CURVE ( 'NONE', #109, #282, #75, .T. ) ;
#180 = DIRECTION ( 'NONE',  ( 0.000000000000000000, 0.000000000000000000, 1.000000000000000000 ) ) ;
#181 = CARTESIAN_POINT ( 'NONE',  ( 8.000000000000000000, 9.797174393178825657E-16, 5.000000000000000000 ) ) ;
#182 = PERSON_AND_ORGANIZATION ( #56, #61 ) ;
#183 = CARTESIAN_POINT ( 'NONE',  ( -8.000000000000000000, 0.000000000000000000, 0.000000000000000000 ) ) ;
#184 = CIRCLE ( 'NONE', #170, 8.000000000000000000 ) ;
#185 = AXIS2_PLACEMENT_3D ( 'NONE', #52, #101, #169 ) ;
#186 = PERSON_AND_ORGANIZATION ( #56, #61 ) ;
#187 = DIRECTION ( 'NONE',  ( 1.000000000000000000, 0.000000000000000000, 0.000000000000000000 ) ) ;
#188 = EDGE_CURVE ( 'NONE', #105, #126, #217, .T. ) ;
#189 = APPLICATION_PROTOCOL_DEFINITION ( 'international standard', 'config_control_design', 1994, #135 ) ;
#190 = DIRECTION ( 'NONE',  ( 0.000000000000000000, 0.000000000000000000, 1.000000000000000000 ) ) ;
#191 = APPROVAL_ROLE ( '' ) ;
#192 = SECURITY_CLASSIFICATION_LEVEL ( 'unclassified' ) ;
#193 = ADVANCED_FACE ( 'NONE', ( #122 ), #13, .T. ) ;
#194 = CARTESIAN_POINT ( 'NONE',  ( 0.000000000000000000, 0.000000000000000000, 5.000000000000000000 ) ) ;
#195 = SECURITY_CLASSIFICATION ( '', '', #192 ) ;
#196 = COORDINATED_UNIVERSAL_TIME_OFFSET ( 1, 0, .AHEAD. ) ;
#197 = DIRECTION ( 'NONE',  ( -0.000000000000000000, -0.000000000000000000, -1.000000000000000000 ) ) ;
#198 =( NAMED_UNIT ( * ) SI_UNIT ( $, .STERADIAN. ) SOLID_ANGLE_UNIT ( ) );
#199 = DIRECTION ( 'NONE',  ( -1.000000000000000000, 0.000000000000000000, 0.000000000000000000 ) ) ;
#200 = AXIS2_PLACEMENT_3D ( 'NONE', #243, #96, #145 ) ;
#201 = EDGE_LOOP ( 'NONE', ( #41, #174 ) ) ;
#202 = EDGE_CURVE ( 'NONE', #282, #88, #146, .T. ) ;
#203 = ORIENTED_EDGE ( 'NONE', *, *, #179, .F. ) ;
#204 = CIRCLE ( 'NONE', #222, 8.000000000000000000 ) ;
#205 = ORIENTED_EDGE ( 'NONE', *, *, #63, .T. ) ;
#206 = ORIENTED_EDGE ( 'NONE', *, *, #7, .T. ) ;
#207 = ADVANCED_FACE ( 'NONE', ( #168 ), #121, .T. ) ;
#208 = CARTESIAN_POINT ( 'NONE',  ( 5.699999999999999289, 0.000000000000000000, 4.999999999999991118 ) ) ;
#209 = AXIS2_PLACEMENT_3D ( 'NONE', #218, #141, #91 ) ;
#210 = APPROVAL_PERSON_ORGANIZATION ( #59, #36, #167 ) ;
#211 = CARTESIAN_POINT ( 'NONE',  ( 0.000000000000000000, 0.000000000000000000, 0.000000000000000000 ) ) ;
#212 = APPROVAL_ROLE ( '' ) ;
#213 = CARTESIAN_POINT ( 'NONE',  ( 0.000000000000000000, 0.000000000000000000, 5.199999999999982414 ) ) ;
#214 = CYLINDRICAL_SURFACE ( 'NONE', #60, 8.000000000000000000 ) ;
#215 = CC_DESIGN_DATE_AND_TIME_ASSIGNMENT ( #172, #151, ( #195 ) ) ;
#216 = AXIS2_PLACEMENT_3D ( 'NONE', #94, #288, #187 ) ;
#217 = CIRCLE ( 'NONE', #100, 5.699999999999999289 ) ;
#218 = CARTESIAN_POINT ( 'NONE',  ( 5.699999999999999289, 0.000000000000000000, 5.199999999999982414 ) ) ;
#219 = CIRCLE ( 'NONE', #142, 5.500000000000000000 ) ;
#220 = TOROIDAL_SURFACE ( 'NONE', #86, 5.699999999999999289, 0.2000000000000000111 ) ;
#221 = DIRECTION ( 'NONE',  ( -1.000000000000000000, 1.224646799147353454E-16, 0.000000000000000000 ) ) ;
#222 = AXIS2_PLACEMENT_3D ( 'NONE', #306, #180, #284 ) ;
#223 = ORIENTED_EDGE ( 'NONE', *, *, #202, .F. ) ;
#224 = APPROVAL ( #118, 'NEURÈENÝ' ) ;
#225 = ORIENTED_EDGE ( 'NONE', *, *, #103, .F. ) ;
#226 = VECTOR ( 'NONE', #29, 1000.000000000000000 ) ;
#227 = LOCAL_TIME ( 11, 33, 59.00000000000000000, #237 ) ;
#228 = EDGE_LOOP ( 'NONE', ( #266, #304, #69, #132 ) ) ;
#229 = DIRECTION ( 'NONE',  ( -1.000000000000000000, 0.000000000000000000, 0.000000000000000000 ) ) ;
#230 = DIRECTION ( 'NONE',  ( 0.000000000000000000, 0.000000000000000000, 1.000000000000000000 ) ) ;
#231 = AXIS2_PLACEMENT_3D ( 'NONE', #211, #190, #160 ) ;
#232 = AXIS2_PLACEMENT_3D ( 'NONE', #274, #125, #221 ) ;
#233 = DIRECTION ( 'NONE',  ( 1.000000000000000000, 0.000000000000000000, -0.000000000000000000 ) ) ;
#234 = EDGE_CURVE ( 'NONE', #278, #105, #293, .T. ) ;
#235 = APPROVAL_DATE_TIME ( #4, #224 ) ;
#236 = FACE_OUTER_BOUND ( 'NONE', #228, .T. ) ;
#237 = COORDINATED_UNIVERSAL_TIME_OFFSET ( 1, 0, .AHEAD. ) ;
#238 = CARTESIAN_POINT ( 'NONE',  ( 0.000000000000000000, 0.000000000000000000, 1004.999999999999886 ) ) ;
#239 = LOCAL_TIME ( 11, 33, 59.00000000000000000, #301 ) ;
#240 = CALENDAR_DATE ( 2022, 20, 6 ) ;
#241 = DIRECTION ( 'NONE',  ( 0.000000000000000000, 0.000000000000000000, 1.000000000000000000 ) ) ;
#242 = ADVANCED_FACE ( 'NONE', ( #15, #14 ), #55, .T. ) ;
#243 = CARTESIAN_POINT ( 'NONE',  ( 0.000000000000000000, 0.000000000000000000, 0.000000000000000000 ) ) ;
#244 = CARTESIAN_POINT ( 'NONE',  ( 0.000000000000000000, 0.000000000000000000, 5.199999999999982414 ) ) ;
#245 = DIRECTION ( 'NONE',  ( -0.000000000000000000, -0.000000000000000000, -1.000000000000000000 ) ) ;
#246 = CARTESIAN_POINT ( 'NONE',  ( 0.000000000000000000, 0.000000000000000000, 5.000000000000000000 ) ) ;
#247 = APPROVAL_DATE_TIME ( #17, #36 ) ;
#248 = CC_DESIGN_PERSON_AND_ORGANIZATION_ASSIGNMENT ( #294, #272, ( #176 ) ) ;
#249 = CARTESIAN_POINT ( 'NONE',  ( -8.000000000000000000, 0.000000000000000000, 5.000000000000000000 ) ) ;
#250 = PERSON_AND_ORGANIZATION_ROLE ( 'classification_officer' ) ;
#251 = ORIENTED_EDGE ( 'NONE', *, *, #175, .F. ) ;
#252 = FACE_OUTER_BOUND ( 'NONE', #129, .T. ) ;
#253 = CC_DESIGN_APPROVAL ( #224, ( #255 ) ) ;
#254 = ORIENTED_EDGE ( 'NONE', *, *, #131, .F. ) ;
#255 = PRODUCT_DEFINITION ( 'NEZNÁMÝ', '', #264, #65 ) ;
#256 = ADVANCED_BREP_SHAPE_REPRESENTATION ( '7981', ( #19, #200 ), #283 ) ;
#257 = ORIENTED_EDGE ( 'NONE', *, *, #12, .F. ) ;
#258 = ORIENTED_EDGE ( 'NONE', *, *, #234, .T. ) ;
#259 = CIRCLE ( 'NONE', #161, 5.500000000000000000 ) ;
#260 = AXIS2_PLACEMENT_3D ( 'NONE', #134, #230, #73 ) ;
#261 = CARTESIAN_POINT ( 'NONE',  ( -5.699999999999999289, 6.980486755139912122E-16, 4.999999999999991118 ) ) ;
#262 = DIRECTION ( 'NONE',  ( 0.000000000000000000, 0.000000000000000000, 1.000000000000000000 ) ) ;
#263 = DIRECTION ( 'NONE',  ( 1.000000000000000000, 0.000000000000000000, 0.000000000000000000 ) ) ;
#264 = PRODUCT_DEFINITION_FORMATION_WITH_SPECIFIED_SOURCE ( 'LIBOVOLNÝ', '', #176, .NOT_KNOWN. ) ;
#265 = MECHANICAL_CONTEXT ( 'NONE', #135, 'mechanical' ) ;
#266 = ORIENTED_EDGE ( 'NONE', *, *, #110, .F. ) ;
#267 = CARTESIAN_POINT ( 'NONE',  ( 5.500000000000000000, 6.735557395310442023E-16, 5.199999999999982414 ) ) ;
#268 = PERSON_AND_ORGANIZATION ( #56, #61 ) ;
#269 = APPROVAL_DATE_TIME ( #33, #124 ) ;
#270 = DIRECTION ( 'NONE',  ( -0.000000000000000000, -0.000000000000000000, -1.000000000000000000 ) ) ;
#271 = CARTESIAN_POINT ( 'NONE',  ( 5.500000000000000000, 6.735557395310442023E-16, 1004.999999999999886 ) ) ;
#272 = PERSON_AND_ORGANIZATION_ROLE ( 'design_owner' ) ;
#273 = DIRECTION ( 'NONE',  ( 0.000000000000000000, 0.000000000000000000, 1.000000000000000000 ) ) ;
#274 = CARTESIAN_POINT ( 'NONE',  ( -5.699999999999999289, 6.980486755139912122E-16, 5.199999999999982414 ) ) ;
#275 = ADVANCED_FACE ( 'NONE', ( #82 ), #173, .F. ) ;
#276 = CARTESIAN_POINT ( 'NONE',  ( 0.000000000000000000, 0.000000000000000000, 5.000000000000000000 ) ) ;
#277 = LOCAL_TIME ( 11, 33, 59.00000000000000000, #143 ) ;
#278 = VERTEX_POINT ( 'NONE', #39 ) ;
#279 = APPROVAL_STATUS ( 'not_yet_approved' ) ;
#280 = APPROVAL_PERSON_ORGANIZATION ( #268, #124, #212 ) ;
#281 = ORIENTED_EDGE ( 'NONE', *, *, #12, .T. ) ;
#282 = VERTEX_POINT ( 'NONE', #152 ) ;
#283 =( GEOMETRIC_REPRESENTATION_CONTEXT ( 3 ) GLOBAL_UNCERTAINTY_ASSIGNED_CONTEXT ( ( #26 ) ) GLOBAL_UNIT_ASSIGNED_CONTEXT ( ( #34, #9, #198 ) ) REPRESENTATION_CONTEXT ( 'NONE', 'WORKASPACE' ) );
#284 = DIRECTION ( 'NONE',  ( 1.000000000000000000, 0.000000000000000000, 0.000000000000000000 ) ) ;
#285 = CARTESIAN_POINT ( 'NONE',  ( -5.500000000000000000, 0.000000000000000000, 1004.999999999999886 ) ) ;
#286 = ADVANCED_FACE ( 'NONE', ( #252 ), #220, .F. ) ;
#287 = PERSON_AND_ORGANIZATION ( #56, #61 ) ;
#288 = DIRECTION ( 'NONE',  ( 0.000000000000000000, 0.000000000000000000, 1.000000000000000000 ) ) ;
#289 = CIRCLE ( 'NONE', #209, 0.1999999999999996503 ) ;
#290 = AXIS2_PLACEMENT_3D ( 'NONE', #246, #81, #165 ) ;
#291 = DIRECTION ( 'NONE',  ( -0.000000000000000000, -0.000000000000000000, -1.000000000000000000 ) ) ;
#292 = CARTESIAN_POINT ( 'NONE',  ( 8.000000000000000000, 9.797174393178825657E-16, 5.000000000000000000 ) ) ;
#293 = CIRCLE ( 'NONE', #232, 0.1999999999999996503 ) ;
#294 = PERSON_AND_ORGANIZATION ( #56, #61 ) ;
#295 = CALENDAR_DATE ( 2022, 20, 6 ) ;
#296 = CC_DESIGN_PERSON_AND_ORGANIZATION_ASSIGNMENT ( #182, #35, ( #264 ) ) ;
#297 = DIRECTION ( 'NONE',  ( 1.000000000000000000, 0.000000000000000000, -0.000000000000000000 ) ) ;
#298 = PRODUCT_DEFINITION_SHAPE ( 'NONE', 'NONE',  #255 ) ;
#299 = CIRCLE ( 'NONE', #185, 5.699999999999999289 ) ;
#300 = EDGE_CURVE ( 'NONE', #126, #105, #299, .T. ) ;
#301 = COORDINATED_UNIVERSAL_TIME_OFFSET ( 1, 0, .AHEAD. ) ;
#302 = VERTEX_POINT ( 'NONE', #271 ) ;
#303 = ORIENTED_EDGE ( 'NONE', *, *, #57, .F. ) ;
#304 = ORIENTED_EDGE ( 'NONE', *, *, #57, .T. ) ;
#305 = ORIENTED_EDGE ( 'NONE', *, *, #21, .T. ) ;
#306 = CARTESIAN_POINT ( 'NONE',  ( 0.000000000000000000, 0.000000000000000000, 0.000000000000000000 ) ) ;
#307 = LOCAL_TIME ( 11, 33, 59.00000000000000000, #164 ) ;
ENDSEC;
END-ISO-10303-21;
