ISO-10303-21;
HEADER;
FILE_DESCRIPTION (( 'STEP AP203' ),
    '1' );
FILE_NAME ('61f5.STEP',
    '2022-06-20T10:02:38',
    ( '' ),
    ( '' ),
    'SwSTEP 2.0',
    'SolidWorks 2019',
    '' );
FILE_SCHEMA (( 'CONFIG_CONTROL_DESIGN' ));
ENDSEC;

DATA;
#1 = FACE_OUTER_BOUND ( 'NONE', #222, .T. ) ;
#2 = CARTESIAN_POINT ( 'NONE',  ( -2.500000000000000000, 0.000000000000000000, 1002.999999999999886 ) ) ;
#3 = AXIS2_PLACEMENT_3D ( 'NONE', #274, #297, #152 ) ;
#4 = CIRCLE ( 'NONE', #118, 5.000000000000000000 ) ;
#5 = DIRECTION ( 'NONE',  ( 0.000000000000000000, 0.000000000000000000, 1.000000000000000000 ) ) ;
#6 = AXIS2_PLACEMENT_3D ( 'NONE', #256, #259, #262 ) ;
#7 = AXIS2_PLACEMENT_3D ( 'NONE', #57, #203, #8 ) ;
#8 = DIRECTION ( 'NONE',  ( -1.000000000000000000, 0.000000000000000000, 0.000000000000000000 ) ) ;
#9 = CYLINDRICAL_SURFACE ( 'NONE', #117, 2.500000000000000000 ) ;
#10 = EDGE_CURVE ( 'NONE', #68, #20, #156, .T. ) ;
#11 = CALENDAR_DATE ( 2022, 20, 6 ) ;
#12 = PRODUCT_DEFINITION_FORMATION_WITH_SPECIFIED_SOURCE ( 'LIBOVOLNÝ', '', #223, .NOT_KNOWN. ) ;
#13 = CARTESIAN_POINT ( 'NONE',  ( 0.000000000000000000, 0.000000000000000000, 0.000000000000000000 ) ) ;
#14 = CARTESIAN_POINT ( 'NONE',  ( 2.500000000000000000, 3.061616997868383141E-16, 1002.999999999999886 ) ) ;
#15 = AXIS2_PLACEMENT_3D ( 'NONE', #307, #67, #163 ) ;
#16 = CARTESIAN_POINT ( 'NONE',  ( 0.000000000000000000, 0.000000000000000000, 3.000000000000000000 ) ) ;
#17 = ORIENTED_EDGE ( 'NONE', *, *, #269, .F. ) ;
#18 = EDGE_CURVE ( 'NONE', #58, #135, #217, .T. ) ;
#19 = PERSON_AND_ORGANIZATION ( #280, #38 ) ;
#20 = VERTEX_POINT ( 'NONE', #2 ) ;
#21 = CARTESIAN_POINT ( 'NONE',  ( 0.000000000000000000, 0.000000000000000000, 3.000000000000000000 ) ) ;
#22 = DATE_TIME_ROLE ( 'classification_date' ) ;
#23 = AXIS2_PLACEMENT_3D ( 'NONE', #240, #233, #71 ) ;
#24 = DIRECTION ( 'NONE',  ( -1.000000000000000000, 0.000000000000000000, 0.000000000000000000 ) ) ;
#25 = ORIENTED_EDGE ( 'NONE', *, *, #153, .T. ) ;
#26 = TOROIDAL_SURFACE ( 'NONE', #126, 2.700000000000000178, 0.2000000000000000111 ) ;
#27 = EDGE_LOOP ( 'NONE', ( #76, #192 ) ) ;
#28 = ORIENTED_EDGE ( 'NONE', *, *, #134, .F. ) ;
#29 = ORIENTED_EDGE ( 'NONE', *, *, #31, .T. ) ;
#30 = LINE ( 'NONE', #229, #34 ) ;
#31 = EDGE_CURVE ( 'NONE', #194, #135, #97, .T. ) ;
#32 = DIRECTION ( 'NONE',  ( 0.000000000000000000, 0.000000000000000000, 1.000000000000000000 ) ) ;
#33 = CIRCLE ( 'NONE', #15, 2.700000000000000178 ) ;
#34 = VECTOR ( 'NONE', #35, 1000.000000000000000 ) ;
#35 = DIRECTION ( 'NONE',  ( -0.000000000000000000, -0.000000000000000000, -1.000000000000000000 ) ) ;
#36 = DIRECTION ( 'NONE',  ( -0.000000000000000000, -0.000000000000000000, -1.000000000000000000 ) ) ;
#37 = CLOSED_SHELL ( 'NONE', ( #81, #303, #241, #100, #171, #228, #88, #92, #165 ) ) ;
#38 = ORGANIZATION ( 'NEURÈENÝ', 'NEURÈENÝ', '' ) ;
#39 = PERSON_AND_ORGANIZATION ( #280, #38 ) ;
#40 = PERSON_AND_ORGANIZATION_ROLE ( 'design_supplier' ) ;
#41 = DIRECTION ( 'NONE',  ( 0.000000000000000000, 0.000000000000000000, 1.000000000000000000 ) ) ;
#42 = PERSON_AND_ORGANIZATION ( #280, #38 ) ;
#43 = EDGE_LOOP ( 'NONE', ( #90, #169 ) ) ;
#44 = AXIS2_PLACEMENT_3D ( 'NONE', #193, #146, #288 ) ;
#45 = APPROVAL_PERSON_ORGANIZATION ( #19, #181, #234 ) ;
#46 = DIRECTION ( 'NONE',  ( 1.000000000000000000, 0.000000000000000000, 0.000000000000000000 ) ) ;
#47 = CALENDAR_DATE ( 2022, 20, 6 ) ;
#48 = FACE_OUTER_BOUND ( 'NONE', #43, .T. ) ;
#49 = FACE_OUTER_BOUND ( 'NONE', #50, .T. ) ;
#50 = EDGE_LOOP ( 'NONE', ( #116, #174, #286, #249 ) ) ;
#51 = AXIS2_PLACEMENT_3D ( 'NONE', #184, #304, #46 ) ;
#52 = LOCAL_TIME ( 12, 2, 38.00000000000000000, #227 ) ;
#53 = VERTEX_POINT ( 'NONE', #295 ) ;
#54 = DIRECTION ( 'NONE',  ( 1.000000000000000000, 0.000000000000000000, 0.000000000000000000 ) ) ;
#55 = EDGE_CURVE ( 'NONE', #53, #58, #275, .T. ) ;
#56 = VERTEX_POINT ( 'NONE', #180 ) ;
#57 = CARTESIAN_POINT ( 'NONE',  ( 0.000000000000000000, 0.000000000000000000, 1002.999999999999886 ) ) ;
#58 = VERTEX_POINT ( 'NONE', #278 ) ;
#59 = APPLICATION_CONTEXT ( 'configuration controlled 3d designs of mechanical parts and assemblies' ) ;
#60 = APPROVAL_DATE_TIME ( #231, #201 ) ;
#61 = AXIS2_PLACEMENT_3D ( 'NONE', #21, #41, #160 ) ;
#62 = CC_DESIGN_APPROVAL ( #181, ( #250 ) ) ;
#63 = EDGE_CURVE ( 'NONE', #149, #187, #136, .T. ) ;
#64 = FACE_OUTER_BOUND ( 'NONE', #83, .T. ) ;
#65 = ORIENTED_EDGE ( 'NONE', *, *, #199, .F. ) ;
#66 = PRODUCT_RELATED_PRODUCT_CATEGORY ( 'detail', '', ( #223 ) ) ;
#67 = DIRECTION ( 'NONE',  ( -0.000000000000000000, -0.000000000000000000, -1.000000000000000000 ) ) ;
#68 = VERTEX_POINT ( 'NONE', #14 ) ;
#69 = PERSON_AND_ORGANIZATION_ROLE ( 'creator' ) ;
#70 = CARTESIAN_POINT ( 'NONE',  ( 0.000000000000000000, 0.000000000000000000, 1002.999999999999886 ) ) ;
#71 = DIRECTION ( 'NONE',  ( -1.000000000000000000, 0.000000000000000000, 0.000000000000000000 ) ) ;
#72 = ORIENTED_EDGE ( 'NONE', *, *, #109, .F. ) ;
#73 = UNCERTAINTY_MEASURE_WITH_UNIT (LENGTH_MEASURE( 1.000000000000000082E-05 ), #277, 'distance_accuracy_value', 'NONE');
#74 = DIRECTION ( 'NONE',  ( -0.000000000000000000, -0.000000000000000000, -1.000000000000000000 ) ) ;
#75 = APPLICATION_CONTEXT ( 'configuration controlled 3d designs of mechanical parts and assemblies' ) ;
#76 = ORIENTED_EDGE ( 'NONE', *, *, #199, .T. ) ;
#77 = DIRECTION ( 'NONE',  ( 0.000000000000000000, 0.000000000000000000, 1.000000000000000000 ) ) ;
#78 = ORIENTED_EDGE ( 'NONE', *, *, #115, .F. ) ;
#79 = DESIGN_CONTEXT ( 'detailed design', #75, 'design' ) ;
#80 = AXIS2_PLACEMENT_3D ( 'NONE', #70, #190, #285 ) ;
#81 = ADVANCED_FACE ( 'NONE', ( #207 ), #26, .F. ) ;
#82 = APPLICATION_PROTOCOL_DEFINITION ( 'international standard', 'config_control_design', 1994, #59 ) ;
#83 = EDGE_LOOP ( 'NONE', ( #271, #72, #93, #212 ) ) ;
#84 = PERSON_AND_ORGANIZATION_ROLE ( 'creator' ) ;
#85 =( NAMED_UNIT ( * ) SI_UNIT ( $, .STERADIAN. ) SOLID_ANGLE_UNIT ( ) );
#86 = LOCAL_TIME ( 12, 2, 38.00000000000000000, #208 ) ;
#87 = FACE_OUTER_BOUND ( 'NONE', #283, .T. ) ;
#88 = ADVANCED_FACE ( 'NONE', ( #251 ), #9, .T. ) ;
#89 = CARTESIAN_POINT ( 'NONE',  ( -2.700000000000000178, 3.306546357697853733E-16, 2.999999999999990674 ) ) ;
#90 = ORIENTED_EDGE ( 'NONE', *, *, #134, .T. ) ;
#91 = AXIS2_PLACEMENT_3D ( 'NONE', #247, #5, #218 ) ;
#92 = ADVANCED_FACE ( 'NONE', ( #48 ), #209, .T. ) ;
#93 = ORIENTED_EDGE ( 'NONE', *, *, #18, .T. ) ;
#94 = CC_DESIGN_DATE_AND_TIME_ASSIGNMENT ( #260, #22, ( #250 ) ) ;
#95 = ADVANCED_BREP_SHAPE_REPRESENTATION ( '61f5', ( #239, #172 ), #157 ) ;
#96 = EDGE_LOOP ( 'NONE', ( #17, #290, #65, #101 ) ) ;
#97 = CIRCLE ( 'NONE', #3, 5.000000000000000000 ) ;
#98 = CARTESIAN_POINT ( 'NONE',  ( 0.000000000000000000, 0.000000000000000000, 3.000000000000000000 ) ) ;
#99 = DIRECTION ( 'NONE',  ( 1.000000000000000000, 0.000000000000000000, 0.000000000000000000 ) ) ;
#100 = ADVANCED_FACE ( 'NONE', ( #64 ), #139, .T. ) ;
#101 = ORIENTED_EDGE ( 'NONE', *, *, #213, .F. ) ;
#102 = CYLINDRICAL_SURFACE ( 'NONE', #265, 5.000000000000000000 ) ;
#103 = VECTOR ( 'NONE', #191, 1000.000000000000000 ) ;
#104 = ORIENTED_EDGE ( 'NONE', *, *, #244, .F. ) ;
#105 = MECHANICAL_CONTEXT ( 'NONE', #59, 'mechanical' ) ;
#106 = CARTESIAN_POINT ( 'NONE',  ( 0.000000000000000000, 0.000000000000000000, 1002.999999999999886 ) ) ;
#107 = DATE_TIME_ROLE ( 'creation_date' ) ;
#108 = DIRECTION ( 'NONE',  ( 1.224646799147353207E-16, 1.000000000000000000, -0.000000000000000000 ) ) ;
#109 = EDGE_CURVE ( 'NONE', #58, #53, #197, .T. ) ;
#110 = DATE_AND_TIME ( #11, #52 ) ;
#111 = CARTESIAN_POINT ( 'NONE',  ( 2.700000000000000178, 0.000000000000000000, 2.999999999999990674 ) ) ;
#112 = CARTESIAN_POINT ( 'NONE',  ( -5.000000000000000000, 0.000000000000000000, 0.000000000000000000 ) ) ;
#113 = APPROVAL_DATE_TIME ( #300, #181 ) ;
#114 = DIRECTION ( 'NONE',  ( 0.000000000000000000, 0.000000000000000000, 1.000000000000000000 ) ) ;
#115 = EDGE_CURVE ( 'NONE', #20, #149, #258, .T. ) ;
#116 = ORIENTED_EDGE ( 'NONE', *, *, #63, .F. ) ;
#117 = AXIS2_PLACEMENT_3D ( 'NONE', #106, #36, #226 ) ;
#118 = AXIS2_PLACEMENT_3D ( 'NONE', #216, #121, #266 ) ;
#119 = DIRECTION ( 'NONE',  ( 1.000000000000000000, 0.000000000000000000, -0.000000000000000000 ) ) ;
#120 = CARTESIAN_POINT ( 'NONE',  ( 0.000000000000000000, 0.000000000000000000, 1002.999999999999886 ) ) ;
#121 = DIRECTION ( 'NONE',  ( 0.000000000000000000, 0.000000000000000000, 1.000000000000000000 ) ) ;
#122 = LOCAL_TIME ( 12, 2, 38.00000000000000000, #148 ) ;
#123 = ORIENTED_EDGE ( 'NONE', *, *, #31, .F. ) ;
#124 = FACE_OUTER_BOUND ( 'NONE', #236, .T. ) ;
#125 = CC_DESIGN_PERSON_AND_ORGANIZATION_ASSIGNMENT ( #175, #254, ( #223 ) ) ;
#126 = AXIS2_PLACEMENT_3D ( 'NONE', #159, #32, #127 ) ;
#127 = DIRECTION ( 'NONE',  ( 1.000000000000000000, 0.000000000000000000, 0.000000000000000000 ) ) ;
#128 = LOCAL_TIME ( 12, 2, 38.00000000000000000, #185 ) ;
#129 = CARTESIAN_POINT ( 'NONE',  ( 5.000000000000000000, 6.123233995736766282E-16, 3.000000000000000000 ) ) ;
#130 = COORDINATED_UNIVERSAL_TIME_OFFSET ( 1, 0, .AHEAD. ) ;
#131 = CARTESIAN_POINT ( 'NONE',  ( -2.700000000000000178, 3.306546357697853733E-16, 3.199999999999980638 ) ) ;
#132 = AXIS2_PLACEMENT_3D ( 'NONE', #232, #253, #293 ) ;
#133 = CALENDAR_DATE ( 2022, 20, 6 ) ;
#134 = EDGE_CURVE ( 'NONE', #20, #68, #140, .T. ) ;
#135 = VERTEX_POINT ( 'NONE', #112 ) ;
#136 = CIRCLE ( 'NONE', #188, 0.2000000000000000944 ) ;
#137 = CIRCLE ( 'NONE', #44, 0.2000000000000000944 ) ;
#138 = FACE_BOUND ( 'NONE', #27, .T. ) ;
#139 = CYLINDRICAL_SURFACE ( 'NONE', #23, 5.000000000000000000 ) ;
#140 = CIRCLE ( 'NONE', #299, 2.500000000000000000 ) ;
#141 = CIRCLE ( 'NONE', #204, 2.500000000000000000 ) ;
#142 = ORIENTED_EDGE ( 'NONE', *, *, #109, .T. ) ;
#143 = CC_DESIGN_PERSON_AND_ORGANIZATION_ASSIGNMENT ( #282, #69, ( #12 ) ) ;
#144 = ORIENTED_EDGE ( 'NONE', *, *, #55, .F. ) ;
#145 = DIRECTION ( 'NONE',  ( 0.000000000000000000, 0.000000000000000000, 1.000000000000000000 ) ) ;
#146 = DIRECTION ( 'NONE',  ( 0.000000000000000000, -1.000000000000000000, 0.000000000000000000 ) ) ;
#147 = ORIENTED_EDGE ( 'NONE', *, *, #291, .T. ) ;
#148 = COORDINATED_UNIVERSAL_TIME_OFFSET ( 1, 0, .AHEAD. ) ;
#149 = VERTEX_POINT ( 'NONE', #161 ) ;
#150 = TOROIDAL_SURFACE ( 'NONE', #51, 2.700000000000000178, 0.2000000000000000111 ) ;
#151 = DIRECTION ( 'NONE',  ( 1.000000000000000000, 0.000000000000000000, 0.000000000000000000 ) ) ;
#152 = DIRECTION ( 'NONE',  ( 1.000000000000000000, 0.000000000000000000, 0.000000000000000000 ) ) ;
#153 = EDGE_CURVE ( 'NONE', #56, #149, #167, .T. ) ;
#154 =( NAMED_UNIT ( * ) PLANE_ANGLE_UNIT ( ) SI_UNIT ( $, .RADIAN. ) );
#155 = DIRECTION ( 'NONE',  ( -1.000000000000000000, 1.224646799147353207E-16, 0.000000000000000000 ) ) ;
#156 = CIRCLE ( 'NONE', #230, 2.500000000000000000 ) ;
#157 =( GEOMETRIC_REPRESENTATION_CONTEXT ( 3 ) GLOBAL_UNCERTAINTY_ASSIGNED_CONTEXT ( ( #73 ) ) GLOBAL_UNIT_ASSIGNED_CONTEXT ( ( #277, #154, #85 ) ) REPRESENTATION_CONTEXT ( 'NONE', 'WORKASPACE' ) );
#158 = CC_DESIGN_PERSON_AND_ORGANIZATION_ASSIGNMENT ( #183, #40, ( #12 ) ) ;
#159 = CARTESIAN_POINT ( 'NONE',  ( 0.000000000000000000, 0.000000000000000000, 3.199999999999980638 ) ) ;
#160 = DIRECTION ( 'NONE',  ( 1.000000000000000000, 0.000000000000000000, 0.000000000000000000 ) ) ;
#161 = CARTESIAN_POINT ( 'NONE',  ( -2.500000000000000000, 0.000000000000000000, 3.199999999999980638 ) ) ;
#162 = CIRCLE ( 'NONE', #220, 2.700000000000000178 ) ;
#163 = DIRECTION ( 'NONE',  ( 1.000000000000000000, 0.000000000000000000, 0.000000000000000000 ) ) ;
#164 = CARTESIAN_POINT ( 'NONE',  ( -2.500000000000000000, 0.000000000000000000, 1002.999999999999886 ) ) ;
#165 = ADVANCED_FACE ( 'NONE', ( #49 ), #150, .F. ) ;
#166 = ORIENTED_EDGE ( 'NONE', *, *, #18, .F. ) ;
#167 = CIRCLE ( 'NONE', #6, 2.500000000000000000 ) ;
#168 = APPROVAL_PERSON_ORGANIZATION ( #206, #201, #173 ) ;
#169 = ORIENTED_EDGE ( 'NONE', *, *, #10, .T. ) ;
#170 = DIRECTION ( 'NONE',  ( 1.000000000000000000, 0.000000000000000000, 0.000000000000000000 ) ) ;
#171 = ADVANCED_FACE ( 'NONE', ( #138, #242 ), #238, .T. ) ;
#172 = AXIS2_PLACEMENT_3D ( 'NONE', #13, #252, #151 ) ;
#173 = APPROVAL_ROLE ( '' ) ;
#174 = ORIENTED_EDGE ( 'NONE', *, *, #153, .F. ) ;
#175 = PERSON_AND_ORGANIZATION ( #280, #38 ) ;
#176 = APPROVAL_ROLE ( '' ) ;
#177 = CC_DESIGN_SECURITY_CLASSIFICATION ( #250, ( #12 ) ) ;
#178 = APPROVAL_DATE_TIME ( #110, #284 ) ;
#179 = CYLINDRICAL_SURFACE ( 'NONE', #7, 2.500000000000000000 ) ;
#180 = CARTESIAN_POINT ( 'NONE',  ( 2.500000000000000000, 3.061616997868383141E-16, 3.199999999999980638 ) ) ;
#181 = APPROVAL ( #281, 'NEURÈENÝ' ) ;
#182 = CALENDAR_DATE ( 2022, 20, 6 ) ;
#183 = PERSON_AND_ORGANIZATION ( #280, #38 ) ;
#184 = CARTESIAN_POINT ( 'NONE',  ( 0.000000000000000000, 0.000000000000000000, 3.199999999999980638 ) ) ;
#185 = COORDINATED_UNIVERSAL_TIME_OFFSET ( 1, 0, .AHEAD. ) ;
#186 = CARTESIAN_POINT ( 'NONE',  ( 5.000000000000000000, 6.123233995736766282E-16, 0.000000000000000000 ) ) ;
#187 = VERTEX_POINT ( 'NONE', #89 ) ;
#188 = AXIS2_PLACEMENT_3D ( 'NONE', #131, #108, #155 ) ;
#189 = PERSON_AND_ORGANIZATION_ROLE ( 'classification_officer' ) ;
#190 = DIRECTION ( 'NONE',  ( 0.000000000000000000, 0.000000000000000000, 1.000000000000000000 ) ) ;
#191 = DIRECTION ( 'NONE',  ( -0.000000000000000000, -0.000000000000000000, -1.000000000000000000 ) ) ;
#192 = ORIENTED_EDGE ( 'NONE', *, *, #255, .T. ) ;
#193 = CARTESIAN_POINT ( 'NONE',  ( 2.700000000000000178, 0.000000000000000000, 3.199999999999980638 ) ) ;
#194 = VERTEX_POINT ( 'NONE', #186 ) ;
#195 = CARTESIAN_POINT ( 'NONE',  ( 0.000000000000000000, 0.000000000000000000, 3.199999999999980638 ) ) ;
#196 = DIRECTION ( 'NONE',  ( -0.000000000000000000, -0.000000000000000000, -1.000000000000000000 ) ) ;
#197 = CIRCLE ( 'NONE', #61, 5.000000000000000000 ) ;
#198 = CARTESIAN_POINT ( 'NONE',  ( 0.000000000000000000, 0.000000000000000000, 3.000000000000000000 ) ) ;
#199 = EDGE_CURVE ( 'NONE', #289, #187, #33, .T. ) ;
#200 = APPLICATION_PROTOCOL_DEFINITION ( 'international standard', 'config_control_design', 1994, #75 ) ;
#201 = APPROVAL ( #205, 'NEURÈENÝ' ) ;
#202 = PERSON_AND_ORGANIZATION ( #280, #38 ) ;
#203 = DIRECTION ( 'NONE',  ( -0.000000000000000000, -0.000000000000000000, -1.000000000000000000 ) ) ;
#204 = AXIS2_PLACEMENT_3D ( 'NONE', #195, #77, #170 ) ;
#205 = APPROVAL_STATUS ( 'not_yet_approved' ) ;
#206 = PERSON_AND_ORGANIZATION ( #280, #38 ) ;
#207 = FACE_OUTER_BOUND ( 'NONE', #96, .T. ) ;
#208 = COORDINATED_UNIVERSAL_TIME_OFFSET ( 1, 0, .AHEAD. ) ;
#209 = PLANE ( 'NONE',  #80 ) ;
#210 = CC_DESIGN_APPROVAL ( #284, ( #12 ) ) ;
#211 = CARTESIAN_POINT ( 'NONE',  ( 0.000000000000000000, 0.000000000000000000, 1002.999999999999886 ) ) ;
#212 = ORIENTED_EDGE ( 'NONE', *, *, #244, .T. ) ;
#213 = EDGE_CURVE ( 'NONE', #56, #289, #137, .T. ) ;
#214 = ORIENTED_EDGE ( 'NONE', *, *, #291, .F. ) ;
#215 = VECTOR ( 'NONE', #196, 1000.000000000000000 ) ;
#216 = CARTESIAN_POINT ( 'NONE',  ( 0.000000000000000000, 0.000000000000000000, 0.000000000000000000 ) ) ;
#217 = LINE ( 'NONE', #245, #215 ) ;
#218 = DIRECTION ( 'NONE',  ( 1.000000000000000000, 0.000000000000000000, -0.000000000000000000 ) ) ;
#219 = ORIENTED_EDGE ( 'NONE', *, *, #115, .T. ) ;
#220 = AXIS2_PLACEMENT_3D ( 'NONE', #98, #74, #54 ) ;
#221 = CC_DESIGN_PERSON_AND_ORGANIZATION_ASSIGNMENT ( #39, #84, ( #257 ) ) ;
#222 = EDGE_LOOP ( 'NONE', ( #104, #123 ) ) ;
#223 = PRODUCT ( '61f5', '61f5', '', ( #105 ) ) ;
#224 = AXIS2_PLACEMENT_3D ( 'NONE', #16, #114, #119 ) ;
#225 = CC_DESIGN_APPROVAL ( #201, ( #257 ) ) ;
#226 = DIRECTION ( 'NONE',  ( -1.000000000000000000, 0.000000000000000000, 0.000000000000000000 ) ) ;
#227 = COORDINATED_UNIVERSAL_TIME_OFFSET ( 1, 0, .AHEAD. ) ;
#228 = ADVANCED_FACE ( 'NONE', ( #1 ), #264, .F. ) ;
#229 = CARTESIAN_POINT ( 'NONE',  ( 2.500000000000000000, 3.061616997868383141E-16, 1002.999999999999886 ) ) ;
#230 = AXIS2_PLACEMENT_3D ( 'NONE', #120, #145, #99 ) ;
#231 = DATE_AND_TIME ( #133, #270 ) ;
#232 = CARTESIAN_POINT ( 'NONE',  ( 0.000000000000000000, 0.000000000000000000, 3.000000000000000000 ) ) ;
#233 = DIRECTION ( 'NONE',  ( -0.000000000000000000, -0.000000000000000000, -1.000000000000000000 ) ) ;
#234 = APPROVAL_ROLE ( '' ) ;
#235 = DIRECTION ( 'NONE',  ( 0.000000000000000000, 0.000000000000000000, 1.000000000000000000 ) ) ;
#236 = EDGE_LOOP ( 'NONE', ( #144, #268, #29, #166 ) ) ;
#237 = SECURITY_CLASSIFICATION_LEVEL ( 'unclassified' ) ;
#238 = PLANE ( 'NONE',  #224 ) ;
#239 = MANIFOLD_SOLID_BREP ( 'Zaoblit1', #37 ) ;
#240 = CARTESIAN_POINT ( 'NONE',  ( 0.000000000000000000, 0.000000000000000000, 3.000000000000000000 ) ) ;
#241 = ADVANCED_FACE ( 'NONE', ( #124 ), #102, .T. ) ;
#242 = FACE_OUTER_BOUND ( 'NONE', #272, .T. ) ;
#243 = DIRECTION ( 'NONE',  ( -0.000000000000000000, -0.000000000000000000, -1.000000000000000000 ) ) ;
#244 = EDGE_CURVE ( 'NONE', #135, #194, #4, .T. ) ;
#245 = CARTESIAN_POINT ( 'NONE',  ( -5.000000000000000000, 0.000000000000000000, 3.000000000000000000 ) ) ;
#246 = ORIENTED_EDGE ( 'NONE', *, *, #55, .T. ) ;
#247 = CARTESIAN_POINT ( 'NONE',  ( 0.000000000000000000, 0.000000000000000000, 0.000000000000000000 ) ) ;
#248 = DATE_AND_TIME ( #273, #122 ) ;
#249 = ORIENTED_EDGE ( 'NONE', *, *, #255, .F. ) ;
#250 = SECURITY_CLASSIFICATION ( '', '', #237 ) ;
#251 = FACE_OUTER_BOUND ( 'NONE', #261, .T. ) ;
#252 = DIRECTION ( 'NONE',  ( 0.000000000000000000, 0.000000000000000000, 1.000000000000000000 ) ) ;
#253 = DIRECTION ( 'NONE',  ( 0.000000000000000000, 0.000000000000000000, 1.000000000000000000 ) ) ;
#254 = PERSON_AND_ORGANIZATION_ROLE ( 'design_owner' ) ;
#255 = EDGE_CURVE ( 'NONE', #187, #289, #162, .T. ) ;
#256 = CARTESIAN_POINT ( 'NONE',  ( 0.000000000000000000, 0.000000000000000000, 3.199999999999980638 ) ) ;
#257 = PRODUCT_DEFINITION ( 'NEZNÁMÝ', '', #12, #79 ) ;
#258 = LINE ( 'NONE', #164, #103 ) ;
#259 = DIRECTION ( 'NONE',  ( 0.000000000000000000, 0.000000000000000000, 1.000000000000000000 ) ) ;
#260 = DATE_AND_TIME ( #182, #128 ) ;
#261 = EDGE_LOOP ( 'NONE', ( #214, #28, #219, #302 ) ) ;
#262 = DIRECTION ( 'NONE',  ( 1.000000000000000000, 0.000000000000000000, 0.000000000000000000 ) ) ;
#263 = ORIENTED_EDGE ( 'NONE', *, *, #10, .F. ) ;
#264 = PLANE ( 'NONE',  #91 ) ;
#265 = AXIS2_PLACEMENT_3D ( 'NONE', #198, #243, #24 ) ;
#266 = DIRECTION ( 'NONE',  ( 1.000000000000000000, 0.000000000000000000, 0.000000000000000000 ) ) ;
#267 = PRODUCT_DEFINITION_SHAPE ( 'NONE', 'NONE',  #257 ) ;
#268 = ORIENTED_EDGE ( 'NONE', *, *, #287, .T. ) ;
#269 = EDGE_CURVE ( 'NONE', #149, #56, #141, .T. ) ;
#270 = LOCAL_TIME ( 12, 2, 38.00000000000000000, #130 ) ;
#271 = ORIENTED_EDGE ( 'NONE', *, *, #287, .F. ) ;
#272 = EDGE_LOOP ( 'NONE', ( #142, #246 ) ) ;
#273 = CALENDAR_DATE ( 2022, 20, 6 ) ;
#274 = CARTESIAN_POINT ( 'NONE',  ( 0.000000000000000000, 0.000000000000000000, 0.000000000000000000 ) ) ;
#275 = CIRCLE ( 'NONE', #132, 5.000000000000000000 ) ;
#276 = LINE ( 'NONE', #129, #306 ) ;
#277 =( LENGTH_UNIT ( ) NAMED_UNIT ( * ) SI_UNIT ( .MILLI., .METRE. ) );
#278 = CARTESIAN_POINT ( 'NONE',  ( -5.000000000000000000, 0.000000000000000000, 3.000000000000000000 ) ) ;
#279 = APPROVAL_PERSON_ORGANIZATION ( #202, #284, #176 ) ;
#280 = PERSON ( 'NEURÈENÝ', 'NEURÈENÝ', 'NEURÈENÝ', ('NEURÈENÝ'), ('NEURÈENÝ'), ('NEURÈENÝ') ) ;
#281 = APPROVAL_STATUS ( 'not_yet_approved' ) ;
#282 = PERSON_AND_ORGANIZATION ( #280, #38 ) ;
#283 = EDGE_LOOP ( 'NONE', ( #263, #147, #25, #78 ) ) ;
#284 = APPROVAL ( #292, 'NEURÈENÝ' ) ;
#285 = DIRECTION ( 'NONE',  ( 1.000000000000000000, 0.000000000000000000, -0.000000000000000000 ) ) ;
#286 = ORIENTED_EDGE ( 'NONE', *, *, #213, .T. ) ;
#287 = EDGE_CURVE ( 'NONE', #53, #194, #276, .T. ) ;
#288 = DIRECTION ( 'NONE',  ( 0.000000000000000000, 0.000000000000000000, -1.000000000000000000 ) ) ;
#289 = VERTEX_POINT ( 'NONE', #111 ) ;
#290 = ORIENTED_EDGE ( 'NONE', *, *, #63, .T. ) ;
#291 = EDGE_CURVE ( 'NONE', #68, #56, #30, .T. ) ;
#292 = APPROVAL_STATUS ( 'not_yet_approved' ) ;
#293 = DIRECTION ( 'NONE',  ( 1.000000000000000000, 0.000000000000000000, 0.000000000000000000 ) ) ;
#294 = CC_DESIGN_PERSON_AND_ORGANIZATION_ASSIGNMENT ( #42, #189, ( #250 ) ) ;
#295 = CARTESIAN_POINT ( 'NONE',  ( 5.000000000000000000, 6.123233995736766282E-16, 3.000000000000000000 ) ) ;
#296 = DIRECTION ( 'NONE',  ( -0.000000000000000000, -0.000000000000000000, -1.000000000000000000 ) ) ;
#297 = DIRECTION ( 'NONE',  ( 0.000000000000000000, 0.000000000000000000, 1.000000000000000000 ) ) ;
#298 = SHAPE_DEFINITION_REPRESENTATION ( #267, #95 ) ;
#299 = AXIS2_PLACEMENT_3D ( 'NONE', #211, #235, #301 ) ;
#300 = DATE_AND_TIME ( #47, #86 ) ;
#301 = DIRECTION ( 'NONE',  ( 1.000000000000000000, 0.000000000000000000, 0.000000000000000000 ) ) ;
#302 = ORIENTED_EDGE ( 'NONE', *, *, #269, .T. ) ;
#303 = ADVANCED_FACE ( 'NONE', ( #87 ), #179, .T. ) ;
#304 = DIRECTION ( 'NONE',  ( 0.000000000000000000, 0.000000000000000000, 1.000000000000000000 ) ) ;
#305 = CC_DESIGN_DATE_AND_TIME_ASSIGNMENT ( #248, #107, ( #257 ) ) ;
#306 = VECTOR ( 'NONE', #296, 1000.000000000000000 ) ;
#307 = CARTESIAN_POINT ( 'NONE',  ( 0.000000000000000000, 0.000000000000000000, 3.000000000000000000 ) ) ;
ENDSEC;
END-ISO-10303-21;
