ISO-10303-21;
HEADER;
FILE_DESCRIPTION (( 'STEP AP203' ),
    '1' );
FILE_NAME ('807f.STEP',
    '2022-06-20T09:47:59',
    ( '' ),
    ( '' ),
    'SwSTEP 2.0',
    'SolidWorks 2019',
    '' );
FILE_SCHEMA (( 'CONFIG_CONTROL_DESIGN' ));
ENDSEC;

DATA;
#1 = VECTOR ( 'NONE', #159, 1000.000000000000000 ) ;
#2 = DIRECTION ( 'NONE',  ( 0.000000000000000000, 0.000000000000000000, 1.000000000000000000 ) ) ;
#3 = ORIENTED_EDGE ( 'NONE', *, *, #35, .T. ) ;
#4 = CALENDAR_DATE ( 2022, 20, 6 ) ;
#5 = CC_DESIGN_PERSON_AND_ORGANIZATION_ASSIGNMENT ( #127, #214, ( #194 ) ) ;
#6 = EDGE_LOOP ( 'NONE', ( #151, #52 ) ) ;
#7 = APPROVAL_DATE_TIME ( #25, #203 ) ;
#8 = AXIS2_PLACEMENT_3D ( 'NONE', #144, #274, #28 ) ;
#9 = ORIENTED_EDGE ( 'NONE', *, *, #166, .F. ) ;
#10 = SHAPE_DEFINITION_REPRESENTATION ( #99, #231 ) ;
#11 = DIRECTION ( 'NONE',  ( 1.000000000000000000, 0.000000000000000000, 0.000000000000000000 ) ) ;
#12 = LOCAL_TIME ( 11, 47, 59.00000000000000000, #81 ) ;
#13 = ORIENTED_EDGE ( 'NONE', *, *, #59, .F. ) ;
#14 = APPROVAL_STATUS ( 'not_yet_approved' ) ;
#15 = CARTESIAN_POINT ( 'NONE',  ( 7.000000000000000000, 8.572527594031473190E-16, 5.000000000000000000 ) ) ;
#16 = CC_DESIGN_DATE_AND_TIME_ASSIGNMENT ( #150, #54, ( #240 ) ) ;
#17 = ORIENTED_EDGE ( 'NONE', *, *, #94, .F. ) ;
#18 = CARTESIAN_POINT ( 'NONE',  ( 0.000000000000000000, 0.000000000000000000, 0.000000000000000000 ) ) ;
#19 = VECTOR ( 'NONE', #71, 1000.000000000000000 ) ;
#20 = CARTESIAN_POINT ( 'NONE',  ( 4.000000000000000000, 4.898587196589412829E-16, 805.0000000000000000 ) ) ;
#21 = DIRECTION ( 'NONE',  ( 1.000000000000000000, 0.000000000000000000, -0.000000000000000000 ) ) ;
#22 = DIRECTION ( 'NONE',  ( 1.000000000000000000, 0.000000000000000000, 0.000000000000000000 ) ) ;
#23 = LOCAL_TIME ( 11, 47, 59.00000000000000000, #290 ) ;
#24 = DIRECTION ( 'NONE',  ( 0.000000000000000000, 0.000000000000000000, 1.000000000000000000 ) ) ;
#25 = DATE_AND_TIME ( #4, #245 ) ;
#26 = VERTEX_POINT ( 'NONE', #298 ) ;
#27 = CIRCLE ( 'NONE', #188, 7.000000000000000000 ) ;
#28 = DIRECTION ( 'NONE',  ( -1.000000000000000000, 0.000000000000000000, 0.000000000000000000 ) ) ;
#29 = SECURITY_CLASSIFICATION_LEVEL ( 'unclassified' ) ;
#30 = PERSON_AND_ORGANIZATION_ROLE ( 'creator' ) ;
#31 = VECTOR ( 'NONE', #191, 1000.000000000000000 ) ;
#32 = ORIENTED_EDGE ( 'NONE', *, *, #166, .T. ) ;
#33 = ORIENTED_EDGE ( 'NONE', *, *, #35, .F. ) ;
#34 = PLANE ( 'NONE',  #169 ) ;
#35 = EDGE_CURVE ( 'NONE', #145, #215, #280, .T. ) ;
#36 = PLANE ( 'NONE',  #85 ) ;
#37 = AXIS2_PLACEMENT_3D ( 'NONE', #87, #186, #286 ) ;
#38 = CARTESIAN_POINT ( 'NONE',  ( 0.000000000000000000, 0.000000000000000000, 5.199999999999982414 ) ) ;
#39 = ADVANCED_FACE ( 'NONE', ( #82 ), #36, .T. ) ;
#40 = CARTESIAN_POINT ( 'NONE',  ( 0.000000000000000000, 0.000000000000000000, 5.199999999999982414 ) ) ;
#41 = DIRECTION ( 'NONE',  ( 0.000000000000000000, 0.000000000000000000, 1.000000000000000000 ) ) ;
#42 = AXIS2_PLACEMENT_3D ( 'NONE', #66, #161, #212 ) ;
#43 = DIRECTION ( 'NONE',  ( -0.000000000000000000, -0.000000000000000000, -1.000000000000000000 ) ) ;
#44 = CARTESIAN_POINT ( 'NONE',  ( 4.000000000000000000, 4.898587196589412829E-16, 805.0000000000000000 ) ) ;
#45 = PRODUCT_RELATED_PRODUCT_CATEGORY ( 'detail', '', ( #194 ) ) ;
#46 = DIRECTION ( 'NONE',  ( -0.000000000000000000, -0.000000000000000000, -1.000000000000000000 ) ) ;
#47 = EDGE_CURVE ( 'NONE', #109, #55, #91, .T. ) ;
#48 = EDGE_LOOP ( 'NONE', ( #9, #132, #226, #221 ) ) ;
#49 = PERSON_AND_ORGANIZATION_ROLE ( 'creator' ) ;
#50 = EDGE_LOOP ( 'NONE', ( #180, #296, #204, #270 ) ) ;
#51 = APPROVAL_ROLE ( '' ) ;
#52 = ORIENTED_EDGE ( 'NONE', *, *, #291, .T. ) ;
#53 = EDGE_CURVE ( 'NONE', #198, #277, #75, .T. ) ;
#54 = DATE_TIME_ROLE ( 'classification_date' ) ;
#55 = VERTEX_POINT ( 'NONE', #207 ) ;
#56 = CIRCLE ( 'NONE', #72, 4.000000000000000000 ) ;
#57 = DIRECTION ( 'NONE',  ( 0.000000000000000000, 0.000000000000000000, -1.000000000000000000 ) ) ;
#58 = CARTESIAN_POINT ( 'NONE',  ( 7.000000000000000000, 8.572527594031473190E-16, 0.000000000000000000 ) ) ;
#59 = EDGE_CURVE ( 'NONE', #215, #145, #56, .T. ) ;
#60 = CARTESIAN_POINT ( 'NONE',  ( -7.000000000000000000, 0.000000000000000000, 5.000000000000000000 ) ) ;
#61 = DIRECTION ( 'NONE',  ( -0.000000000000000000, -0.000000000000000000, -1.000000000000000000 ) ) ;
#62 = CC_DESIGN_APPROVAL ( #156, ( #196 ) ) ;
#63 = LOCAL_TIME ( 11, 47, 59.00000000000000000, #148 ) ;
#64 = EDGE_CURVE ( 'NONE', #253, #129, #228, .T. ) ;
#65 = DIRECTION ( 'NONE',  ( 1.000000000000000000, 0.000000000000000000, 0.000000000000000000 ) ) ;
#66 = CARTESIAN_POINT ( 'NONE',  ( 0.000000000000000000, 0.000000000000000000, 5.000000000000000000 ) ) ;
#67 = CARTESIAN_POINT ( 'NONE',  ( -4.200000000000000178, 5.143516556418882928E-16, 5.199999999999982414 ) ) ;
#68 = APPROVAL_PERSON_ORGANIZATION ( #250, #102, #157 ) ;
#69 = CARTESIAN_POINT ( 'NONE',  ( 0.000000000000000000, 0.000000000000000000, 5.000000000000000000 ) ) ;
#70 = PRODUCT_DEFINITION ( 'NEZNÁMÝ', '', #196, #88 ) ;
#71 = DIRECTION ( 'NONE',  ( -0.000000000000000000, -0.000000000000000000, -1.000000000000000000 ) ) ;
#72 = AXIS2_PLACEMENT_3D ( 'NONE', #278, #160, #258 ) ;
#73 = DATE_AND_TIME ( #104, #23 ) ;
#74 = MANIFOLD_SOLID_BREP ( 'Zaoblit1', #141 ) ;
#75 = CIRCLE ( 'NONE', #223, 4.000000000000000000 ) ;
#76 = CALENDAR_DATE ( 2022, 20, 6 ) ;
#77 = EDGE_LOOP ( 'NONE', ( #154, #122, #257, #17 ) ) ;
#78 = COORDINATED_UNIVERSAL_TIME_OFFSET ( 1, 0, .AHEAD. ) ;
#79 = AXIS2_PLACEMENT_3D ( 'NONE', #210, #43, #138 ) ;
#80 = CARTESIAN_POINT ( 'NONE',  ( 4.200000000000000178, 0.000000000000000000, 5.199999999999982414 ) ) ;
#81 = COORDINATED_UNIVERSAL_TIME_OFFSET ( 1, 0, .AHEAD. ) ;
#82 = FACE_OUTER_BOUND ( 'NONE', #153, .T. ) ;
#83 = DIRECTION ( 'NONE',  ( 1.000000000000000000, 0.000000000000000000, 0.000000000000000000 ) ) ;
#84 = DIRECTION ( 'NONE',  ( 0.000000000000000000, 0.000000000000000000, 1.000000000000000000 ) ) ;
#85 = AXIS2_PLACEMENT_3D ( 'NONE', #230, #84, #133 ) ;
#86 = ORIENTED_EDGE ( 'NONE', *, *, #106, .F. ) ;
#87 = CARTESIAN_POINT ( 'NONE',  ( 0.000000000000000000, 0.000000000000000000, 5.000000000000000000 ) ) ;
#88 = DESIGN_CONTEXT ( 'detailed design', #115, 'design' ) ;
#89 = CARTESIAN_POINT ( 'NONE',  ( -4.000000000000000000, 0.000000000000000000, 805.0000000000000000 ) ) ;
#90 = CC_DESIGN_PERSON_AND_ORGANIZATION_ASSIGNMENT ( #273, #30, ( #196 ) ) ;
#91 = CIRCLE ( 'NONE', #271, 4.200000000000000178 ) ;
#92 = DIRECTION ( 'NONE',  ( -0.000000000000000000, -0.000000000000000000, -1.000000000000000000 ) ) ;
#93 = CARTESIAN_POINT ( 'NONE',  ( 0.000000000000000000, 0.000000000000000000, 0.000000000000000000 ) ) ;
#94 = EDGE_CURVE ( 'NONE', #26, #101, #155, .T. ) ;
#95 = PERSON_AND_ORGANIZATION_ROLE ( 'classification_officer' ) ;
#96 = AXIS2_PLACEMENT_3D ( 'NONE', #242, #116, #22 ) ;
#97 = DATE_AND_TIME ( #76, #63 ) ;
#98 = COORDINATED_UNIVERSAL_TIME_OFFSET ( 1, 0, .AHEAD. ) ;
#99 = PRODUCT_DEFINITION_SHAPE ( 'NONE', 'NONE',  #70 ) ;
#100 =( NAMED_UNIT ( * ) SI_UNIT ( $, .STERADIAN. ) SOLID_ANGLE_UNIT ( ) );
#101 = VERTEX_POINT ( 'NONE', #206 ) ;
#102 = APPROVAL ( #14, 'NEURÈENÝ' ) ;
#103 = LOCAL_TIME ( 11, 47, 59.00000000000000000, #78 ) ;
#104 = CALENDAR_DATE ( 2022, 20, 6 ) ;
#105 = ORIENTED_EDGE ( 'NONE', *, *, #59, .T. ) ;
#106 = EDGE_CURVE ( 'NONE', #277, #109, #256, .T. ) ;
#107 = DIRECTION ( 'NONE',  ( 0.000000000000000000, -1.000000000000000000, 0.000000000000000000 ) ) ;
#108 = AXIS2_PLACEMENT_3D ( 'NONE', #80, #107, #57 ) ;
#109 = VERTEX_POINT ( 'NONE', #199 ) ;
#110 = ADVANCED_FACE ( 'NONE', ( #232 ), #178, .F. ) ;
#111 = ORIENTED_EDGE ( 'NONE', *, *, #47, .T. ) ;
#112 = EDGE_LOOP ( 'NONE', ( #128, #13, #218, #202 ) ) ;
#113 = CC_DESIGN_APPROVAL ( #102, ( #240 ) ) ;
#114 = DIRECTION ( 'NONE',  ( 1.000000000000000000, 0.000000000000000000, 0.000000000000000000 ) ) ;
#115 = APPLICATION_CONTEXT ( 'configuration controlled 3d designs of mechanical parts and assemblies' ) ;
#116 = DIRECTION ( 'NONE',  ( 0.000000000000000000, 0.000000000000000000, 1.000000000000000000 ) ) ;
#117 = FACE_OUTER_BOUND ( 'NONE', #112, .T. ) ;
#118 = FACE_OUTER_BOUND ( 'NONE', #249, .T. ) ;
#119 = ORGANIZATION ( 'NEURÈENÝ', 'NEURÈENÝ', '' ) ;
#120 = CARTESIAN_POINT ( 'NONE',  ( 0.000000000000000000, 0.000000000000000000, 5.199999999999982414 ) ) ;
#121 = DIRECTION ( 'NONE',  ( 1.000000000000000000, 0.000000000000000000, 0.000000000000000000 ) ) ;
#122 = ORIENTED_EDGE ( 'NONE', *, *, #64, .T. ) ;
#123 = CARTESIAN_POINT ( 'NONE',  ( 0.000000000000000000, 0.000000000000000000, 0.000000000000000000 ) ) ;
#124 = ORIENTED_EDGE ( 'NONE', *, *, #219, .F. ) ;
#125 = PERSON_AND_ORGANIZATION ( #288, #119 ) ;
#126 = EDGE_CURVE ( 'NONE', #129, #101, #200, .T. ) ;
#127 = PERSON_AND_ORGANIZATION ( #288, #119 ) ;
#128 = ORIENTED_EDGE ( 'NONE', *, *, #248, .F. ) ;
#129 = VERTEX_POINT ( 'NONE', #58 ) ;
#130 = DIRECTION ( 'NONE',  ( -0.000000000000000000, -0.000000000000000000, -1.000000000000000000 ) ) ;
#131 = AXIS2_PLACEMENT_3D ( 'NONE', #67, #187, #185 ) ;
#132 = ORIENTED_EDGE ( 'NONE', *, *, #272, .F. ) ;
#133 = DIRECTION ( 'NONE',  ( 1.000000000000000000, 0.000000000000000000, -0.000000000000000000 ) ) ;
#134 = ADVANCED_FACE ( 'NONE', ( #302 ), #34, .F. ) ;
#135 = DIRECTION ( 'NONE',  ( 0.000000000000000000, 0.000000000000000000, 1.000000000000000000 ) ) ;
#136 = LINE ( 'NONE', #213, #19 ) ;
#137 = AXIS2_PLACEMENT_3D ( 'NONE', #142, #46, #209 ) ;
#138 = DIRECTION ( 'NONE',  ( -1.000000000000000000, 0.000000000000000000, 0.000000000000000000 ) ) ;
#139 = DIRECTION ( 'NONE',  ( 1.000000000000000000, 0.000000000000000000, 0.000000000000000000 ) ) ;
#140 = FACE_OUTER_BOUND ( 'NONE', #50, .T. ) ;
#141 = CLOSED_SHELL ( 'NONE', ( #265, #295, #305, #262, #205, #134, #171, #39, #110 ) ) ;
#142 = CARTESIAN_POINT ( 'NONE',  ( 0.000000000000000000, 0.000000000000000000, 805.0000000000000000 ) ) ;
#143 = APPLICATION_PROTOCOL_DEFINITION ( 'international standard', 'config_control_design', 1994, #193 ) ;
#144 = CARTESIAN_POINT ( 'NONE',  ( 0.000000000000000000, 0.000000000000000000, 5.000000000000000000 ) ) ;
#145 = VERTEX_POINT ( 'NONE', #44 ) ;
#146 = AXIS2_PLACEMENT_3D ( 'NONE', #69, #261, #208 ) ;
#147 = CC_DESIGN_PERSON_AND_ORGANIZATION_ASSIGNMENT ( #220, #49, ( #70 ) ) ;
#148 = COORDINATED_UNIVERSAL_TIME_OFFSET ( 1, 0, .AHEAD. ) ;
#149 = ORIENTED_EDGE ( 'NONE', *, *, #190, .T. ) ;
#150 = DATE_AND_TIME ( #176, #103 ) ;
#151 = ORIENTED_EDGE ( 'NONE', *, *, #287, .T. ) ;
#152 = CIRCLE ( 'NONE', #131, 0.1999999999999996503 ) ;
#153 = EDGE_LOOP ( 'NONE', ( #105, #3 ) ) ;
#154 = ORIENTED_EDGE ( 'NONE', *, *, #291, .F. ) ;
#155 = LINE ( 'NONE', #60, #229 ) ;
#156 = APPROVAL ( #269, 'NEURÈENÝ' ) ;
#157 = APPROVAL_ROLE ( '' ) ;
#158 = CC_DESIGN_APPROVAL ( #203, ( #70 ) ) ;
#159 = DIRECTION ( 'NONE',  ( -0.000000000000000000, -0.000000000000000000, -1.000000000000000000 ) ) ;
#160 = DIRECTION ( 'NONE',  ( 0.000000000000000000, 0.000000000000000000, 1.000000000000000000 ) ) ;
#161 = DIRECTION ( 'NONE',  ( 0.000000000000000000, 0.000000000000000000, 1.000000000000000000 ) ) ;
#162 = DIRECTION ( 'NONE',  ( 0.000000000000000000, 0.000000000000000000, 1.000000000000000000 ) ) ;
#163 = CIRCLE ( 'NONE', #96, 4.000000000000000000 ) ;
#164 = UNCERTAINTY_MEASURE_WITH_UNIT (LENGTH_MEASURE( 1.000000000000000082E-05 ), #170, 'distance_accuracy_value', 'NONE');
#165 = CARTESIAN_POINT ( 'NONE',  ( 7.000000000000000000, 8.572527594031473190E-16, 5.000000000000000000 ) ) ;
#166 = EDGE_CURVE ( 'NONE', #198, #55, #152, .T. ) ;
#167 = FACE_BOUND ( 'NONE', #173, .T. ) ;
#168 = FACE_OUTER_BOUND ( 'NONE', #225, .T. ) ;
#169 = AXIS2_PLACEMENT_3D ( 'NONE', #93, #41, #21 ) ;
#170 =( LENGTH_UNIT ( ) NAMED_UNIT ( * ) SI_UNIT ( .MILLI., .METRE. ) );
#171 = ADVANCED_FACE ( 'NONE', ( #117 ), #267, .T. ) ;
#172 =( NAMED_UNIT ( * ) PLANE_ANGLE_UNIT ( ) SI_UNIT ( $, .RADIAN. ) );
#173 = EDGE_LOOP ( 'NONE', ( #111, #149 ) ) ;
#174 = CIRCLE ( 'NONE', #42, 7.000000000000000000 ) ;
#175 = APPROVAL_DATE_TIME ( #97, #156 ) ;
#176 = CALENDAR_DATE ( 2022, 20, 6 ) ;
#177 = ORIENTED_EDGE ( 'NONE', *, *, #248, .T. ) ;
#178 = TOROIDAL_SURFACE ( 'NONE', #266, 4.200000000000000178, 0.2000000000000000111 ) ;
#179 = DIRECTION ( 'NONE',  ( 0.000000000000000000, 0.000000000000000000, 1.000000000000000000 ) ) ;
#180 = ORIENTED_EDGE ( 'NONE', *, *, #64, .F. ) ;
#181 = EDGE_CURVE ( 'NONE', #215, #198, #136, .T. ) ;
#182 = DIRECTION ( 'NONE',  ( 0.000000000000000000, 0.000000000000000000, 1.000000000000000000 ) ) ;
#183 = AXIS2_PLACEMENT_3D ( 'NONE', #275, #281, #11 ) ;
#184 = ORIENTED_EDGE ( 'NONE', *, *, #53, .F. ) ;
#185 = DIRECTION ( 'NONE',  ( -1.000000000000000000, 1.224646799147353454E-16, 0.000000000000000000 ) ) ;
#186 = DIRECTION ( 'NONE',  ( 0.000000000000000000, 0.000000000000000000, 1.000000000000000000 ) ) ;
#187 = DIRECTION ( 'NONE',  ( 1.224646799147353207E-16, 1.000000000000000000, -0.000000000000000000 ) ) ;
#188 = AXIS2_PLACEMENT_3D ( 'NONE', #264, #259, #139 ) ;
#189 = PLANE ( 'NONE',  #284 ) ;
#190 = EDGE_CURVE ( 'NONE', #55, #109, #304, .T. ) ;
#191 = DIRECTION ( 'NONE',  ( -0.000000000000000000, -0.000000000000000000, -1.000000000000000000 ) ) ;
#192 = AXIS2_PLACEMENT_3D ( 'NONE', #241, #92, #239 ) ;
#193 = APPLICATION_CONTEXT ( 'configuration controlled 3d designs of mechanical parts and assemblies' ) ;
#194 = PRODUCT ( '807f', '807f', '', ( #247 ) ) ;
#195 = APPROVAL_PERSON_ORGANIZATION ( #268, #203, #222 ) ;
#196 = PRODUCT_DEFINITION_FORMATION_WITH_SPECIFIED_SOURCE ( 'LIBOVOLNÝ', '', #194, .NOT_KNOWN. ) ;
#197 = APPROVAL_STATUS ( 'not_yet_approved' ) ;
#198 = VERTEX_POINT ( 'NONE', #289 ) ;
#199 = CARTESIAN_POINT ( 'NONE',  ( 4.200000000000000178, 0.000000000000000000, 4.999999999999991118 ) ) ;
#200 = CIRCLE ( 'NONE', #252, 7.000000000000000000 ) ;
#201 = DATE_AND_TIME ( #299, #12 ) ;
#202 = ORIENTED_EDGE ( 'NONE', *, *, #53, .T. ) ;
#203 = APPROVAL ( #197, 'NEURÈENÝ' ) ;
#204 = ORIENTED_EDGE ( 'NONE', *, *, #94, .T. ) ;
#205 = ADVANCED_FACE ( 'NONE', ( #167, #307 ), #189, .T. ) ;
#206 = CARTESIAN_POINT ( 'NONE',  ( -7.000000000000000000, 0.000000000000000000, 0.000000000000000000 ) ) ;
#207 = CARTESIAN_POINT ( 'NONE',  ( -4.200000000000000178, 5.143516556418882928E-16, 4.999999999999991118 ) ) ;
#208 = DIRECTION ( 'NONE',  ( 1.000000000000000000, 0.000000000000000000, 0.000000000000000000 ) ) ;
#209 = DIRECTION ( 'NONE',  ( -1.000000000000000000, 0.000000000000000000, 0.000000000000000000 ) ) ;
#210 = CARTESIAN_POINT ( 'NONE',  ( 0.000000000000000000, 0.000000000000000000, 805.0000000000000000 ) ) ;
#211 = CC_DESIGN_DATE_AND_TIME_ASSIGNMENT ( #73, #292, ( #70 ) ) ;
#212 = DIRECTION ( 'NONE',  ( 1.000000000000000000, 0.000000000000000000, 0.000000000000000000 ) ) ;
#213 = CARTESIAN_POINT ( 'NONE',  ( -4.000000000000000000, 0.000000000000000000, 805.0000000000000000 ) ) ;
#214 = PERSON_AND_ORGANIZATION_ROLE ( 'design_owner' ) ;
#215 = VERTEX_POINT ( 'NONE', #89 ) ;
#216 = AXIS2_PLACEMENT_3D ( 'NONE', #120, #24, #121 ) ;
#217 = APPLICATION_PROTOCOL_DEFINITION ( 'international standard', 'config_control_design', 1994, #115 ) ;
#218 = ORIENTED_EDGE ( 'NONE', *, *, #181, .T. ) ;
#219 = EDGE_CURVE ( 'NONE', #101, #129, #27, .T. ) ;
#220 = PERSON_AND_ORGANIZATION ( #288, #119 ) ;
#221 = ORIENTED_EDGE ( 'NONE', *, *, #190, .F. ) ;
#222 = APPROVAL_ROLE ( '' ) ;
#223 = AXIS2_PLACEMENT_3D ( 'NONE', #38, #182, #65 ) ;
#224 = PERSON_AND_ORGANIZATION ( #288, #119 ) ;
#225 = EDGE_LOOP ( 'NONE', ( #184, #32, #279, #86 ) ) ;
#226 = ORIENTED_EDGE ( 'NONE', *, *, #106, .T. ) ;
#227 = APPROVAL_DATE_TIME ( #201, #102 ) ;
#228 = LINE ( 'NONE', #15, #1 ) ;
#229 = VECTOR ( 'NONE', #130, 1000.000000000000000 ) ;
#230 = CARTESIAN_POINT ( 'NONE',  ( 0.000000000000000000, 0.000000000000000000, 805.0000000000000000 ) ) ;
#231 = ADVANCED_BREP_SHAPE_REPRESENTATION ( '807f', ( #74, #293 ), #260 ) ;
#232 = FACE_OUTER_BOUND ( 'NONE', #48, .T. ) ;
#233 = DIRECTION ( 'NONE',  ( 1.000000000000000000, 0.000000000000000000, 0.000000000000000000 ) ) ;
#234 = CC_DESIGN_SECURITY_CLASSIFICATION ( #240, ( #196 ) ) ;
#235 = TOROIDAL_SURFACE ( 'NONE', #216, 4.200000000000000178, 0.2000000000000000111 ) ;
#236 = LINE ( 'NONE', #20, #31 ) ;
#237 = CYLINDRICAL_SURFACE ( 'NONE', #8, 7.000000000000000000 ) ;
#238 = CC_DESIGN_PERSON_AND_ORGANIZATION_ASSIGNMENT ( #246, #294, ( #196 ) ) ;
#239 = DIRECTION ( 'NONE',  ( -1.000000000000000000, 0.000000000000000000, 0.000000000000000000 ) ) ;
#240 = SECURITY_CLASSIFICATION ( '', '', #29 ) ;
#241 = CARTESIAN_POINT ( 'NONE',  ( 0.000000000000000000, 0.000000000000000000, 5.000000000000000000 ) ) ;
#242 = CARTESIAN_POINT ( 'NONE',  ( 0.000000000000000000, 0.000000000000000000, 5.199999999999982414 ) ) ;
#243 = DIRECTION ( 'NONE',  ( 1.000000000000000000, 0.000000000000000000, 0.000000000000000000 ) ) ;
#244 = ORIENTED_EDGE ( 'NONE', *, *, #126, .F. ) ;
#245 = LOCAL_TIME ( 11, 47, 59.00000000000000000, #98 ) ;
#246 = PERSON_AND_ORGANIZATION ( #288, #119 ) ;
#247 = MECHANICAL_CONTEXT ( 'NONE', #193, 'mechanical' ) ;
#248 = EDGE_CURVE ( 'NONE', #145, #277, #236, .T. ) ;
#249 = EDGE_LOOP ( 'NONE', ( #33, #177, #251, #255 ) ) ;
#250 = PERSON_AND_ORGANIZATION ( #288, #119 ) ;
#251 = ORIENTED_EDGE ( 'NONE', *, *, #272, .T. ) ;
#252 = AXIS2_PLACEMENT_3D ( 'NONE', #18, #179, #114 ) ;
#253 = VERTEX_POINT ( 'NONE', #165 ) ;
#254 = CARTESIAN_POINT ( 'NONE',  ( 0.000000000000000000, 0.000000000000000000, 5.000000000000000000 ) ) ;
#255 = ORIENTED_EDGE ( 'NONE', *, *, #181, .F. ) ;
#256 = CIRCLE ( 'NONE', #108, 0.1999999999999996503 ) ;
#257 = ORIENTED_EDGE ( 'NONE', *, *, #126, .T. ) ;
#258 = DIRECTION ( 'NONE',  ( 1.000000000000000000, 0.000000000000000000, 0.000000000000000000 ) ) ;
#259 = DIRECTION ( 'NONE',  ( 0.000000000000000000, 0.000000000000000000, 1.000000000000000000 ) ) ;
#260 =( GEOMETRIC_REPRESENTATION_CONTEXT ( 3 ) GLOBAL_UNCERTAINTY_ASSIGNED_CONTEXT ( ( #164 ) ) GLOBAL_UNIT_ASSIGNED_CONTEXT ( ( #170, #172, #100 ) ) REPRESENTATION_CONTEXT ( 'NONE', 'WORKASPACE' ) );
#261 = DIRECTION ( 'NONE',  ( -0.000000000000000000, -0.000000000000000000, -1.000000000000000000 ) ) ;
#262 = ADVANCED_FACE ( 'NONE', ( #140 ), #263, .T. ) ;
#263 = CYLINDRICAL_SURFACE ( 'NONE', #192, 7.000000000000000000 ) ;
#264 = CARTESIAN_POINT ( 'NONE',  ( 0.000000000000000000, 0.000000000000000000, 0.000000000000000000 ) ) ;
#265 = ADVANCED_FACE ( 'NONE', ( #168 ), #235, .F. ) ;
#266 = AXIS2_PLACEMENT_3D ( 'NONE', #40, #135, #233 ) ;
#267 = CYLINDRICAL_SURFACE ( 'NONE', #137, 4.000000000000000000 ) ;
#268 = PERSON_AND_ORGANIZATION ( #288, #119 ) ;
#269 = APPROVAL_STATUS ( 'not_yet_approved' ) ;
#270 = ORIENTED_EDGE ( 'NONE', *, *, #219, .T. ) ;
#271 = AXIS2_PLACEMENT_3D ( 'NONE', #254, #61, #83 ) ;
#272 = EDGE_CURVE ( 'NONE', #277, #198, #163, .T. ) ;
#273 = PERSON_AND_ORGANIZATION ( #288, #119 ) ;
#274 = DIRECTION ( 'NONE',  ( -0.000000000000000000, -0.000000000000000000, -1.000000000000000000 ) ) ;
#275 = CARTESIAN_POINT ( 'NONE',  ( 0.000000000000000000, 0.000000000000000000, 805.0000000000000000 ) ) ;
#276 = CIRCLE ( 'NONE', #37, 7.000000000000000000 ) ;
#277 = VERTEX_POINT ( 'NONE', #282 ) ;
#278 = CARTESIAN_POINT ( 'NONE',  ( 0.000000000000000000, 0.000000000000000000, 805.0000000000000000 ) ) ;
#279 = ORIENTED_EDGE ( 'NONE', *, *, #47, .F. ) ;
#280 = CIRCLE ( 'NONE', #183, 4.000000000000000000 ) ;
#281 = DIRECTION ( 'NONE',  ( 0.000000000000000000, 0.000000000000000000, 1.000000000000000000 ) ) ;
#282 = CARTESIAN_POINT ( 'NONE',  ( 4.000000000000000000, 4.898587196589412829E-16, 5.199999999999982414 ) ) ;
#283 = CYLINDRICAL_SURFACE ( 'NONE', #79, 4.000000000000000000 ) ;
#284 = AXIS2_PLACEMENT_3D ( 'NONE', #303, #162, #285 ) ;
#285 = DIRECTION ( 'NONE',  ( 1.000000000000000000, 0.000000000000000000, -0.000000000000000000 ) ) ;
#286 = DIRECTION ( 'NONE',  ( 1.000000000000000000, 0.000000000000000000, 0.000000000000000000 ) ) ;
#287 = EDGE_CURVE ( 'NONE', #26, #253, #174, .T. ) ;
#288 = PERSON ( 'NEURÈENÝ', 'NEURÈENÝ', 'NEURÈENÝ', ('NEURÈENÝ'), ('NEURÈENÝ'), ('NEURÈENÝ') ) ;
#289 = CARTESIAN_POINT ( 'NONE',  ( -4.000000000000000000, 0.000000000000000000, 5.199999999999982414 ) ) ;
#290 = COORDINATED_UNIVERSAL_TIME_OFFSET ( 1, 0, .AHEAD. ) ;
#291 = EDGE_CURVE ( 'NONE', #253, #26, #276, .T. ) ;
#292 = DATE_TIME_ROLE ( 'creation_date' ) ;
#293 = AXIS2_PLACEMENT_3D ( 'NONE', #123, #2, #243 ) ;
#294 = PERSON_AND_ORGANIZATION_ROLE ( 'design_supplier' ) ;
#295 = ADVANCED_FACE ( 'NONE', ( #118 ), #283, .T. ) ;
#296 = ORIENTED_EDGE ( 'NONE', *, *, #287, .F. ) ;
#297 = APPROVAL_PERSON_ORGANIZATION ( #224, #156, #51 ) ;
#298 = CARTESIAN_POINT ( 'NONE',  ( -7.000000000000000000, 0.000000000000000000, 5.000000000000000000 ) ) ;
#299 = CALENDAR_DATE ( 2022, 20, 6 ) ;
#300 = EDGE_LOOP ( 'NONE', ( #124, #244 ) ) ;
#301 = CC_DESIGN_PERSON_AND_ORGANIZATION_ASSIGNMENT ( #125, #95, ( #240 ) ) ;
#302 = FACE_OUTER_BOUND ( 'NONE', #300, .T. ) ;
#303 = CARTESIAN_POINT ( 'NONE',  ( 0.000000000000000000, 0.000000000000000000, 5.000000000000000000 ) ) ;
#304 = CIRCLE ( 'NONE', #146, 4.200000000000000178 ) ;
#305 = ADVANCED_FACE ( 'NONE', ( #306 ), #237, .T. ) ;
#306 = FACE_OUTER_BOUND ( 'NONE', #77, .T. ) ;
#307 = FACE_OUTER_BOUND ( 'NONE', #6, .T. ) ;
ENDSEC;
END-ISO-10303-21;
