ISO-10303-21;
HEADER;
FILE_DESCRIPTION (( 'STEP AP203' ),
    '1' );
FILE_NAME ('95ff.STEP',
    '2022-06-20T09:20:09',
    ( '' ),
    ( '' ),
    'SwSTEP 2.0',
    'SolidWorks 2019',
    '' );
FILE_SCHEMA (( 'CONFIG_CONTROL_DESIGN' ));
ENDSEC;

DATA;
#1 = CC_DESIGN_PERSON_AND_ORGANIZATION_ASSIGNMENT ( #271, #81, ( #16 ) ) ;
#2 = PERSON_AND_ORGANIZATION_ROLE ( 'creator' ) ;
#3 = AXIS2_PLACEMENT_3D ( 'NONE', #58, #20, #300 ) ;
#4 =( GEOMETRIC_REPRESENTATION_CONTEXT ( 3 ) GLOBAL_UNCERTAINTY_ASSIGNED_CONTEXT ( ( #136 ) ) GLOBAL_UNIT_ASSIGNED_CONTEXT ( ( #27, #233, #126 ) ) REPRESENTATION_CONTEXT ( 'NONE', 'WORKASPACE' ) );
#5 = CARTESIAN_POINT ( 'NONE',  ( 13.00000000000000178, 1.592040838891559293E-15, 0.000000000000000000 ) ) ;
#6 = CALENDAR_DATE ( 2022, 20, 6 ) ;
#7 = ORIENTED_EDGE ( 'NONE', *, *, #77, .T. ) ;
#8 = EDGE_CURVE ( 'NONE', #270, #267, #180, .T. ) ;
#9 = ORIENTED_EDGE ( 'NONE', *, *, #264, .F. ) ;
#10 = VERTEX_POINT ( 'NONE', #57 ) ;
#11 = APPROVAL_DATE_TIME ( #199, #258 ) ;
#12 = EDGE_LOOP ( 'NONE', ( #134, #152, #262, #7 ) ) ;
#13 = EDGE_CURVE ( 'NONE', #128, #241, #301, .T. ) ;
#14 = AXIS2_PLACEMENT_3D ( 'NONE', #255, #204, #306 ) ;
#15 = SECURITY_CLASSIFICATION_LEVEL ( 'unclassified' ) ;
#16 = PRODUCT_DEFINITION_FORMATION_WITH_SPECIFIED_SOURCE ( 'LIBOVOLNÝ', '', #221, .NOT_KNOWN. ) ;
#17 = ORIENTED_EDGE ( 'NONE', *, *, #224, .F. ) ;
#18 = DIRECTION ( 'NONE',  ( -0.000000000000000000, -0.000000000000000000, -1.000000000000000000 ) ) ;
#19 = EDGE_CURVE ( 'NONE', #241, #154, #145, .T. ) ;
#20 = DIRECTION ( 'NONE',  ( 0.000000000000000000, 0.000000000000000000, 1.000000000000000000 ) ) ;
#21 = AXIS2_PLACEMENT_3D ( 'NONE', #63, #89, #92 ) ;
#22 = DIRECTION ( 'NONE',  ( 0.000000000000000000, 0.000000000000000000, 1.000000000000000000 ) ) ;
#23 = VECTOR ( 'NONE', #123, 1000.000000000000000 ) ;
#24 = CARTESIAN_POINT ( 'NONE',  ( 0.000000000000000000, 0.000000000000000000, 8.000000000000000000 ) ) ;
#25 = DIRECTION ( 'NONE',  ( -1.000000000000000000, 0.000000000000000000, 0.000000000000000000 ) ) ;
#26 = APPROVAL ( #236, 'NEURÈENÝ' ) ;
#27 =( LENGTH_UNIT ( ) NAMED_UNIT ( * ) SI_UNIT ( .MILLI., .METRE. ) );
#28 = PLANE ( 'NONE',  #222 ) ;
#29 = LINE ( 'NONE', #192, #23 ) ;
#30 = AXIS2_PLACEMENT_3D ( 'NONE', #299, #38, #87 ) ;
#31 = CIRCLE ( 'NONE', #47, 13.00000000000000178 ) ;
#32 = DIRECTION ( 'NONE',  ( 0.000000000000000000, 0.000000000000000000, 1.000000000000000000 ) ) ;
#33 = EDGE_LOOP ( 'NONE', ( #17, #246, #297, #9 ) ) ;
#34 = ORIENTED_EDGE ( 'NONE', *, *, #8, .F. ) ;
#35 = AXIS2_PLACEMENT_3D ( 'NONE', #183, #106, #197 ) ;
#36 = TOROIDAL_SURFACE ( 'NONE', #249, 10.20000000000000107, 0.2000000000000000111 ) ;
#37 = APPROVAL_ROLE ( '' ) ;
#38 = DIRECTION ( 'NONE',  ( 0.000000000000000000, 0.000000000000000000, 1.000000000000000000 ) ) ;
#39 = ADVANCED_FACE ( 'NONE', ( #293 ), #107, .T. ) ;
#40 = DIRECTION ( 'NONE',  ( 1.000000000000000000, 0.000000000000000000, 0.000000000000000000 ) ) ;
#41 = CALENDAR_DATE ( 2022, 20, 6 ) ;
#42 = ORIENTED_EDGE ( 'NONE', *, *, #19, .T. ) ;
#43 = LINE ( 'NONE', #48, #125 ) ;
#44 = LINE ( 'NONE', #248, #231 ) ;
#45 = DIRECTION ( 'NONE',  ( 0.000000000000000000, 0.000000000000000000, 1.000000000000000000 ) ) ;
#46 = DIRECTION ( 'NONE',  ( 0.000000000000000000, -1.000000000000000000, 0.000000000000000000 ) ) ;
#47 = AXIS2_PLACEMENT_3D ( 'NONE', #66, #162, #113 ) ;
#48 = CARTESIAN_POINT ( 'NONE',  ( -10.00000000000000000, 0.000000000000000000, 323.0000000000000000 ) ) ;
#49 = EDGE_CURVE ( 'NONE', #86, #109, #115, .T. ) ;
#50 = COORDINATED_UNIVERSAL_TIME_OFFSET ( 1, 0, .AHEAD. ) ;
#51 = CARTESIAN_POINT ( 'NONE',  ( 13.00000000000000178, 1.592040838891559293E-15, 8.000000000000000000 ) ) ;
#52 = ADVANCED_FACE ( 'NONE', ( #278 ), #95, .T. ) ;
#53 = CARTESIAN_POINT ( 'NONE',  ( 0.000000000000000000, 0.000000000000000000, 8.000000000000000000 ) ) ;
#54 = ORGANIZATION ( 'NEURÈENÝ', 'NEURÈENÝ', '' ) ;
#55 = DATE_AND_TIME ( #41, #290 ) ;
#56 = CC_DESIGN_PERSON_AND_ORGANIZATION_ASSIGNMENT ( #173, #176, ( #16 ) ) ;
#57 = CARTESIAN_POINT ( 'NONE',  ( -10.00000000000000000, 0.000000000000000000, 323.0000000000000000 ) ) ;
#58 = CARTESIAN_POINT ( 'NONE',  ( 0.000000000000000000, 0.000000000000000000, 8.000000000000000000 ) ) ;
#59 = ADVANCED_FACE ( 'NONE', ( #188 ), #117, .T. ) ;
#60 = ADVANCED_BREP_SHAPE_REPRESENTATION ( '95ff', ( #140, #213 ), #4 ) ;
#61 = EDGE_LOOP ( 'NONE', ( #101, #42, #182, #157 ) ) ;
#62 = ORIENTED_EDGE ( 'NONE', *, *, #229, .F. ) ;
#63 = CARTESIAN_POINT ( 'NONE',  ( 0.000000000000000000, 0.000000000000000000, 323.0000000000000000 ) ) ;
#64 = FACE_OUTER_BOUND ( 'NONE', #33, .T. ) ;
#65 = DIRECTION ( 'NONE',  ( 1.000000000000000000, 0.000000000000000000, 0.000000000000000000 ) ) ;
#66 = CARTESIAN_POINT ( 'NONE',  ( 0.000000000000000000, 0.000000000000000000, 0.000000000000000000 ) ) ;
#67 = EDGE_CURVE ( 'NONE', #150, #154, #226, .T. ) ;
#68 = CARTESIAN_POINT ( 'NONE',  ( 13.00000000000000178, 1.592040838891559293E-15, 8.000000000000000000 ) ) ;
#69 = APPROVAL_PERSON_ORGANIZATION ( #169, #26, #284 ) ;
#70 = APPLICATION_CONTEXT ( 'configuration controlled 3d designs of mechanical parts and assemblies' ) ;
#71 = VECTOR ( 'NONE', #148, 1000.000000000000000 ) ;
#72 = APPLICATION_PROTOCOL_DEFINITION ( 'international standard', 'config_control_design', 1994, #70 ) ;
#73 = CARTESIAN_POINT ( 'NONE',  ( -10.00000000000000000, 0.000000000000000000, 8.199999999999985079 ) ) ;
#74 = LINE ( 'NONE', #51, #71 ) ;
#75 = AXIS2_PLACEMENT_3D ( 'NONE', #53, #146, #76 ) ;
#76 = DIRECTION ( 'NONE',  ( 1.000000000000000000, 0.000000000000000000, 0.000000000000000000 ) ) ;
#77 = EDGE_CURVE ( 'NONE', #241, #128, #124, .T. ) ;
#78 = CC_DESIGN_APPROVAL ( #258, ( #149 ) ) ;
#79 = APPROVAL_STATUS ( 'not_yet_approved' ) ;
#80 = EDGE_LOOP ( 'NONE', ( #62, #137, #130, #111 ) ) ;
#81 = PERSON_AND_ORGANIZATION_ROLE ( 'design_supplier' ) ;
#82 = CARTESIAN_POINT ( 'NONE',  ( 0.000000000000000000, 0.000000000000000000, 8.000000000000000000 ) ) ;
#83 = DATE_AND_TIME ( #215, #282 ) ;
#84 = ORIENTED_EDGE ( 'NONE', *, *, #102, .F. ) ;
#85 = AXIS2_PLACEMENT_3D ( 'NONE', #91, #18, #65 ) ;
#86 = VERTEX_POINT ( 'NONE', #303 ) ;
#87 = DIRECTION ( 'NONE',  ( 1.000000000000000000, 0.000000000000000000, 0.000000000000000000 ) ) ;
#88 = EDGE_CURVE ( 'NONE', #128, #150, #276, .T. ) ;
#89 = DIRECTION ( 'NONE',  ( -0.000000000000000000, -0.000000000000000000, -1.000000000000000000 ) ) ;
#90 = TOROIDAL_SURFACE ( 'NONE', #286, 10.20000000000000107, 0.2000000000000000111 ) ;
#91 = CARTESIAN_POINT ( 'NONE',  ( 0.000000000000000000, 0.000000000000000000, 8.000000000000000000 ) ) ;
#92 = DIRECTION ( 'NONE',  ( -1.000000000000000000, 0.000000000000000000, 0.000000000000000000 ) ) ;
#93 = ADVANCED_FACE ( 'NONE', ( #64 ), #279, .T. ) ;
#94 = FACE_OUTER_BOUND ( 'NONE', #61, .T. ) ;
#95 = CYLINDRICAL_SURFACE ( 'NONE', #21, 10.00000000000000000 ) ;
#96 = LOCAL_TIME ( 11, 20, 9.000000000000000000, #295 ) ;
#97 = PERSON_AND_ORGANIZATION ( #171, #54 ) ;
#98 = COORDINATED_UNIVERSAL_TIME_OFFSET ( 1, 0, .AHEAD. ) ;
#99 = DIRECTION ( 'NONE',  ( 1.000000000000000000, 0.000000000000000000, -0.000000000000000000 ) ) ;
#100 = PERSON_AND_ORGANIZATION_ROLE ( 'design_owner' ) ;
#101 = ORIENTED_EDGE ( 'NONE', *, *, #77, .F. ) ;
#102 = EDGE_CURVE ( 'NONE', #10, #241, #43, .T. ) ;
#103 = DATE_AND_TIME ( #6, #235 ) ;
#104 = ORIENTED_EDGE ( 'NONE', *, *, #67, .T. ) ;
#105 = AXIS2_PLACEMENT_3D ( 'NONE', #202, #200, #40 ) ;
#106 = DIRECTION ( 'NONE',  ( 1.224646799147353207E-16, 1.000000000000000000, -0.000000000000000000 ) ) ;
#107 = CYLINDRICAL_SURFACE ( 'NONE', #242, 13.00000000000000178 ) ;
#108 = PERSON_AND_ORGANIZATION ( #171, #54 ) ;
#109 = VERTEX_POINT ( 'NONE', #68 ) ;
#110 = LOCAL_TIME ( 11, 20, 9.000000000000000000, #98 ) ;
#111 = ORIENTED_EDGE ( 'NONE', *, *, #8, .T. ) ;
#112 = APPROVAL ( #127, 'NEURÈENÝ' ) ;
#113 = DIRECTION ( 'NONE',  ( 1.000000000000000000, 0.000000000000000000, 0.000000000000000000 ) ) ;
#114 = DIRECTION ( 'NONE',  ( 0.000000000000000000, 0.000000000000000000, 1.000000000000000000 ) ) ;
#115 = CIRCLE ( 'NONE', #3, 13.00000000000000178 ) ;
#116 = AXIS2_PLACEMENT_3D ( 'NONE', #206, #46, #186 ) ;
#117 = CYLINDRICAL_SURFACE ( 'NONE', #14, 10.00000000000000000 ) ;
#118 = EDGE_CURVE ( 'NONE', #267, #270, #31, .T. ) ;
#119 = DIRECTION ( 'NONE',  ( -0.000000000000000000, -0.000000000000000000, -1.000000000000000000 ) ) ;
#120 = DIRECTION ( 'NONE',  ( 1.000000000000000000, 0.000000000000000000, 0.000000000000000000 ) ) ;
#121 = CARTESIAN_POINT ( 'NONE',  ( 0.000000000000000000, 0.000000000000000000, 0.000000000000000000 ) ) ;
#122 = EDGE_CURVE ( 'NONE', #217, #10, #244, .T. ) ;
#123 = DIRECTION ( 'NONE',  ( -0.000000000000000000, -0.000000000000000000, -1.000000000000000000 ) ) ;
#124 = CIRCLE ( 'NONE', #164, 10.00000000000000000 ) ;
#125 = VECTOR ( 'NONE', #203, 1000.000000000000000 ) ;
#126 =( NAMED_UNIT ( * ) SI_UNIT ( $, .STERADIAN. ) SOLID_ANGLE_UNIT ( ) );
#127 = APPROVAL_STATUS ( 'not_yet_approved' ) ;
#128 = VERTEX_POINT ( 'NONE', #166 ) ;
#129 = PRODUCT_DEFINITION ( 'NEZNÁMÝ', '', #16, #263 ) ;
#130 = ORIENTED_EDGE ( 'NONE', *, *, #264, .T. ) ;
#131 = PRODUCT_DEFINITION_SHAPE ( 'NONE', 'NONE',  #129 ) ;
#132 = AXIS2_PLACEMENT_3D ( 'NONE', #163, #275, #252 ) ;
#133 = DATE_TIME_ROLE ( 'classification_date' ) ;
#134 = ORIENTED_EDGE ( 'NONE', *, *, #181, .F. ) ;
#135 = ORIENTED_EDGE ( 'NONE', *, *, #224, .T. ) ;
#136 = UNCERTAINTY_MEASURE_WITH_UNIT (LENGTH_MEASURE( 1.000000000000000082E-05 ), #27, 'distance_accuracy_value', 'NONE');
#137 = ORIENTED_EDGE ( 'NONE', *, *, #49, .F. ) ;
#138 = CC_DESIGN_APPROVAL ( #26, ( #129 ) ) ;
#139 = CARTESIAN_POINT ( 'NONE',  ( 0.000000000000000000, 0.000000000000000000, 8.000000000000000000 ) ) ;
#140 = MANIFOLD_SOLID_BREP ( 'Zaoblit1', #281 ) ;
#141 = FACE_OUTER_BOUND ( 'NONE', #175, .T. ) ;
#142 = DIRECTION ( 'NONE',  ( 0.000000000000000000, 0.000000000000000000, 1.000000000000000000 ) ) ;
#143 = DIRECTION ( 'NONE',  ( 1.000000000000000000, 0.000000000000000000, 0.000000000000000000 ) ) ;
#144 = CARTESIAN_POINT ( 'NONE',  ( 0.000000000000000000, 0.000000000000000000, 0.000000000000000000 ) ) ;
#145 = CIRCLE ( 'NONE', #35, 0.2000000000000005107 ) ;
#146 = DIRECTION ( 'NONE',  ( -0.000000000000000000, -0.000000000000000000, -1.000000000000000000 ) ) ;
#147 = FACE_OUTER_BOUND ( 'NONE', #245, .T. ) ;
#148 = DIRECTION ( 'NONE',  ( -0.000000000000000000, -0.000000000000000000, -1.000000000000000000 ) ) ;
#149 = SECURITY_CLASSIFICATION ( '', '', #15 ) ;
#150 = VERTEX_POINT ( 'NONE', #207 ) ;
#151 = PERSON_AND_ORGANIZATION ( #171, #54 ) ;
#152 = ORIENTED_EDGE ( 'NONE', *, *, #156, .F. ) ;
#153 = ORIENTED_EDGE ( 'NONE', *, *, #88, .T. ) ;
#154 = VERTEX_POINT ( 'NONE', #184 ) ;
#155 = COORDINATED_UNIVERSAL_TIME_OFFSET ( 1, 0, .AHEAD. ) ;
#156 = EDGE_CURVE ( 'NONE', #10, #217, #296, .T. ) ;
#157 = ORIENTED_EDGE ( 'NONE', *, *, #88, .F. ) ;
#158 = DIRECTION ( 'NONE',  ( 0.000000000000000000, 0.000000000000000000, 1.000000000000000000 ) ) ;
#159 = APPROVAL_PERSON_ORGANIZATION ( #196, #258, #37 ) ;
#160 = DIRECTION ( 'NONE',  ( -0.000000000000000000, -0.000000000000000000, -1.000000000000000000 ) ) ;
#161 = PRODUCT_RELATED_PRODUCT_CATEGORY ( 'detail', '', ( #221 ) ) ;
#162 = DIRECTION ( 'NONE',  ( 0.000000000000000000, 0.000000000000000000, 1.000000000000000000 ) ) ;
#163 = CARTESIAN_POINT ( 'NONE',  ( 0.000000000000000000, 0.000000000000000000, 323.0000000000000000 ) ) ;
#164 = AXIS2_PLACEMENT_3D ( 'NONE', #187, #158, #280 ) ;
#165 = CIRCLE ( 'NONE', #205, 13.00000000000000178 ) ;
#166 = CARTESIAN_POINT ( 'NONE',  ( 10.00000000000000000, 1.224646799147353256E-15, 8.199999999999985079 ) ) ;
#167 = PERSON_AND_ORGANIZATION ( #171, #54 ) ;
#168 = CC_DESIGN_DATE_AND_TIME_ASSIGNMENT ( #190, #285, ( #129 ) ) ;
#169 = PERSON_AND_ORGANIZATION ( #171, #54 ) ;
#170 = FACE_OUTER_BOUND ( 'NONE', #294, .T. ) ;
#171 = PERSON ( 'NEURÈENÝ', 'NEURÈENÝ', 'NEURÈENÝ', ('NEURÈENÝ'), ('NEURÈENÝ'), ('NEURÈENÝ') ) ;
#172 = AXIS2_PLACEMENT_3D ( 'NONE', #223, #45, #209 ) ;
#173 = PERSON_AND_ORGANIZATION ( #171, #54 ) ;
#174 = CC_DESIGN_PERSON_AND_ORGANIZATION_ASSIGNMENT ( #108, #178, ( #149 ) ) ;
#175 = EDGE_LOOP ( 'NONE', ( #272, #135 ) ) ;
#176 = PERSON_AND_ORGANIZATION_ROLE ( 'creator' ) ;
#177 = DIRECTION ( 'NONE',  ( -0.000000000000000000, -0.000000000000000000, -1.000000000000000000 ) ) ;
#178 = PERSON_AND_ORGANIZATION_ROLE ( 'classification_officer' ) ;
#179 = ORIENTED_EDGE ( 'NONE', *, *, #237, .T. ) ;
#180 = CIRCLE ( 'NONE', #105, 13.00000000000000178 ) ;
#181 = EDGE_CURVE ( 'NONE', #217, #128, #44, .T. ) ;
#182 = ORIENTED_EDGE ( 'NONE', *, *, #67, .F. ) ;
#183 = CARTESIAN_POINT ( 'NONE',  ( -10.20000000000000107, 1.249139735130300365E-15, 8.199999999999985079 ) ) ;
#184 = CARTESIAN_POINT ( 'NONE',  ( -10.20000000000000107, 1.249139735130300365E-15, 7.999999999999992895 ) ) ;
#185 = CARTESIAN_POINT ( 'NONE',  ( 10.00000000000000000, 1.224646799147353256E-15, 323.0000000000000000 ) ) ;
#186 = DIRECTION ( 'NONE',  ( 0.000000000000000000, 0.000000000000000000, -1.000000000000000000 ) ) ;
#187 = CARTESIAN_POINT ( 'NONE',  ( 0.000000000000000000, 0.000000000000000000, 8.199999999999985079 ) ) ;
#188 = FACE_OUTER_BOUND ( 'NONE', #269, .T. ) ;
#189 = DIRECTION ( 'NONE',  ( 1.000000000000000000, 0.000000000000000000, 0.000000000000000000 ) ) ;
#190 = DATE_AND_TIME ( #256, #110 ) ;
#191 = DIRECTION ( 'NONE',  ( 0.000000000000000000, 0.000000000000000000, 1.000000000000000000 ) ) ;
#192 = CARTESIAN_POINT ( 'NONE',  ( -13.00000000000000178, 0.000000000000000000, 8.000000000000000000 ) ) ;
#193 = ORIENTED_EDGE ( 'NONE', *, *, #13, .T. ) ;
#194 = APPROVAL_DATE_TIME ( #55, #112 ) ;
#195 = ORIENTED_EDGE ( 'NONE', *, *, #13, .F. ) ;
#196 = PERSON_AND_ORGANIZATION ( #171, #54 ) ;
#197 = DIRECTION ( 'NONE',  ( -1.000000000000000000, 1.224646799147353207E-16, 0.000000000000000000 ) ) ;
#198 = DIRECTION ( 'NONE',  ( -1.000000000000000000, 0.000000000000000000, 0.000000000000000000 ) ) ;
#199 = DATE_AND_TIME ( #238, #96 ) ;
#200 = DIRECTION ( 'NONE',  ( 0.000000000000000000, 0.000000000000000000, 1.000000000000000000 ) ) ;
#201 = AXIS2_PLACEMENT_3D ( 'NONE', #121, #191, #99 ) ;
#202 = CARTESIAN_POINT ( 'NONE',  ( 0.000000000000000000, 0.000000000000000000, 0.000000000000000000 ) ) ;
#203 = DIRECTION ( 'NONE',  ( -0.000000000000000000, -0.000000000000000000, -1.000000000000000000 ) ) ;
#204 = DIRECTION ( 'NONE',  ( -0.000000000000000000, -0.000000000000000000, -1.000000000000000000 ) ) ;
#205 = AXIS2_PLACEMENT_3D ( 'NONE', #230, #232, #210 ) ;
#206 = CARTESIAN_POINT ( 'NONE',  ( 10.20000000000000107, 0.000000000000000000, 8.199999999999985079 ) ) ;
#207 = CARTESIAN_POINT ( 'NONE',  ( 10.20000000000000107, 0.000000000000000000, 7.999999999999992895 ) ) ;
#208 = ADVANCED_FACE ( 'NONE', ( #251 ), #90, .F. ) ;
#209 = DIRECTION ( 'NONE',  ( 1.000000000000000000, 0.000000000000000000, 0.000000000000000000 ) ) ;
#210 = DIRECTION ( 'NONE',  ( 1.000000000000000000, 0.000000000000000000, 0.000000000000000000 ) ) ;
#211 = ADVANCED_FACE ( 'NONE', ( #253, #141 ), #302, .T. ) ;
#212 = CARTESIAN_POINT ( 'NONE',  ( -13.00000000000000178, 0.000000000000000000, 0.000000000000000000 ) ) ;
#213 = AXIS2_PLACEMENT_3D ( 'NONE', #144, #32, #189 ) ;
#214 = ADVANCED_FACE ( 'NONE', ( #94 ), #36, .F. ) ;
#215 = CALENDAR_DATE ( 2022, 20, 6 ) ;
#216 = ORIENTED_EDGE ( 'NONE', *, *, #181, .T. ) ;
#217 = VERTEX_POINT ( 'NONE', #185 ) ;
#218 = EDGE_LOOP ( 'NONE', ( #104, #179 ) ) ;
#219 = ORIENTED_EDGE ( 'NONE', *, *, #122, .T. ) ;
#220 = ORIENTED_EDGE ( 'NONE', *, *, #122, .F. ) ;
#221 = PRODUCT ( '95ff', '95ff', '', ( #265 ) ) ;
#222 = AXIS2_PLACEMENT_3D ( 'NONE', #261, #260, #287 ) ;
#223 = CARTESIAN_POINT ( 'NONE',  ( 0.000000000000000000, 0.000000000000000000, 323.0000000000000000 ) ) ;
#224 = EDGE_CURVE ( 'NONE', #109, #86, #165, .T. ) ;
#225 = CARTESIAN_POINT ( 'NONE',  ( 0.000000000000000000, 0.000000000000000000, 8.199999999999985079 ) ) ;
#226 = CIRCLE ( 'NONE', #85, 10.20000000000000107 ) ;
#227 = AXIS2_PLACEMENT_3D ( 'NONE', #24, #22, #304 ) ;
#228 = CARTESIAN_POINT ( 'NONE',  ( 0.000000000000000000, 0.000000000000000000, 8.199999999999985079 ) ) ;
#229 = EDGE_CURVE ( 'NONE', #109, #267, #74, .T. ) ;
#230 = CARTESIAN_POINT ( 'NONE',  ( 0.000000000000000000, 0.000000000000000000, 8.000000000000000000 ) ) ;
#231 = VECTOR ( 'NONE', #160, 1000.000000000000000 ) ;
#232 = DIRECTION ( 'NONE',  ( 0.000000000000000000, 0.000000000000000000, 1.000000000000000000 ) ) ;
#233 =( NAMED_UNIT ( * ) PLANE_ANGLE_UNIT ( ) SI_UNIT ( $, .RADIAN. ) );
#234 = ORIENTED_EDGE ( 'NONE', *, *, #237, .F. ) ;
#235 = LOCAL_TIME ( 11, 20, 9.000000000000000000, #50 ) ;
#236 = APPROVAL_STATUS ( 'not_yet_approved' ) ;
#237 = EDGE_CURVE ( 'NONE', #154, #150, #259, .T. ) ;
#238 = CALENDAR_DATE ( 2022, 20, 6 ) ;
#239 = ORIENTED_EDGE ( 'NONE', *, *, #118, .F. ) ;
#240 = COORDINATED_UNIVERSAL_TIME_OFFSET ( 1, 0, .AHEAD. ) ;
#241 = VERTEX_POINT ( 'NONE', #73 ) ;
#242 = AXIS2_PLACEMENT_3D ( 'NONE', #82, #177, #198 ) ;
#243 = APPROVAL_ROLE ( '' ) ;
#244 = CIRCLE ( 'NONE', #132, 10.00000000000000000 ) ;
#245 = EDGE_LOOP ( 'NONE', ( #34, #239 ) ) ;
#246 = ORIENTED_EDGE ( 'NONE', *, *, #229, .T. ) ;
#247 = ORIENTED_EDGE ( 'NONE', *, *, #156, .T. ) ;
#248 = CARTESIAN_POINT ( 'NONE',  ( 10.00000000000000000, 1.224646799147353256E-15, 323.0000000000000000 ) ) ;
#249 = AXIS2_PLACEMENT_3D ( 'NONE', #228, #114, #120 ) ;
#250 = CC_DESIGN_DATE_AND_TIME_ASSIGNMENT ( #83, #133, ( #149 ) ) ;
#251 = FACE_OUTER_BOUND ( 'NONE', #291, .T. ) ;
#252 = DIRECTION ( 'NONE',  ( 1.000000000000000000, 0.000000000000000000, 0.000000000000000000 ) ) ;
#253 = FACE_BOUND ( 'NONE', #218, .T. ) ;
#254 = AXIS2_PLACEMENT_3D ( 'NONE', #139, #119, #25 ) ;
#255 = CARTESIAN_POINT ( 'NONE',  ( 0.000000000000000000, 0.000000000000000000, 323.0000000000000000 ) ) ;
#256 = CALENDAR_DATE ( 2022, 20, 6 ) ;
#257 = PLANE ( 'NONE',  #201 ) ;
#258 = APPROVAL ( #79, 'NEURÈENÝ' ) ;
#259 = CIRCLE ( 'NONE', #75, 10.20000000000000107 ) ;
#260 = DIRECTION ( 'NONE',  ( 0.000000000000000000, 0.000000000000000000, 1.000000000000000000 ) ) ;
#261 = CARTESIAN_POINT ( 'NONE',  ( 0.000000000000000000, 0.000000000000000000, 323.0000000000000000 ) ) ;
#262 = ORIENTED_EDGE ( 'NONE', *, *, #102, .T. ) ;
#263 = DESIGN_CONTEXT ( 'detailed design', #305, 'design' ) ;
#264 = EDGE_CURVE ( 'NONE', #86, #270, #29, .T. ) ;
#265 = MECHANICAL_CONTEXT ( 'NONE', #70, 'mechanical' ) ;
#266 = CC_DESIGN_SECURITY_CLASSIFICATION ( #149, ( #16 ) ) ;
#267 = VERTEX_POINT ( 'NONE', #5 ) ;
#268 = ADVANCED_FACE ( 'NONE', ( #147 ), #257, .F. ) ;
#269 = EDGE_LOOP ( 'NONE', ( #220, #216, #193, #84 ) ) ;
#270 = VERTEX_POINT ( 'NONE', #212 ) ;
#271 = PERSON_AND_ORGANIZATION ( #171, #54 ) ;
#272 = ORIENTED_EDGE ( 'NONE', *, *, #49, .T. ) ;
#273 = CC_DESIGN_PERSON_AND_ORGANIZATION_ASSIGNMENT ( #167, #2, ( #129 ) ) ;
#274 = ORIENTED_EDGE ( 'NONE', *, *, #19, .F. ) ;
#275 = DIRECTION ( 'NONE',  ( 0.000000000000000000, 0.000000000000000000, 1.000000000000000000 ) ) ;
#276 = CIRCLE ( 'NONE', #116, 0.2000000000000005107 ) ;
#277 = APPROVAL_PERSON_ORGANIZATION ( #151, #112, #243 ) ;
#278 = FACE_OUTER_BOUND ( 'NONE', #12, .T. ) ;
#279 = CYLINDRICAL_SURFACE ( 'NONE', #254, 13.00000000000000178 ) ;
#280 = DIRECTION ( 'NONE',  ( 1.000000000000000000, 0.000000000000000000, 0.000000000000000000 ) ) ;
#281 = CLOSED_SHELL ( 'NONE', ( #214, #59, #93, #39, #211, #268, #52, #298, #208 ) ) ;
#282 = LOCAL_TIME ( 11, 20, 9.000000000000000000, #240 ) ;
#283 = APPROVAL_DATE_TIME ( #103, #26 ) ;
#284 = APPROVAL_ROLE ( '' ) ;
#285 = DATE_TIME_ROLE ( 'creation_date' ) ;
#286 = AXIS2_PLACEMENT_3D ( 'NONE', #225, #142, #143 ) ;
#287 = DIRECTION ( 'NONE',  ( 1.000000000000000000, 0.000000000000000000, -0.000000000000000000 ) ) ;
#288 = CC_DESIGN_PERSON_AND_ORGANIZATION_ASSIGNMENT ( #97, #100, ( #221 ) ) ;
#289 = APPLICATION_PROTOCOL_DEFINITION ( 'international standard', 'config_control_design', 1994, #305 ) ;
#290 = LOCAL_TIME ( 11, 20, 9.000000000000000000, #155 ) ;
#291 = EDGE_LOOP ( 'NONE', ( #274, #195, #153, #234 ) ) ;
#292 = SHAPE_DEFINITION_REPRESENTATION ( #131, #60 ) ;
#293 = FACE_OUTER_BOUND ( 'NONE', #80, .T. ) ;
#294 = EDGE_LOOP ( 'NONE', ( #247, #219 ) ) ;
#295 = COORDINATED_UNIVERSAL_TIME_OFFSET ( 1, 0, .AHEAD. ) ;
#296 = CIRCLE ( 'NONE', #172, 10.00000000000000000 ) ;
#297 = ORIENTED_EDGE ( 'NONE', *, *, #118, .T. ) ;
#298 = ADVANCED_FACE ( 'NONE', ( #170 ), #28, .T. ) ;
#299 = CARTESIAN_POINT ( 'NONE',  ( 0.000000000000000000, 0.000000000000000000, 8.199999999999985079 ) ) ;
#300 = DIRECTION ( 'NONE',  ( 1.000000000000000000, 0.000000000000000000, 0.000000000000000000 ) ) ;
#301 = CIRCLE ( 'NONE', #30, 10.00000000000000000 ) ;
#302 = PLANE ( 'NONE',  #227 ) ;
#303 = CARTESIAN_POINT ( 'NONE',  ( -13.00000000000000178, 0.000000000000000000, 8.000000000000000000 ) ) ;
#304 = DIRECTION ( 'NONE',  ( 1.000000000000000000, 0.000000000000000000, -0.000000000000000000 ) ) ;
#305 = APPLICATION_CONTEXT ( 'configuration controlled 3d designs of mechanical parts and assemblies' ) ;
#306 = DIRECTION ( 'NONE',  ( -1.000000000000000000, 0.000000000000000000, 0.000000000000000000 ) ) ;
#307 = CC_DESIGN_APPROVAL ( #112, ( #16 ) ) ;
ENDSEC;
END-ISO-10303-21;
