ISO-10303-21;
HEADER;
FILE_DESCRIPTION (( 'STEP AP203' ),
    '1' );
FILE_NAME ('ab4f.STEP',
    '2022-06-20T10:25:11',
    ( '' ),
    ( '' ),
    'SwSTEP 2.0',
    'SolidWorks 2019',
    '' );
FILE_SCHEMA (( 'CONFIG_CONTROL_DESIGN' ));
ENDSEC;

DATA;
#1 = DIRECTION ( 'NONE',  ( 0.000000000000000000, 0.000000000000000000, 1.000000000000000000 ) ) ;
#2 = AXIS2_PLACEMENT_3D ( 'NONE', #123, #25, #296 ) ;
#3 = APPROVAL_PERSON_ORGANIZATION ( #229, #143, #108 ) ;
#4 = ORIENTED_EDGE ( 'NONE', *, *, #156, .T. ) ;
#5 = DIRECTION ( 'NONE',  ( -1.000000000000000000, 0.000000000000000000, 0.000000000000000000 ) ) ;
#6 = CARTESIAN_POINT ( 'NONE',  ( 0.000000000000000000, 0.000000000000000000, 1.199999999999999956 ) ) ;
#7 = CARTESIAN_POINT ( 'NONE',  ( 0.000000000000000000, 0.000000000000000000, 1.199999999999999956 ) ) ;
#8 = SECURITY_CLASSIFICATION ( '', '', #144 ) ;
#9 = DIRECTION ( 'NONE',  ( 1.000000000000000000, 0.000000000000000000, 0.000000000000000000 ) ) ;
#10 = EDGE_LOOP ( 'NONE', ( #173, #268 ) ) ;
#11 = CC_DESIGN_PERSON_AND_ORGANIZATION_ASSIGNMENT ( #203, #23, ( #201 ) ) ;
#12 = FACE_OUTER_BOUND ( 'NONE', #194, .T. ) ;
#13 = CARTESIAN_POINT ( 'NONE',  ( -0.7500000000000000000, 9.184850993605149670E-17, 1.199999999999999289 ) ) ;
#14 =( GEOMETRIC_REPRESENTATION_CONTEXT ( 3 ) GLOBAL_UNCERTAINTY_ASSIGNED_CONTEXT ( ( #19 ) ) GLOBAL_UNIT_ASSIGNED_CONTEXT ( ( #206, #184, #188 ) ) REPRESENTATION_CONTEXT ( 'NONE', 'WORKASPACE' ) );
#15 = CALENDAR_DATE ( 2022, 20, 6 ) ;
#16 = CARTESIAN_POINT ( 'NONE',  ( 0.7500000000000000000, 0.000000000000000000, 1.199999999999999289 ) ) ;
#17 = CC_DESIGN_DATE_AND_TIME_ASSIGNMENT ( #209, #252, ( #198 ) ) ;
#18 = PERSON_AND_ORGANIZATION_ROLE ( 'design_owner' ) ;
#19 = UNCERTAINTY_MEASURE_WITH_UNIT (LENGTH_MEASURE( 1.000000000000000082E-05 ), #206, 'distance_accuracy_value', 'NONE');
#20 = CARTESIAN_POINT ( 'NONE',  ( 0.5500000000000000444, 6.735557395310442516E-17, 1.399999999999998579 ) ) ;
#21 = PERSON_AND_ORGANIZATION ( #281, #142 ) ;
#22 = CC_DESIGN_PERSON_AND_ORGANIZATION_ASSIGNMENT ( #43, #18, ( #233 ) ) ;
#23 = PERSON_AND_ORGANIZATION_ROLE ( 'creator' ) ;
#24 = APPROVAL ( #110, 'NEURÈENÝ' ) ;
#25 = DIRECTION ( 'NONE',  ( 0.000000000000000000, 0.000000000000000000, 1.000000000000000000 ) ) ;
#26 = CC_DESIGN_APPROVAL ( #245, ( #198 ) ) ;
#27 = CARTESIAN_POINT ( 'NONE',  ( 0.000000000000000000, 0.000000000000000000, 0.000000000000000000 ) ) ;
#28 = EDGE_CURVE ( 'NONE', #287, #67, #225, .T. ) ;
#29 = EDGE_LOOP ( 'NONE', ( #272, #126, #145, #116 ) ) ;
#30 = DIRECTION ( 'NONE',  ( 0.000000000000000000, 0.000000000000000000, 1.000000000000000000 ) ) ;
#31 = ORIENTED_EDGE ( 'NONE', *, *, #235, .F. ) ;
#32 = CARTESIAN_POINT ( 'NONE',  ( 1.250000000000000000, 1.530808498934191571E-16, 1.199999999999999956 ) ) ;
#33 = ORIENTED_EDGE ( 'NONE', *, *, #235, .T. ) ;
#34 = CARTESIAN_POINT ( 'NONE',  ( 0.000000000000000000, 0.000000000000000000, 0.000000000000000000 ) ) ;
#35 = CARTESIAN_POINT ( 'NONE',  ( -0.5500000000000000444, 0.000000000000000000, 126.2000000000000028 ) ) ;
#36 = FACE_BOUND ( 'NONE', #10, .T. ) ;
#37 = FACE_OUTER_BOUND ( 'NONE', #244, .T. ) ;
#38 = CARTESIAN_POINT ( 'NONE',  ( 0.000000000000000000, 0.000000000000000000, 0.000000000000000000 ) ) ;
#39 = EDGE_CURVE ( 'NONE', #51, #222, #191, .T. ) ;
#40 = CIRCLE ( 'NONE', #212, 0.5500000000000000444 ) ;
#41 = CC_DESIGN_SECURITY_CLASSIFICATION ( #8, ( #201 ) ) ;
#42 = APPROVAL_DATE_TIME ( #63, #143 ) ;
#43 = PERSON_AND_ORGANIZATION ( #281, #142 ) ;
#44 = DATE_AND_TIME ( #137, #213 ) ;
#45 = APPROVAL_STATUS ( 'not_yet_approved' ) ;
#46 = CC_DESIGN_APPROVAL ( #143, ( #201 ) ) ;
#47 = ADVANCED_FACE ( 'NONE', ( #37 ), #200, .T. ) ;
#48 = PERSON_AND_ORGANIZATION ( #281, #142 ) ;
#49 = ORIENTED_EDGE ( 'NONE', *, *, #39, .F. ) ;
#50 = CIRCLE ( 'NONE', #169, 1.250000000000000000 ) ;
#51 = VERTEX_POINT ( 'NONE', #16 ) ;
#52 = DIRECTION ( 'NONE',  ( 0.000000000000000000, 0.000000000000000000, 1.000000000000000000 ) ) ;
#53 = ORIENTED_EDGE ( 'NONE', *, *, #89, .F. ) ;
#54 = DIRECTION ( 'NONE',  ( -0.000000000000000000, -0.000000000000000000, -1.000000000000000000 ) ) ;
#55 = EDGE_CURVE ( 'NONE', #263, #290, #83, .T. ) ;
#56 = CARTESIAN_POINT ( 'NONE',  ( 0.000000000000000000, 0.000000000000000000, 0.000000000000000000 ) ) ;
#57 = ORIENTED_EDGE ( 'NONE', *, *, #85, .F. ) ;
#58 = DIRECTION ( 'NONE',  ( 0.000000000000000000, 0.000000000000000000, -1.000000000000000000 ) ) ;
#59 = CARTESIAN_POINT ( 'NONE',  ( 0.000000000000000000, 0.000000000000000000, 126.2000000000000028 ) ) ;
#60 = PRODUCT_DEFINITION_SHAPE ( 'NONE', 'NONE',  #198 ) ;
#61 = DIRECTION ( 'NONE',  ( -0.000000000000000000, -0.000000000000000000, -1.000000000000000000 ) ) ;
#62 = AXIS2_PLACEMENT_3D ( 'NONE', #81, #101, #221 ) ;
#63 = DATE_AND_TIME ( #15, #92 ) ;
#64 = APPLICATION_PROTOCOL_DEFINITION ( 'international standard', 'config_control_design', 1994, #118 ) ;
#65 = CIRCLE ( 'NONE', #125, 0.7500000000000000000 ) ;
#66 = VECTOR ( 'NONE', #61, 1000.000000000000000 ) ;
#67 = VERTEX_POINT ( 'NONE', #251 ) ;
#68 = EDGE_CURVE ( 'NONE', #290, #263, #40, .T. ) ;
#69 = EDGE_LOOP ( 'NONE', ( #199, #264, #294, #53 ) ) ;
#70 = DIRECTION ( 'NONE',  ( 0.000000000000000000, 0.000000000000000000, 1.000000000000000000 ) ) ;
#71 = EDGE_LOOP ( 'NONE', ( #121, #119 ) ) ;
#72 = CYLINDRICAL_SURFACE ( 'NONE', #147, 1.250000000000000000 ) ;
#73 = CC_DESIGN_DATE_AND_TIME_ASSIGNMENT ( #44, #236, ( #8 ) ) ;
#74 = EDGE_LOOP ( 'NONE', ( #240, #76, #238, #242 ) ) ;
#75 = DIRECTION ( 'NONE',  ( 1.000000000000000000, 0.000000000000000000, -0.000000000000000000 ) ) ;
#76 = ORIENTED_EDGE ( 'NONE', *, *, #68, .F. ) ;
#77 = CARTESIAN_POINT ( 'NONE',  ( 0.000000000000000000, 0.000000000000000000, 1.399999999999998579 ) ) ;
#78 = DESIGN_CONTEXT ( 'detailed design', #189, 'design' ) ;
#79 = DIRECTION ( 'NONE',  ( -0.000000000000000000, -0.000000000000000000, -1.000000000000000000 ) ) ;
#80 = LOCAL_TIME ( 12, 25, 11.00000000000000000, #228 ) ;
#81 = CARTESIAN_POINT ( 'NONE',  ( 0.000000000000000000, 0.000000000000000000, 1.399999999999998579 ) ) ;
#82 = CARTESIAN_POINT ( 'NONE',  ( 0.000000000000000000, 0.000000000000000000, 126.2000000000000028 ) ) ;
#83 = CIRCLE ( 'NONE', #258, 0.5500000000000000444 ) ;
#84 = CARTESIAN_POINT ( 'NONE',  ( 0.000000000000000000, 0.000000000000000000, 1.199999999999999956 ) ) ;
#85 = EDGE_CURVE ( 'NONE', #287, #51, #210, .T. ) ;
#86 = CALENDAR_DATE ( 2022, 20, 6 ) ;
#87 = DIRECTION ( 'NONE',  ( -1.000000000000000000, 1.224646799147353454E-16, 0.000000000000000000 ) ) ;
#88 = COORDINATED_UNIVERSAL_TIME_OFFSET ( 1, 0, .AHEAD. ) ;
#89 = EDGE_CURVE ( 'NONE', #222, #51, #65, .T. ) ;
#90 = PERSON_AND_ORGANIZATION_ROLE ( 'classification_officer' ) ;
#91 = AXIS2_PLACEMENT_3D ( 'NONE', #82, #273, #298 ) ;
#92 = LOCAL_TIME ( 12, 25, 11.00000000000000000, #132 ) ;
#93 = AXIS2_PLACEMENT_3D ( 'NONE', #205, #185, #87 ) ;
#94 = ORIENTED_EDGE ( 'NONE', *, *, #168, .F. ) ;
#95 = EDGE_LOOP ( 'NONE', ( #193, #31 ) ) ;
#96 = FACE_OUTER_BOUND ( 'NONE', #71, .T. ) ;
#97 = ORIENTED_EDGE ( 'NONE', *, *, #114, .F. ) ;
#98 = ADVANCED_FACE ( 'NONE', ( #12 ), #204, .T. ) ;
#99 = DIRECTION ( 'NONE',  ( 1.000000000000000000, 0.000000000000000000, 0.000000000000000000 ) ) ;
#100 = AXIS2_PLACEMENT_3D ( 'NONE', #34, #52, #150 ) ;
#101 = DIRECTION ( 'NONE',  ( 0.000000000000000000, 0.000000000000000000, 1.000000000000000000 ) ) ;
#102 = MANIFOLD_SOLID_BREP ( 'Zaoblit1', #171 ) ;
#103 = VERTEX_POINT ( 'NONE', #107 ) ;
#104 = CARTESIAN_POINT ( 'NONE',  ( 1.250000000000000000, 1.530808498934191571E-16, 1.199999999999999956 ) ) ;
#105 = CARTESIAN_POINT ( 'NONE',  ( 0.000000000000000000, 0.000000000000000000, 1.199999999999999956 ) ) ;
#106 = DIRECTION ( 'NONE',  ( 1.000000000000000000, 0.000000000000000000, 0.000000000000000000 ) ) ;
#107 = CARTESIAN_POINT ( 'NONE',  ( -1.250000000000000000, 0.000000000000000000, 1.199999999999999956 ) ) ;
#108 = APPROVAL_ROLE ( '' ) ;
#109 = APPROVAL_DATE_TIME ( #234, #245 ) ;
#110 = APPROVAL_STATUS ( 'not_yet_approved' ) ;
#111 = CARTESIAN_POINT ( 'NONE',  ( -0.5500000000000000444, 0.000000000000000000, 126.2000000000000028 ) ) ;
#112 = PERSON_AND_ORGANIZATION_ROLE ( 'creator' ) ;
#113 = PERSON_AND_ORGANIZATION_ROLE ( 'design_supplier' ) ;
#114 = EDGE_CURVE ( 'NONE', #290, #67, #249, .T. ) ;
#115 = CC_DESIGN_PERSON_AND_ORGANIZATION_ASSIGNMENT ( #260, #90, ( #8 ) ) ;
#116 = ORIENTED_EDGE ( 'NONE', *, *, #262, .T. ) ;
#117 = CIRCLE ( 'NONE', #100, 1.250000000000000000 ) ;
#118 = APPLICATION_CONTEXT ( 'configuration controlled 3d designs of mechanical parts and assemblies' ) ;
#119 = ORIENTED_EDGE ( 'NONE', *, *, #274, .T. ) ;
#120 = DIRECTION ( 'NONE',  ( 0.000000000000000000, 0.000000000000000000, 1.000000000000000000 ) ) ;
#121 = ORIENTED_EDGE ( 'NONE', *, *, #219, .T. ) ;
#122 = APPROVAL_DATE_TIME ( #267, #24 ) ;
#123 = CARTESIAN_POINT ( 'NONE',  ( 0.000000000000000000, 0.000000000000000000, 1.399999999999998579 ) ) ;
#124 = FACE_OUTER_BOUND ( 'NONE', #69, .T. ) ;
#125 = AXIS2_PLACEMENT_3D ( 'NONE', #105, #79, #181 ) ;
#126 = ORIENTED_EDGE ( 'NONE', *, *, #219, .F. ) ;
#127 = FACE_OUTER_BOUND ( 'NONE', #215, .T. ) ;
#128 = DIRECTION ( 'NONE',  ( -0.000000000000000000, -0.000000000000000000, -1.000000000000000000 ) ) ;
#129 = PLANE ( 'NONE',  #139 ) ;
#130 = ADVANCED_FACE ( 'NONE', ( #127 ), #291, .F. ) ;
#131 = DIRECTION ( 'NONE',  ( -1.000000000000000000, 0.000000000000000000, 0.000000000000000000 ) ) ;
#132 = COORDINATED_UNIVERSAL_TIME_OFFSET ( 1, 0, .AHEAD. ) ;
#133 = DIRECTION ( 'NONE',  ( 0.000000000000000000, 0.000000000000000000, 1.000000000000000000 ) ) ;
#134 = CIRCLE ( 'NONE', #140, 1.250000000000000000 ) ;
#135 = CC_DESIGN_PERSON_AND_ORGANIZATION_ASSIGNMENT ( #48, #113, ( #201 ) ) ;
#136 = DIRECTION ( 'NONE',  ( -0.000000000000000000, -0.000000000000000000, -1.000000000000000000 ) ) ;
#137 = CALENDAR_DATE ( 2022, 20, 6 ) ;
#138 = DIRECTION ( 'NONE',  ( 1.000000000000000000, 0.000000000000000000, 0.000000000000000000 ) ) ;
#139 = AXIS2_PLACEMENT_3D ( 'NONE', #217, #301, #75 ) ;
#140 = AXIS2_PLACEMENT_3D ( 'NONE', #6, #30, #99 ) ;
#141 = APPROVAL_ROLE ( '' ) ;
#142 = ORGANIZATION ( 'NEURÈENÝ', 'NEURÈENÝ', '' ) ;
#143 = APPROVAL ( #305, 'NEURÈENÝ' ) ;
#144 = SECURITY_CLASSIFICATION_LEVEL ( 'unclassified' ) ;
#145 = ORIENTED_EDGE ( 'NONE', *, *, #168, .T. ) ;
#146 = DIRECTION ( 'NONE',  ( 0.000000000000000000, 0.000000000000000000, 1.000000000000000000 ) ) ;
#147 = AXIS2_PLACEMENT_3D ( 'NONE', #84, #136, #307 ) ;
#148 = SHAPE_DEFINITION_REPRESENTATION ( #60, #160 ) ;
#149 = ORIENTED_EDGE ( 'NONE', *, *, #55, .F. ) ;
#150 = DIRECTION ( 'NONE',  ( 1.000000000000000000, 0.000000000000000000, 0.000000000000000000 ) ) ;
#151 = ORIENTED_EDGE ( 'NONE', *, *, #68, .T. ) ;
#152 = DIRECTION ( 'NONE',  ( -0.000000000000000000, -0.000000000000000000, -1.000000000000000000 ) ) ;
#153 = ORIENTED_EDGE ( 'NONE', *, *, #28, .T. ) ;
#154 = LINE ( 'NONE', #197, #285 ) ;
#155 = DIRECTION ( 'NONE',  ( -0.000000000000000000, -0.000000000000000000, -1.000000000000000000 ) ) ;
#156 = EDGE_CURVE ( 'NONE', #175, #247, #178, .T. ) ;
#157 = CYLINDRICAL_SURFACE ( 'NONE', #179, 1.250000000000000000 ) ;
#158 = DIRECTION ( 'NONE',  ( 1.000000000000000000, 0.000000000000000000, 0.000000000000000000 ) ) ;
#159 = CARTESIAN_POINT ( 'NONE',  ( 0.000000000000000000, 0.000000000000000000, 126.2000000000000028 ) ) ;
#160 = ADVANCED_BREP_SHAPE_REPRESENTATION ( 'ab4f', ( #102, #167 ), #14 ) ;
#161 = CC_DESIGN_PERSON_AND_ORGANIZATION_ASSIGNMENT ( #21, #112, ( #198 ) ) ;
#162 = VECTOR ( 'NONE', #54, 1000.000000000000000 ) ;
#163 = CARTESIAN_POINT ( 'NONE',  ( 0.000000000000000000, 0.000000000000000000, 1.399999999999998579 ) ) ;
#164 = COORDINATED_UNIVERSAL_TIME_OFFSET ( 1, 0, .AHEAD. ) ;
#165 = APPLICATION_PROTOCOL_DEFINITION ( 'international standard', 'config_control_design', 1994, #189 ) ;
#166 = AXIS2_PLACEMENT_3D ( 'NONE', #276, #155, #131 ) ;
#167 = AXIS2_PLACEMENT_3D ( 'NONE', #38, #1, #138 ) ;
#168 = EDGE_CURVE ( 'NONE', #103, #211, #154, .T. ) ;
#169 = AXIS2_PLACEMENT_3D ( 'NONE', #176, #271, #269 ) ;
#170 = ORIENTED_EDGE ( 'NONE', *, *, #288, .T. ) ;
#171 = CLOSED_SHELL ( 'NONE', ( #130, #98, #190, #284, #208, #231, #239, #47, #187 ) ) ;
#172 = CC_DESIGN_APPROVAL ( #24, ( #8 ) ) ;
#173 = ORIENTED_EDGE ( 'NONE', *, *, #39, .T. ) ;
#174 = FACE_OUTER_BOUND ( 'NONE', #95, .T. ) ;
#175 = VERTEX_POINT ( 'NONE', #104 ) ;
#176 = CARTESIAN_POINT ( 'NONE',  ( 0.000000000000000000, 0.000000000000000000, 1.199999999999999956 ) ) ;
#177 = ORIENTED_EDGE ( 'NONE', *, *, #304, .T. ) ;
#178 = LINE ( 'NONE', #32, #162 ) ;
#179 = AXIS2_PLACEMENT_3D ( 'NONE', #250, #152, #275 ) ;
#180 = LOCAL_TIME ( 12, 25, 11.00000000000000000, #224 ) ;
#181 = DIRECTION ( 'NONE',  ( 1.000000000000000000, 0.000000000000000000, 0.000000000000000000 ) ) ;
#182 = DIRECTION ( 'NONE',  ( 1.000000000000000000, 0.000000000000000000, -0.000000000000000000 ) ) ;
#183 = CARTESIAN_POINT ( 'NONE',  ( 0.7500000000000000000, 0.000000000000000000, 1.399999999999998579 ) ) ;
#184 =( NAMED_UNIT ( * ) PLANE_ANGLE_UNIT ( ) SI_UNIT ( $, .RADIAN. ) );
#185 = DIRECTION ( 'NONE',  ( 1.224646799147353207E-16, 1.000000000000000000, -0.000000000000000000 ) ) ;
#186 = DIRECTION ( 'NONE',  ( 1.000000000000000000, 0.000000000000000000, 0.000000000000000000 ) ) ;
#187 = ADVANCED_FACE ( 'NONE', ( #124 ), #195, .F. ) ;
#188 =( NAMED_UNIT ( * ) SI_UNIT ( $, .STERADIAN. ) SOLID_ANGLE_UNIT ( ) );
#189 = APPLICATION_CONTEXT ( 'configuration controlled 3d designs of mechanical parts and assemblies' ) ;
#190 = ADVANCED_FACE ( 'NONE', ( #295 ), #157, .T. ) ;
#191 = CIRCLE ( 'NONE', #220, 0.7500000000000000000 ) ;
#192 = ORIENTED_EDGE ( 'NONE', *, *, #55, .T. ) ;
#193 = ORIENTED_EDGE ( 'NONE', *, *, #262, .F. ) ;
#194 = EDGE_LOOP ( 'NONE', ( #149, #170, #153, #97 ) ) ;
#195 = TOROIDAL_SURFACE ( 'NONE', #62, 0.7500000000000000000, 0.2000000000000000111 ) ;
#196 = CARTESIAN_POINT ( 'NONE',  ( -1.250000000000000000, 0.000000000000000000, 0.000000000000000000 ) ) ;
#197 = CARTESIAN_POINT ( 'NONE',  ( -1.250000000000000000, 0.000000000000000000, 1.199999999999999956 ) ) ;
#198 = PRODUCT_DEFINITION ( 'NEZNÁMÝ', '', #201, #78 ) ;
#199 = ORIENTED_EDGE ( 'NONE', *, *, #304, .F. ) ;
#200 = PLANE ( 'NONE',  #91 ) ;
#201 = PRODUCT_DEFINITION_FORMATION_WITH_SPECIFIED_SOURCE ( 'LIBOVOLNÝ', '', #233, .NOT_KNOWN. ) ;
#202 = DIRECTION ( 'NONE',  ( 1.000000000000000000, 0.000000000000000000, 0.000000000000000000 ) ) ;
#203 = PERSON_AND_ORGANIZATION ( #281, #142 ) ;
#204 = CYLINDRICAL_SURFACE ( 'NONE', #166, 0.5500000000000000444 ) ;
#205 = CARTESIAN_POINT ( 'NONE',  ( -0.7500000000000000000, 9.184850993605149670E-17, 1.399999999999998579 ) ) ;
#206 =( LENGTH_UNIT ( ) NAMED_UNIT ( * ) SI_UNIT ( .MILLI., .METRE. ) );
#207 = CARTESIAN_POINT ( 'NONE',  ( 0.5500000000000000444, 6.735557395310442516E-17, 126.2000000000000028 ) ) ;
#208 = ADVANCED_FACE ( 'NONE', ( #36, #96 ), #129, .T. ) ;
#209 = DATE_AND_TIME ( #278, #80 ) ;
#210 = CIRCLE ( 'NONE', #261, 0.2000000000000000944 ) ;
#211 = VERTEX_POINT ( 'NONE', #196 ) ;
#212 = AXIS2_PLACEMENT_3D ( 'NONE', #159, #133, #227 ) ;
#213 = LOCAL_TIME ( 12, 25, 11.00000000000000000, #88 ) ;
#214 = PRODUCT_RELATED_PRODUCT_CATEGORY ( 'detail', '', ( #233 ) ) ;
#215 = EDGE_LOOP ( 'NONE', ( #218, #177, #49, #57 ) ) ;
#216 = CYLINDRICAL_SURFACE ( 'NONE', #259, 0.5500000000000000444 ) ;
#217 = CARTESIAN_POINT ( 'NONE',  ( 0.000000000000000000, 0.000000000000000000, 1.199999999999999956 ) ) ;
#218 = ORIENTED_EDGE ( 'NONE', *, *, #299, .F. ) ;
#219 = EDGE_CURVE ( 'NONE', #103, #175, #50, .T. ) ;
#220 = AXIS2_PLACEMENT_3D ( 'NONE', #7, #128, #202 ) ;
#221 = DIRECTION ( 'NONE',  ( 1.000000000000000000, 0.000000000000000000, 0.000000000000000000 ) ) ;
#222 = VERTEX_POINT ( 'NONE', #13 ) ;
#223 = DIRECTION ( 'NONE',  ( -0.000000000000000000, -0.000000000000000000, -1.000000000000000000 ) ) ;
#224 = COORDINATED_UNIVERSAL_TIME_OFFSET ( 1, 0, .AHEAD. ) ;
#225 = CIRCLE ( 'NONE', #2, 0.5500000000000000444 ) ;
#226 = APPROVAL_PERSON_ORGANIZATION ( #257, #245, #141 ) ;
#227 = DIRECTION ( 'NONE',  ( 1.000000000000000000, 0.000000000000000000, 0.000000000000000000 ) ) ;
#228 = COORDINATED_UNIVERSAL_TIME_OFFSET ( 1, 0, .AHEAD. ) ;
#229 = PERSON_AND_ORGANIZATION ( #281, #142 ) ;
#230 = PERSON_AND_ORGANIZATION ( #281, #142 ) ;
#231 = ADVANCED_FACE ( 'NONE', ( #174 ), #289, .F. ) ;
#232 = AXIS2_PLACEMENT_3D ( 'NONE', #56, #120, #182 ) ;
#233 = PRODUCT ( 'ab4f', 'ab4f', '', ( #277 ) ) ;
#234 = DATE_AND_TIME ( #256, #180 ) ;
#235 = EDGE_CURVE ( 'NONE', #247, #211, #292, .T. ) ;
#236 = DATE_TIME_ROLE ( 'classification_date' ) ;
#237 = AXIS2_PLACEMENT_3D ( 'NONE', #27, #146, #106 ) ;
#238 = ORIENTED_EDGE ( 'NONE', *, *, #114, .T. ) ;
#239 = ADVANCED_FACE ( 'NONE', ( #241 ), #216, .T. ) ;
#240 = ORIENTED_EDGE ( 'NONE', *, *, #288, .F. ) ;
#241 = FACE_OUTER_BOUND ( 'NONE', #74, .T. ) ;
#242 = ORIENTED_EDGE ( 'NONE', *, *, #299, .T. ) ;
#243 = CARTESIAN_POINT ( 'NONE',  ( 0.5500000000000000444, 6.735557395310442516E-17, 126.2000000000000028 ) ) ;
#244 = EDGE_LOOP ( 'NONE', ( #151, #192 ) ) ;
#245 = APPROVAL ( #45, 'NEURÈENÝ' ) ;
#246 = DIRECTION ( 'NONE',  ( -0.000000000000000000, -0.000000000000000000, -1.000000000000000000 ) ) ;
#247 = VERTEX_POINT ( 'NONE', #266 ) ;
#248 = CARTESIAN_POINT ( 'NONE',  ( 0.000000000000000000, 0.000000000000000000, 126.2000000000000028 ) ) ;
#249 = LINE ( 'NONE', #35, #254 ) ;
#250 = CARTESIAN_POINT ( 'NONE',  ( 0.000000000000000000, 0.000000000000000000, 1.199999999999999956 ) ) ;
#251 = CARTESIAN_POINT ( 'NONE',  ( -0.5500000000000000444, 0.000000000000000000, 1.399999999999998579 ) ) ;
#252 = DATE_TIME_ROLE ( 'creation_date' ) ;
#253 = DIRECTION ( 'NONE',  ( 0.000000000000000000, 0.000000000000000000, 1.000000000000000000 ) ) ;
#254 = VECTOR ( 'NONE', #223, 1000.000000000000000 ) ;
#255 = APPROVAL_PERSON_ORGANIZATION ( #230, #24, #282 ) ;
#256 = CALENDAR_DATE ( 2022, 20, 6 ) ;
#257 = PERSON_AND_ORGANIZATION ( #281, #142 ) ;
#258 = AXIS2_PLACEMENT_3D ( 'NONE', #59, #253, #158 ) ;
#259 = AXIS2_PLACEMENT_3D ( 'NONE', #248, #246, #5 ) ;
#260 = PERSON_AND_ORGANIZATION ( #281, #142 ) ;
#261 = AXIS2_PLACEMENT_3D ( 'NONE', #183, #302, #58 ) ;
#262 = EDGE_CURVE ( 'NONE', #211, #247, #117, .T. ) ;
#263 = VERTEX_POINT ( 'NONE', #243 ) ;
#264 = ORIENTED_EDGE ( 'NONE', *, *, #28, .F. ) ;
#265 = LOCAL_TIME ( 12, 25, 11.00000000000000000, #164 ) ;
#266 = CARTESIAN_POINT ( 'NONE',  ( 1.250000000000000000, 1.530808498934191571E-16, 0.000000000000000000 ) ) ;
#267 = DATE_AND_TIME ( #86, #265 ) ;
#268 = ORIENTED_EDGE ( 'NONE', *, *, #89, .T. ) ;
#269 = DIRECTION ( 'NONE',  ( 1.000000000000000000, 0.000000000000000000, 0.000000000000000000 ) ) ;
#270 = EDGE_LOOP ( 'NONE', ( #286, #4, #33, #94 ) ) ;
#271 = DIRECTION ( 'NONE',  ( 0.000000000000000000, 0.000000000000000000, 1.000000000000000000 ) ) ;
#272 = ORIENTED_EDGE ( 'NONE', *, *, #156, .F. ) ;
#273 = DIRECTION ( 'NONE',  ( 0.000000000000000000, 0.000000000000000000, 1.000000000000000000 ) ) ;
#274 = EDGE_CURVE ( 'NONE', #175, #103, #134, .T. ) ;
#275 = DIRECTION ( 'NONE',  ( -1.000000000000000000, 0.000000000000000000, 0.000000000000000000 ) ) ;
#276 = CARTESIAN_POINT ( 'NONE',  ( 0.000000000000000000, 0.000000000000000000, 126.2000000000000028 ) ) ;
#277 = MECHANICAL_CONTEXT ( 'NONE', #118, 'mechanical' ) ;
#278 = CALENDAR_DATE ( 2022, 20, 6 ) ;
#279 = AXIS2_PLACEMENT_3D ( 'NONE', #163, #303, #186 ) ;
#280 = LINE ( 'NONE', #207, #66 ) ;
#281 = PERSON ( 'NEURÈENÝ', 'NEURÈENÝ', 'NEURÈENÝ', ('NEURÈENÝ'), ('NEURÈENÝ'), ('NEURÈENÝ') ) ;
#282 = APPROVAL_ROLE ( '' ) ;
#283 = CIRCLE ( 'NONE', #93, 0.1999999999999999833 ) ;
#284 = ADVANCED_FACE ( 'NONE', ( #293 ), #72, .T. ) ;
#285 = VECTOR ( 'NONE', #297, 1000.000000000000000 ) ;
#286 = ORIENTED_EDGE ( 'NONE', *, *, #274, .F. ) ;
#287 = VERTEX_POINT ( 'NONE', #20 ) ;
#288 = EDGE_CURVE ( 'NONE', #263, #287, #280, .T. ) ;
#289 = PLANE ( 'NONE',  #232 ) ;
#290 = VERTEX_POINT ( 'NONE', #111 ) ;
#291 = TOROIDAL_SURFACE ( 'NONE', #306, 0.7500000000000000000, 0.2000000000000000111 ) ;
#292 = CIRCLE ( 'NONE', #237, 1.250000000000000000 ) ;
#293 = FACE_OUTER_BOUND ( 'NONE', #29, .T. ) ;
#294 = ORIENTED_EDGE ( 'NONE', *, *, #85, .T. ) ;
#295 = FACE_OUTER_BOUND ( 'NONE', #270, .T. ) ;
#296 = DIRECTION ( 'NONE',  ( 1.000000000000000000, 0.000000000000000000, 0.000000000000000000 ) ) ;
#297 = DIRECTION ( 'NONE',  ( -0.000000000000000000, -0.000000000000000000, -1.000000000000000000 ) ) ;
#298 = DIRECTION ( 'NONE',  ( 1.000000000000000000, 0.000000000000000000, -0.000000000000000000 ) ) ;
#299 = EDGE_CURVE ( 'NONE', #67, #287, #300, .T. ) ;
#300 = CIRCLE ( 'NONE', #279, 0.5500000000000000444 ) ;
#301 = DIRECTION ( 'NONE',  ( 0.000000000000000000, 0.000000000000000000, 1.000000000000000000 ) ) ;
#302 = DIRECTION ( 'NONE',  ( 0.000000000000000000, -1.000000000000000000, 0.000000000000000000 ) ) ;
#303 = DIRECTION ( 'NONE',  ( 0.000000000000000000, 0.000000000000000000, 1.000000000000000000 ) ) ;
#304 = EDGE_CURVE ( 'NONE', #67, #222, #283, .T. ) ;
#305 = APPROVAL_STATUS ( 'not_yet_approved' ) ;
#306 = AXIS2_PLACEMENT_3D ( 'NONE', #77, #70, #9 ) ;
#307 = DIRECTION ( 'NONE',  ( -1.000000000000000000, 0.000000000000000000, 0.000000000000000000 ) ) ;
ENDSEC;
END-ISO-10303-21;
