ISO-10303-21;
HEADER;
FILE_DESCRIPTION (( 'STEP AP203' ),
    '1' );
FILE_NAME ('b0a2.STEP',
    '2022-06-20T09:22:54',
    ( '' ),
    ( '' ),
    'SwSTEP 2.0',
    'SolidWorks 2019',
    '' );
FILE_SCHEMA (( 'CONFIG_CONTROL_DESIGN' ));
ENDSEC;

DATA;
#1 = CARTESIAN_POINT ( 'NONE',  ( 0.000000000000000000, 0.000000000000000000, 7.200000000000095213 ) ) ;
#2 = EDGE_CURVE ( 'NONE', #159, #64, #15, .T. ) ;
#3 = APPROVAL_PERSON_ORGANIZATION ( #259, #6, #185 ) ;
#4 = CARTESIAN_POINT ( 'NONE',  ( 0.000000000000000000, 0.000000000000000000, 7.000000000000000000 ) ) ;
#5 = DATE_AND_TIME ( #289, #94 ) ;
#6 = APPROVAL ( #164, 'NEURÈENÝ' ) ;
#7 = ORIENTED_EDGE ( 'NONE', *, *, #120, .F. ) ;
#8 = VECTOR ( 'NONE', #249, 1000.000000000000000 ) ;
#9 = TOROIDAL_SURFACE ( 'NONE', #210, 8.200000000000001066, 0.2000000000000000111 ) ;
#10 = ORIENTED_EDGE ( 'NONE', *, *, #142, .F. ) ;
#11 = DIRECTION ( 'NONE',  ( 0.000000000000000000, 0.000000000000000000, 1.000000000000000000 ) ) ;
#12 = VERTEX_POINT ( 'NONE', #291 ) ;
#13 = ORIENTED_EDGE ( 'NONE', *, *, #142, .T. ) ;
#14 = AXIS2_PLACEMENT_3D ( 'NONE', #236, #207, #41 ) ;
#15 = LINE ( 'NONE', #195, #8 ) ;
#16 = SECURITY_CLASSIFICATION_LEVEL ( 'unclassified' ) ;
#17 = CARTESIAN_POINT ( 'NONE',  ( 0.000000000000000000, 0.000000000000000000, 1206.999999999999773 ) ) ;
#18 = CARTESIAN_POINT ( 'NONE',  ( -11.00000000000000000, 0.000000000000000000, 7.000000000000000000 ) ) ;
#19 = CARTESIAN_POINT ( 'NONE',  ( 0.000000000000000000, 0.000000000000000000, 0.000000000000000000 ) ) ;
#20 = DIRECTION ( 'NONE',  ( 1.000000000000000000, 0.000000000000000000, 0.000000000000000000 ) ) ;
#21 = CARTESIAN_POINT ( 'NONE',  ( 0.000000000000000000, 0.000000000000000000, 0.000000000000000000 ) ) ;
#22 = APPLICATION_PROTOCOL_DEFINITION ( 'international standard', 'config_control_design', 1994, #112 ) ;
#23 = AXIS2_PLACEMENT_3D ( 'NONE', #102, #200, #83 ) ;
#24 = DIRECTION ( 'NONE',  ( 1.000000000000000000, 0.000000000000000000, 0.000000000000000000 ) ) ;
#25 = LOCAL_TIME ( 11, 22, 54.00000000000000000, #85 ) ;
#26 = DATE_AND_TIME ( #53, #285 ) ;
#27 = CARTESIAN_POINT ( 'NONE',  ( -8.200000000000001066, 1.004210375300829674E-15, 7.000000000000047962 ) ) ;
#28 = PRODUCT_DEFINITION_SHAPE ( 'NONE', 'NONE',  #213 ) ;
#29 = COORDINATED_UNIVERSAL_TIME_OFFSET ( 1, 0, .AHEAD. ) ;
#30 = CC_DESIGN_SECURITY_CLASSIFICATION ( #264, ( #234 ) ) ;
#31 = EDGE_CURVE ( 'NONE', #61, #111, #233, .T. ) ;
#32 = VERTEX_POINT ( 'NONE', #27 ) ;
#33 = DATE_TIME_ROLE ( 'creation_date' ) ;
#34 = MANIFOLD_SOLID_BREP ( 'Zaoblit1', #44 ) ;
#35 = ORIENTED_EDGE ( 'NONE', *, *, #286, .T. ) ;
#36 = DIRECTION ( 'NONE',  ( 0.000000000000000000, 0.000000000000000000, 1.000000000000000000 ) ) ;
#37 = APPROVAL_PERSON_ORGANIZATION ( #149, #56, #132 ) ;
#38 = EDGE_LOOP ( 'NONE', ( #86, #272 ) ) ;
#39 = PERSON_AND_ORGANIZATION ( #158, #202 ) ;
#40 = CARTESIAN_POINT ( 'NONE',  ( -11.00000000000000000, 0.000000000000000000, 7.000000000000000000 ) ) ;
#41 = DIRECTION ( 'NONE',  ( 1.000000000000000000, 0.000000000000000000, 0.000000000000000000 ) ) ;
#42 = ADVANCED_FACE ( 'NONE', ( #205 ), #192, .F. ) ;
#43 = DIRECTION ( 'NONE',  ( 0.000000000000000000, 0.000000000000000000, 1.000000000000000000 ) ) ;
#44 = CLOSED_SHELL ( 'NONE', ( #294, #243, #77, #254, #123, #191, #306, #298, #42 ) ) ;
#45 = CYLINDRICAL_SURFACE ( 'NONE', #135, 11.00000000000000000 ) ;
#46 = DIRECTION ( 'NONE',  ( 0.000000000000000000, 0.000000000000000000, 1.000000000000000000 ) ) ;
#47 = FACE_OUTER_BOUND ( 'NONE', #178, .T. ) ;
#48 = FACE_OUTER_BOUND ( 'NONE', #57, .T. ) ;
#49 = CIRCLE ( 'NONE', #60, 8.200000000000001066 ) ;
#50 =( NAMED_UNIT ( * ) SI_UNIT ( $, .STERADIAN. ) SOLID_ANGLE_UNIT ( ) );
#51 = DIRECTION ( 'NONE',  ( -1.000000000000000000, 0.000000000000000000, 0.000000000000000000 ) ) ;
#52 = AXIS2_PLACEMENT_3D ( 'NONE', #147, #242, #215 ) ;
#53 = CALENDAR_DATE ( 2022, 20, 6 ) ;
#54 = PERSON_AND_ORGANIZATION_ROLE ( 'creator' ) ;
#55 = ORIENTED_EDGE ( 'NONE', *, *, #194, .F. ) ;
#56 = APPROVAL ( #156, 'NEURÈENÝ' ) ;
#57 = EDGE_LOOP ( 'NONE', ( #55, #157, #109, #174 ) ) ;
#58 = ADVANCED_BREP_SHAPE_REPRESENTATION ( 'b0a2', ( #34, #23 ), #155 ) ;
#59 = DATE_AND_TIME ( #177, #25 ) ;
#60 = AXIS2_PLACEMENT_3D ( 'NONE', #4, #75, #24 ) ;
#61 = VERTEX_POINT ( 'NONE', #307 ) ;
#62 = VERTEX_POINT ( 'NONE', #277 ) ;
#63 = PERSON_AND_ORGANIZATION_ROLE ( 'design_supplier' ) ;
#64 = VERTEX_POINT ( 'NONE', #141 ) ;
#65 = CC_DESIGN_DATE_AND_TIME_ASSIGNMENT ( #281, #227, ( #264 ) ) ;
#66 = CIRCLE ( 'NONE', #100, 11.00000000000000000 ) ;
#67 = CARTESIAN_POINT ( 'NONE',  ( -8.000000000000000000, 0.000000000000000000, 1206.999999999999773 ) ) ;
#68 = FACE_BOUND ( 'NONE', #216, .T. ) ;
#69 = CC_DESIGN_PERSON_AND_ORGANIZATION_ASSIGNMENT ( #235, #253, ( #234 ) ) ;
#70 = DIRECTION ( 'NONE',  ( 1.000000000000000000, 0.000000000000000000, 0.000000000000000000 ) ) ;
#71 = PLANE ( 'NONE',  #290 ) ;
#72 =( LENGTH_UNIT ( ) NAMED_UNIT ( * ) SI_UNIT ( .MILLI., .METRE. ) );
#73 = DIRECTION ( 'NONE',  ( 0.000000000000000000, 0.000000000000000000, 1.000000000000000000 ) ) ;
#74 = DIRECTION ( 'NONE',  ( -0.000000000000000000, -0.000000000000000000, -1.000000000000000000 ) ) ;
#75 = DIRECTION ( 'NONE',  ( -0.000000000000000000, -0.000000000000000000, -1.000000000000000000 ) ) ;
#76 = AXIS2_PLACEMENT_3D ( 'NONE', #186, #136, #305 ) ;
#77 = ADVANCED_FACE ( 'NONE', ( #229 ), #45, .T. ) ;
#78 = APPLICATION_PROTOCOL_DEFINITION ( 'international standard', 'config_control_design', 1994, #288 ) ;
#79 = CARTESIAN_POINT ( 'NONE',  ( -11.00000000000000000, 0.000000000000000000, 0.000000000000000000 ) ) ;
#80 = AXIS2_PLACEMENT_3D ( 'NONE', #209, #43, #232 ) ;
#81 = CARTESIAN_POINT ( 'NONE',  ( 0.000000000000000000, 0.000000000000000000, 7.000000000000000000 ) ) ;
#82 = CC_DESIGN_PERSON_AND_ORGANIZATION_ASSIGNMENT ( #283, #63, ( #234 ) ) ;
#83 = DIRECTION ( 'NONE',  ( 1.000000000000000000, 0.000000000000000000, 0.000000000000000000 ) ) ;
#84 = ORIENTED_EDGE ( 'NONE', *, *, #238, .T. ) ;
#85 = COORDINATED_UNIVERSAL_TIME_OFFSET ( 1, 0, .AHEAD. ) ;
#86 = ORIENTED_EDGE ( 'NONE', *, *, #89, .T. ) ;
#87 = AXIS2_PLACEMENT_3D ( 'NONE', #21, #261, #165 ) ;
#88 = VERTEX_POINT ( 'NONE', #230 ) ;
#89 = EDGE_CURVE ( 'NONE', #134, #159, #93, .T. ) ;
#90 = ORIENTED_EDGE ( 'NONE', *, *, #105, .T. ) ;
#91 = APPROVAL_DATE_TIME ( #113, #6 ) ;
#92 = CARTESIAN_POINT ( 'NONE',  ( 8.000000000000000000, 9.797174393178825657E-16, 1206.999999999999773 ) ) ;
#93 = CIRCLE ( 'NONE', #80, 8.000000000000000000 ) ;
#94 = LOCAL_TIME ( 11, 22, 54.00000000000000000, #29 ) ;
#95 = CARTESIAN_POINT ( 'NONE',  ( 0.000000000000000000, 0.000000000000000000, 0.000000000000000000 ) ) ;
#96 = CC_DESIGN_PERSON_AND_ORGANIZATION_ASSIGNMENT ( #39, #256, ( #264 ) ) ;
#97 = DIRECTION ( 'NONE',  ( 0.000000000000000000, 0.000000000000000000, 1.000000000000000000 ) ) ;
#98 = DIRECTION ( 'NONE',  ( -0.000000000000000000, -0.000000000000000000, -1.000000000000000000 ) ) ;
#99 = DIRECTION ( 'NONE',  ( 0.000000000000000000, 0.000000000000000000, -1.000000000000000000 ) ) ;
#100 = AXIS2_PLACEMENT_3D ( 'NONE', #95, #73, #204 ) ;
#101 = AXIS2_PLACEMENT_3D ( 'NONE', #146, #211, #51 ) ;
#102 = CARTESIAN_POINT ( 'NONE',  ( 0.000000000000000000, 0.000000000000000000, 0.000000000000000000 ) ) ;
#103 = FACE_OUTER_BOUND ( 'NONE', #38, .T. ) ;
#104 = CIRCLE ( 'NONE', #278, 0.2000000000000005107 ) ;
#105 = EDGE_CURVE ( 'NONE', #64, #62, #273, .T. ) ;
#106 = EDGE_LOOP ( 'NONE', ( #10, #175, #90, #201 ) ) ;
#107 = AXIS2_PLACEMENT_3D ( 'NONE', #19, #97, #184 ) ;
#108 = ORIENTED_EDGE ( 'NONE', *, *, #89, .F. ) ;
#109 = ORIENTED_EDGE ( 'NONE', *, *, #115, .T. ) ;
#110 = ORIENTED_EDGE ( 'NONE', *, *, #168, .T. ) ;
#111 = VERTEX_POINT ( 'NONE', #18 ) ;
#112 = APPLICATION_CONTEXT ( 'configuration controlled 3d designs of mechanical parts and assemblies' ) ;
#113 = DATE_AND_TIME ( #304, #129 ) ;
#114 = LINE ( 'NONE', #299, #183 ) ;
#115 = EDGE_CURVE ( 'NONE', #64, #88, #239, .T. ) ;
#116 = CARTESIAN_POINT ( 'NONE',  ( 0.000000000000000000, 0.000000000000000000, 7.200000000000095213 ) ) ;
#117 = DIRECTION ( 'NONE',  ( -0.000000000000000000, -0.000000000000000000, -1.000000000000000000 ) ) ;
#118 = CARTESIAN_POINT ( 'NONE',  ( 0.000000000000000000, 0.000000000000000000, 7.000000000000000000 ) ) ;
#119 = CARTESIAN_POINT ( 'NONE',  ( 8.200000000000001066, 0.000000000000000000, 7.200000000000095213 ) ) ;
#120 = EDGE_CURVE ( 'NONE', #12, #296, #66, .T. ) ;
#121 = CYLINDRICAL_SURFACE ( 'NONE', #101, 8.000000000000000000 ) ;
#122 = CARTESIAN_POINT ( 'NONE',  ( 0.000000000000000000, 0.000000000000000000, 1206.999999999999773 ) ) ;
#123 = ADVANCED_FACE ( 'NONE', ( #68, #303 ), #71, .T. ) ;
#124 = PRODUCT ( 'b0a2', 'b0a2', '', ( #148 ) ) ;
#125 = CARTESIAN_POINT ( 'NONE',  ( 0.000000000000000000, 0.000000000000000000, 7.200000000000095213 ) ) ;
#126 = AXIS2_PLACEMENT_3D ( 'NONE', #152, #11, #228 ) ;
#127 = DIRECTION ( 'NONE',  ( 0.000000000000000000, 0.000000000000000000, 1.000000000000000000 ) ) ;
#128 = EDGE_LOOP ( 'NONE', ( #246, #297, #110, #150 ) ) ;
#129 = LOCAL_TIME ( 11, 22, 54.00000000000000000, #275 ) ;
#130 = PERSON_AND_ORGANIZATION ( #158, #202 ) ;
#131 = ORIENTED_EDGE ( 'NONE', *, *, #31, .T. ) ;
#132 = APPROVAL_ROLE ( '' ) ;
#133 = ORIENTED_EDGE ( 'NONE', *, *, #217, .T. ) ;
#134 = VERTEX_POINT ( 'NONE', #67 ) ;
#135 = AXIS2_PLACEMENT_3D ( 'NONE', #284, #182, #139 ) ;
#136 = DIRECTION ( 'NONE',  ( -0.000000000000000000, -0.000000000000000000, -1.000000000000000000 ) ) ;
#137 = EDGE_CURVE ( 'NONE', #296, #12, #162, .T. ) ;
#138 = DIRECTION ( 'NONE',  ( 0.000000000000000000, -1.000000000000000000, 0.000000000000000000 ) ) ;
#139 = DIRECTION ( 'NONE',  ( -1.000000000000000000, 0.000000000000000000, 0.000000000000000000 ) ) ;
#140 = DIRECTION ( 'NONE',  ( 0.000000000000000000, 0.000000000000000000, 1.000000000000000000 ) ) ;
#141 = CARTESIAN_POINT ( 'NONE',  ( 8.000000000000000000, 9.797174393178825657E-16, 7.200000000000095213 ) ) ;
#142 = EDGE_CURVE ( 'NONE', #88, #32, #104, .T. ) ;
#143 = DIRECTION ( 'NONE',  ( 1.000000000000000000, 0.000000000000000000, 0.000000000000000000 ) ) ;
#144 = CC_DESIGN_DATE_AND_TIME_ASSIGNMENT ( #59, #33, ( #213 ) ) ;
#145 = CYLINDRICAL_SURFACE ( 'NONE', #52, 11.00000000000000000 ) ;
#146 = CARTESIAN_POINT ( 'NONE',  ( 0.000000000000000000, 0.000000000000000000, 1206.999999999999773 ) ) ;
#147 = CARTESIAN_POINT ( 'NONE',  ( 0.000000000000000000, 0.000000000000000000, 7.000000000000000000 ) ) ;
#148 = MECHANICAL_CONTEXT ( 'NONE', #112, 'mechanical' ) ;
#149 = PERSON_AND_ORGANIZATION ( #158, #202 ) ;
#150 = ORIENTED_EDGE ( 'NONE', *, *, #137, .T. ) ;
#151 = APPROVAL_ROLE ( '' ) ;
#152 = CARTESIAN_POINT ( 'NONE',  ( 0.000000000000000000, 0.000000000000000000, 1206.999999999999773 ) ) ;
#153 = ORIENTED_EDGE ( 'NONE', *, *, #286, .F. ) ;
#154 = AXIS2_PLACEMENT_3D ( 'NONE', #81, #36, #244 ) ;
#155 =( GEOMETRIC_REPRESENTATION_CONTEXT ( 3 ) GLOBAL_UNCERTAINTY_ASSIGNED_CONTEXT ( ( #208 ) ) GLOBAL_UNIT_ASSIGNED_CONTEXT ( ( #72, #241, #50 ) ) REPRESENTATION_CONTEXT ( 'NONE', 'WORKASPACE' ) );
#156 = APPROVAL_STATUS ( 'not_yet_approved' ) ;
#157 = ORIENTED_EDGE ( 'NONE', *, *, #2, .T. ) ;
#158 = PERSON ( 'NEURÈENÝ', 'NEURÈENÝ', 'NEURÈENÝ', ('NEURÈENÝ'), ('NEURÈENÝ'), ('NEURÈENÝ') ) ;
#159 = VERTEX_POINT ( 'NONE', #92 ) ;
#160 = CALENDAR_DATE ( 2022, 20, 6 ) ;
#161 = ORIENTED_EDGE ( 'NONE', *, *, #120, .T. ) ;
#162 = CIRCLE ( 'NONE', #107, 11.00000000000000000 ) ;
#163 = LINE ( 'NONE', #40, #206 ) ;
#164 = APPROVAL_STATUS ( 'not_yet_approved' ) ;
#165 = DIRECTION ( 'NONE',  ( 1.000000000000000000, 0.000000000000000000, -0.000000000000000000 ) ) ;
#166 = PLANE ( 'NONE',  #87 ) ;
#167 = APPROVAL_PERSON_ORGANIZATION ( #173, #199, #151 ) ;
#168 = EDGE_CURVE ( 'NONE', #111, #296, #163, .T. ) ;
#169 = CARTESIAN_POINT ( 'NONE',  ( -8.000000000000000000, 0.000000000000000000, 1206.999999999999773 ) ) ;
#170 = DIRECTION ( 'NONE',  ( 1.000000000000000000, 0.000000000000000000, -0.000000000000000000 ) ) ;
#171 = CC_DESIGN_PERSON_AND_ORGANIZATION_ASSIGNMENT ( #130, #54, ( #213 ) ) ;
#172 = CIRCLE ( 'NONE', #189, 11.00000000000000000 ) ;
#173 = PERSON_AND_ORGANIZATION ( #158, #202 ) ;
#174 = ORIENTED_EDGE ( 'NONE', *, *, #238, .F. ) ;
#175 = ORIENTED_EDGE ( 'NONE', *, *, #115, .F. ) ;
#176 = EDGE_CURVE ( 'NONE', #62, #32, #218, .T. ) ;
#177 = CALENDAR_DATE ( 2022, 20, 6 ) ;
#178 = EDGE_LOOP ( 'NONE', ( #222, #108, #84, #35 ) ) ;
#179 = APPROVAL_DATE_TIME ( #5, #199 ) ;
#180 = ORIENTED_EDGE ( 'NONE', *, *, #168, .F. ) ;
#181 = DESIGN_CONTEXT ( 'detailed design', #288, 'design' ) ;
#182 = DIRECTION ( 'NONE',  ( -0.000000000000000000, -0.000000000000000000, -1.000000000000000000 ) ) ;
#183 = VECTOR ( 'NONE', #98, 1000.000000000000000 ) ;
#184 = DIRECTION ( 'NONE',  ( 1.000000000000000000, 0.000000000000000000, 0.000000000000000000 ) ) ;
#185 = APPROVAL_ROLE ( '' ) ;
#186 = CARTESIAN_POINT ( 'NONE',  ( 0.000000000000000000, 0.000000000000000000, 7.000000000000000000 ) ) ;
#187 = COORDINATED_UNIVERSAL_TIME_OFFSET ( 1, 0, .AHEAD. ) ;
#188 = LINE ( 'NONE', #169, #225 ) ;
#189 = AXIS2_PLACEMENT_3D ( 'NONE', #257, #140, #20 ) ;
#190 = DIRECTION ( 'NONE',  ( 0.000000000000000000, 0.000000000000000000, 1.000000000000000000 ) ) ;
#191 = ADVANCED_FACE ( 'NONE', ( #237 ), #166, .F. ) ;
#192 = TOROIDAL_SURFACE ( 'NONE', #14, 8.200000000000001066, 0.2000000000000000111 ) ;
#193 = DIRECTION ( 'NONE',  ( 1.000000000000000000, 0.000000000000000000, 0.000000000000000000 ) ) ;
#194 = EDGE_CURVE ( 'NONE', #159, #134, #212, .T. ) ;
#195 = CARTESIAN_POINT ( 'NONE',  ( 8.000000000000000000, 9.797174393178825657E-16, 1206.999999999999773 ) ) ;
#196 = CC_DESIGN_APPROVAL ( #56, ( #234 ) ) ;
#197 = PLANE ( 'NONE',  #126 ) ;
#198 = ORIENTED_EDGE ( 'NONE', *, *, #176, .T. ) ;
#199 = APPROVAL ( #268, 'NEURÈENÝ' ) ;
#200 = DIRECTION ( 'NONE',  ( 0.000000000000000000, 0.000000000000000000, 1.000000000000000000 ) ) ;
#201 = ORIENTED_EDGE ( 'NONE', *, *, #262, .F. ) ;
#202 = ORGANIZATION ( 'NEURÈENÝ', 'NEURÈENÝ', '' ) ;
#203 = ORIENTED_EDGE ( 'NONE', *, *, #231, .T. ) ;
#204 = DIRECTION ( 'NONE',  ( 1.000000000000000000, 0.000000000000000000, 0.000000000000000000 ) ) ;
#205 = FACE_OUTER_BOUND ( 'NONE', #106, .T. ) ;
#206 = VECTOR ( 'NONE', #117, 1000.000000000000000 ) ;
#207 = DIRECTION ( 'NONE',  ( 0.000000000000000000, 0.000000000000000000, 1.000000000000000000 ) ) ;
#208 = UNCERTAINTY_MEASURE_WITH_UNIT (LENGTH_MEASURE( 1.000000000000000082E-05 ), #72, 'distance_accuracy_value', 'NONE');
#209 = CARTESIAN_POINT ( 'NONE',  ( 0.000000000000000000, 0.000000000000000000, 1206.999999999999773 ) ) ;
#210 = AXIS2_PLACEMENT_3D ( 'NONE', #125, #46, #143 ) ;
#211 = DIRECTION ( 'NONE',  ( -0.000000000000000000, -0.000000000000000000, -1.000000000000000000 ) ) ;
#212 = CIRCLE ( 'NONE', #245, 8.000000000000000000 ) ;
#213 = PRODUCT_DEFINITION ( 'NEZNÁMÝ', '', #234, #181 ) ;
#214 = CYLINDRICAL_SURFACE ( 'NONE', #269, 8.000000000000000000 ) ;
#215 = DIRECTION ( 'NONE',  ( -1.000000000000000000, 0.000000000000000000, 0.000000000000000000 ) ) ;
#216 = EDGE_LOOP ( 'NONE', ( #198, #224 ) ) ;
#217 = EDGE_CURVE ( 'NONE', #111, #61, #172, .T. ) ;
#218 = CIRCLE ( 'NONE', #76, 8.200000000000001066 ) ;
#219 = ORIENTED_EDGE ( 'NONE', *, *, #31, .F. ) ;
#220 = CC_DESIGN_APPROVAL ( #199, ( #213 ) ) ;
#221 = COORDINATED_UNIVERSAL_TIME_OFFSET ( 1, 0, .AHEAD. ) ;
#222 = ORIENTED_EDGE ( 'NONE', *, *, #2, .F. ) ;
#223 = SHAPE_DEFINITION_REPRESENTATION ( #28, #58 ) ;
#224 = ORIENTED_EDGE ( 'NONE', *, *, #262, .T. ) ;
#225 = VECTOR ( 'NONE', #260, 1000.000000000000000 ) ;
#226 = CC_DESIGN_PERSON_AND_ORGANIZATION_ASSIGNMENT ( #247, #271, ( #124 ) ) ;
#227 = DATE_TIME_ROLE ( 'classification_date' ) ;
#228 = DIRECTION ( 'NONE',  ( 1.000000000000000000, 0.000000000000000000, -0.000000000000000000 ) ) ;
#229 = FACE_OUTER_BOUND ( 'NONE', #250, .T. ) ;
#230 = CARTESIAN_POINT ( 'NONE',  ( -8.000000000000000000, 0.000000000000000000, 7.200000000000095213 ) ) ;
#231 = EDGE_CURVE ( 'NONE', #61, #12, #114, .T. ) ;
#232 = DIRECTION ( 'NONE',  ( 1.000000000000000000, 0.000000000000000000, 0.000000000000000000 ) ) ;
#233 = CIRCLE ( 'NONE', #154, 11.00000000000000000 ) ;
#234 = PRODUCT_DEFINITION_FORMATION_WITH_SPECIFIED_SOURCE ( 'LIBOVOLNÝ', '', #124, .NOT_KNOWN. ) ;
#235 = PERSON_AND_ORGANIZATION ( #158, #202 ) ;
#236 = CARTESIAN_POINT ( 'NONE',  ( 0.000000000000000000, 0.000000000000000000, 7.200000000000095213 ) ) ;
#237 = FACE_OUTER_BOUND ( 'NONE', #270, .T. ) ;
#238 = EDGE_CURVE ( 'NONE', #134, #88, #188, .T. ) ;
#239 = CIRCLE ( 'NONE', #251, 8.000000000000000000 ) ;
#240 = PRODUCT_RELATED_PRODUCT_CATEGORY ( 'detail', '', ( #124 ) ) ;
#241 =( NAMED_UNIT ( * ) PLANE_ANGLE_UNIT ( ) SI_UNIT ( $, .RADIAN. ) );
#242 = DIRECTION ( 'NONE',  ( -0.000000000000000000, -0.000000000000000000, -1.000000000000000000 ) ) ;
#243 = ADVANCED_FACE ( 'NONE', ( #48 ), #121, .T. ) ;
#244 = DIRECTION ( 'NONE',  ( 1.000000000000000000, 0.000000000000000000, 0.000000000000000000 ) ) ;
#245 = AXIS2_PLACEMENT_3D ( 'NONE', #17, #282, #70 ) ;
#246 = ORIENTED_EDGE ( 'NONE', *, *, #231, .F. ) ;
#247 = PERSON_AND_ORGANIZATION ( #158, #202 ) ;
#248 = EDGE_LOOP ( 'NONE', ( #133, #131 ) ) ;
#249 = DIRECTION ( 'NONE',  ( -0.000000000000000000, -0.000000000000000000, -1.000000000000000000 ) ) ;
#250 = EDGE_LOOP ( 'NONE', ( #219, #203, #161, #180 ) ) ;
#251 = AXIS2_PLACEMENT_3D ( 'NONE', #116, #190, #300 ) ;
#252 = DIRECTION ( 'NONE',  ( 0.000000000000000000, 0.000000000000000000, 1.000000000000000000 ) ) ;
#253 = PERSON_AND_ORGANIZATION_ROLE ( 'creator' ) ;
#254 = ADVANCED_FACE ( 'NONE', ( #267 ), #145, .T. ) ;
#255 = CARTESIAN_POINT ( 'NONE',  ( -8.200000000000001066, 1.004210375300829674E-15, 7.200000000000095213 ) ) ;
#256 = PERSON_AND_ORGANIZATION_ROLE ( 'classification_officer' ) ;
#257 = CARTESIAN_POINT ( 'NONE',  ( 0.000000000000000000, 0.000000000000000000, 7.000000000000000000 ) ) ;
#258 = AXIS2_PLACEMENT_3D ( 'NONE', #1, #127, #193 ) ;
#259 = PERSON_AND_ORGANIZATION ( #158, #202 ) ;
#260 = DIRECTION ( 'NONE',  ( -0.000000000000000000, -0.000000000000000000, -1.000000000000000000 ) ) ;
#261 = DIRECTION ( 'NONE',  ( 0.000000000000000000, 0.000000000000000000, 1.000000000000000000 ) ) ;
#262 = EDGE_CURVE ( 'NONE', #32, #62, #49, .T. ) ;
#263 = AXIS2_PLACEMENT_3D ( 'NONE', #119, #138, #99 ) ;
#264 = SECURITY_CLASSIFICATION ( '', '', #16 ) ;
#265 = FACE_OUTER_BOUND ( 'NONE', #292, .T. ) ;
#266 = DIRECTION ( 'NONE',  ( -1.000000000000000000, 0.000000000000000000, 0.000000000000000000 ) ) ;
#267 = FACE_OUTER_BOUND ( 'NONE', #128, .T. ) ;
#268 = APPROVAL_STATUS ( 'not_yet_approved' ) ;
#269 = AXIS2_PLACEMENT_3D ( 'NONE', #122, #74, #266 ) ;
#270 = EDGE_LOOP ( 'NONE', ( #276, #7 ) ) ;
#271 = PERSON_AND_ORGANIZATION_ROLE ( 'design_owner' ) ;
#272 = ORIENTED_EDGE ( 'NONE', *, *, #194, .T. ) ;
#273 = CIRCLE ( 'NONE', #263, 0.1999999999999996503 ) ;
#274 = ORIENTED_EDGE ( 'NONE', *, *, #105, .F. ) ;
#275 = COORDINATED_UNIVERSAL_TIME_OFFSET ( 1, 0, .AHEAD. ) ;
#276 = ORIENTED_EDGE ( 'NONE', *, *, #137, .F. ) ;
#277 = CARTESIAN_POINT ( 'NONE',  ( 8.200000000000001066, 0.000000000000000000, 7.000000000000047962 ) ) ;
#278 = AXIS2_PLACEMENT_3D ( 'NONE', #255, #287, #280 ) ;
#279 = APPROVAL_DATE_TIME ( #26, #56 ) ;
#280 = DIRECTION ( 'NONE',  ( -1.000000000000000000, 1.224646799147353207E-16, 0.000000000000000000 ) ) ;
#281 = DATE_AND_TIME ( #160, #301 ) ;
#282 = DIRECTION ( 'NONE',  ( 0.000000000000000000, 0.000000000000000000, 1.000000000000000000 ) ) ;
#283 = PERSON_AND_ORGANIZATION ( #158, #202 ) ;
#284 = CARTESIAN_POINT ( 'NONE',  ( 0.000000000000000000, 0.000000000000000000, 7.000000000000000000 ) ) ;
#285 = LOCAL_TIME ( 11, 22, 54.00000000000000000, #221 ) ;
#286 = EDGE_CURVE ( 'NONE', #88, #64, #302, .T. ) ;
#287 = DIRECTION ( 'NONE',  ( 1.224646799147353207E-16, 1.000000000000000000, -0.000000000000000000 ) ) ;
#288 = APPLICATION_CONTEXT ( 'configuration controlled 3d designs of mechanical parts and assemblies' ) ;
#289 = CALENDAR_DATE ( 2022, 20, 6 ) ;
#290 = AXIS2_PLACEMENT_3D ( 'NONE', #118, #252, #170 ) ;
#291 = CARTESIAN_POINT ( 'NONE',  ( 11.00000000000000000, 1.347111479062088405E-15, 0.000000000000000000 ) ) ;
#292 = EDGE_LOOP ( 'NONE', ( #153, #13, #293, #274 ) ) ;
#293 = ORIENTED_EDGE ( 'NONE', *, *, #176, .F. ) ;
#294 = ADVANCED_FACE ( 'NONE', ( #265 ), #9, .F. ) ;
#295 = CC_DESIGN_APPROVAL ( #6, ( #264 ) ) ;
#296 = VERTEX_POINT ( 'NONE', #79 ) ;
#297 = ORIENTED_EDGE ( 'NONE', *, *, #217, .F. ) ;
#298 = ADVANCED_FACE ( 'NONE', ( #103 ), #197, .T. ) ;
#299 = CARTESIAN_POINT ( 'NONE',  ( 11.00000000000000000, 1.347111479062088405E-15, 7.000000000000000000 ) ) ;
#300 = DIRECTION ( 'NONE',  ( 1.000000000000000000, 0.000000000000000000, 0.000000000000000000 ) ) ;
#301 = LOCAL_TIME ( 11, 22, 54.00000000000000000, #187 ) ;
#302 = CIRCLE ( 'NONE', #258, 8.000000000000000000 ) ;
#303 = FACE_OUTER_BOUND ( 'NONE', #248, .T. ) ;
#304 = CALENDAR_DATE ( 2022, 20, 6 ) ;
#305 = DIRECTION ( 'NONE',  ( 1.000000000000000000, 0.000000000000000000, 0.000000000000000000 ) ) ;
#306 = ADVANCED_FACE ( 'NONE', ( #47 ), #214, .T. ) ;
#307 = CARTESIAN_POINT ( 'NONE',  ( 11.00000000000000000, 1.347111479062088405E-15, 7.000000000000000000 ) ) ;
ENDSEC;
END-ISO-10303-21;
