ISO-10303-21;
HEADER;
FILE_DESCRIPTION (( 'STEP AP203' ),
    '1' );
FILE_NAME ('45ad.STEP',
    '2022-06-20T09:44:22',
    ( '' ),
    ( '' ),
    'SwSTEP 2.0',
    'SolidWorks 2019',
    '' );
FILE_SCHEMA (( 'CONFIG_CONTROL_DESIGN' ));
ENDSEC;

DATA;
#1 = FACE_OUTER_BOUND ( 'NONE', #86, .T. ) ;
#2 = ORIENTED_EDGE ( 'NONE', *, *, #222, .F. ) ;
#3 = ORIENTED_EDGE ( 'NONE', *, *, #96, .F. ) ;
#4 = CC_DESIGN_APPROVAL ( #77, ( #262 ) ) ;
#5 = ORIENTED_EDGE ( 'NONE', *, *, #36, .T. ) ;
#6 = EDGE_CURVE ( 'NONE', #99, #287, #138, .T. ) ;
#7 = CARTESIAN_POINT ( 'NONE',  ( 0.000000000000000000, 0.000000000000000000, 5.000000000000000000 ) ) ;
#8 = AXIS2_PLACEMENT_3D ( 'NONE', #210, #46, #119 ) ;
#9 = CARTESIAN_POINT ( 'NONE',  ( 4.250000000000000000, 5.204748896376250699E-16, 635.0000000000000000 ) ) ;
#10 = LINE ( 'NONE', #154, #236 ) ;
#11 = PERSON_AND_ORGANIZATION_ROLE ( 'creator' ) ;
#12 = DATE_AND_TIME ( #227, #176 ) ;
#13 = AXIS2_PLACEMENT_3D ( 'NONE', #158, #251, #186 ) ;
#14 = EDGE_LOOP ( 'NONE', ( #126, #111, #211, #122 ) ) ;
#15 = APPLICATION_PROTOCOL_DEFINITION ( 'international standard', 'config_control_design', 1994, #90 ) ;
#16 = CARTESIAN_POINT ( 'NONE',  ( 4.250000000000000000, 5.204748896376250699E-16, 5.199999999999982414 ) ) ;
#17 = ORIENTED_EDGE ( 'NONE', *, *, #83, .T. ) ;
#18 = EDGE_LOOP ( 'NONE', ( #37, #148 ) ) ;
#19 = CARTESIAN_POINT ( 'NONE',  ( 0.000000000000000000, 0.000000000000000000, 5.000000000000000000 ) ) ;
#20 = CIRCLE ( 'NONE', #273, 4.250000000000000000 ) ;
#21 = FACE_OUTER_BOUND ( 'NONE', #14, .T. ) ;
#22 = CALENDAR_DATE ( 2022, 20, 6 ) ;
#23 = CLOSED_SHELL ( 'NONE', ( #191, #117, #131, #216, #156, #174, #128, #292, #40 ) ) ;
#24 = CARTESIAN_POINT ( 'NONE',  ( -4.450000000000000178, 5.449678256205721784E-16, 5.199999999999982414 ) ) ;
#25 = DIRECTION ( 'NONE',  ( 1.000000000000000000, 0.000000000000000000, 0.000000000000000000 ) ) ;
#26 = AXIS2_PLACEMENT_3D ( 'NONE', #164, #169, #233 ) ;
#27 = ORIENTED_EDGE ( 'NONE', *, *, #240, .T. ) ;
#28 = CC_DESIGN_PERSON_AND_ORGANIZATION_ASSIGNMENT ( #255, #113, ( #120 ) ) ;
#29 = LINE ( 'NONE', #9, #184 ) ;
#30 = CARTESIAN_POINT ( 'NONE',  ( -7.000000000000000000, 0.000000000000000000, 5.000000000000000000 ) ) ;
#31 = AXIS2_PLACEMENT_3D ( 'NONE', #231, #278, #84 ) ;
#32 = DIRECTION ( 'NONE',  ( 1.000000000000000000, 0.000000000000000000, 0.000000000000000000 ) ) ;
#33 =( NAMED_UNIT ( * ) SI_UNIT ( $, .STERADIAN. ) SOLID_ANGLE_UNIT ( ) );
#34 = DIRECTION ( 'NONE',  ( 1.000000000000000000, 0.000000000000000000, -0.000000000000000000 ) ) ;
#35 = VERTEX_POINT ( 'NONE', #252 ) ;
#36 = EDGE_CURVE ( 'NONE', #172, #35, #150, .T. ) ;
#37 = ORIENTED_EDGE ( 'NONE', *, *, #56, .T. ) ;
#38 = DIRECTION ( 'NONE',  ( 1.000000000000000000, 0.000000000000000000, 0.000000000000000000 ) ) ;
#39 = COORDINATED_UNIVERSAL_TIME_OFFSET ( 1, 0, .AHEAD. ) ;
#40 = ADVANCED_FACE ( 'NONE', ( #75 ), #296, .F. ) ;
#41 = DIRECTION ( 'NONE',  ( 0.000000000000000000, 0.000000000000000000, 1.000000000000000000 ) ) ;
#42 = AXIS2_PLACEMENT_3D ( 'NONE', #259, #48, #192 ) ;
#43 = APPROVAL_PERSON_ORGANIZATION ( #80, #207, #108 ) ;
#44 = CALENDAR_DATE ( 2022, 20, 6 ) ;
#45 = CC_DESIGN_PERSON_AND_ORGANIZATION_ASSIGNMENT ( #140, #258, ( #262 ) ) ;
#46 = DIRECTION ( 'NONE',  ( -0.000000000000000000, -0.000000000000000000, -1.000000000000000000 ) ) ;
#47 = VERTEX_POINT ( 'NONE', #291 ) ;
#48 = DIRECTION ( 'NONE',  ( -0.000000000000000000, -0.000000000000000000, -1.000000000000000000 ) ) ;
#49 = ORIENTED_EDGE ( 'NONE', *, *, #6, .F. ) ;
#50 = TOROIDAL_SURFACE ( 'NONE', #212, 4.450000000000000178, 0.2000000000000000111 ) ;
#51 =( GEOMETRIC_REPRESENTATION_CONTEXT ( 3 ) GLOBAL_UNCERTAINTY_ASSIGNED_CONTEXT ( ( #187 ) ) GLOBAL_UNIT_ASSIGNED_CONTEXT ( ( #181, #247, #33 ) ) REPRESENTATION_CONTEXT ( 'NONE', 'WORKASPACE' ) );
#52 = DIRECTION ( 'NONE',  ( -1.000000000000000000, 1.224646799147353454E-16, 0.000000000000000000 ) ) ;
#53 = AXIS2_PLACEMENT_3D ( 'NONE', #300, #132, #280 ) ;
#54 = ORGANIZATION ( 'NEURÈENÝ', 'NEURÈENÝ', '' ) ;
#55 = APPROVAL_DATE_TIME ( #180, #100 ) ;
#56 = EDGE_CURVE ( 'NONE', #63, #136, #261, .T. ) ;
#57 = AXIS2_PLACEMENT_3D ( 'NONE', #250, #129, #34 ) ;
#58 = DATE_AND_TIME ( #299, #98 ) ;
#59 = PERSON_AND_ORGANIZATION_ROLE ( 'design_owner' ) ;
#60 = EDGE_LOOP ( 'NONE', ( #188, #272, #93, #263 ) ) ;
#61 = VERTEX_POINT ( 'NONE', #16 ) ;
#62 = VECTOR ( 'NONE', #305, 1000.000000000000000 ) ;
#63 = VERTEX_POINT ( 'NONE', #225 ) ;
#64 = CYLINDRICAL_SURFACE ( 'NONE', #26, 4.250000000000000000 ) ;
#65 = SECURITY_CLASSIFICATION_LEVEL ( 'unclassified' ) ;
#66 = PLANE ( 'NONE',  #175 ) ;
#67 = LOCAL_TIME ( 11, 44, 22.00000000000000000, #279 ) ;
#68 = APPROVAL_ROLE ( '' ) ;
#69 = LINE ( 'NONE', #214, #62 ) ;
#70 = DIRECTION ( 'NONE',  ( 0.000000000000000000, 0.000000000000000000, 1.000000000000000000 ) ) ;
#71 = PRODUCT_DEFINITION_SHAPE ( 'NONE', 'NONE',  #265 ) ;
#72 = AXIS2_PLACEMENT_3D ( 'NONE', #179, #123, #220 ) ;
#73 = ORIENTED_EDGE ( 'NONE', *, *, #244, .T. ) ;
#74 = DIRECTION ( 'NONE',  ( 1.224646799147353207E-16, 1.000000000000000000, -0.000000000000000000 ) ) ;
#75 = FACE_OUTER_BOUND ( 'NONE', #195, .T. ) ;
#76 = CARTESIAN_POINT ( 'NONE',  ( 7.000000000000000000, 8.572527594031473190E-16, 5.000000000000000000 ) ) ;
#77 = APPROVAL ( #118, 'NEURÈENÝ' ) ;
#78 = APPROVAL_ROLE ( '' ) ;
#79 = CC_DESIGN_PERSON_AND_ORGANIZATION_ASSIGNMENT ( #112, #59, ( #274 ) ) ;
#80 = PERSON_AND_ORGANIZATION ( #223, #54 ) ;
#81 = AXIS2_PLACEMENT_3D ( 'NONE', #221, #200, #257 ) ;
#82 = LINE ( 'NONE', #30, #277 ) ;
#83 = EDGE_CURVE ( 'NONE', #61, #63, #97, .T. ) ;
#84 = DIRECTION ( 'NONE',  ( 1.000000000000000000, 0.000000000000000000, 0.000000000000000000 ) ) ;
#85 = EDGE_LOOP ( 'NONE', ( #281, #3, #178, #73 ) ) ;
#86 = EDGE_LOOP ( 'NONE', ( #5, #270 ) ) ;
#87 = AXIS2_PLACEMENT_3D ( 'NONE', #7, #290, #102 ) ;
#88 = VERTEX_POINT ( 'NONE', #107 ) ;
#89 = DIRECTION ( 'NONE',  ( 0.000000000000000000, 0.000000000000000000, 1.000000000000000000 ) ) ;
#90 = APPLICATION_CONTEXT ( 'configuration controlled 3d designs of mechanical parts and assemblies' ) ;
#91 = AXIS2_PLACEMENT_3D ( 'NONE', #293, #130, #283 ) ;
#92 = EDGE_CURVE ( 'NONE', #61, #47, #20, .T. ) ;
#93 = ORIENTED_EDGE ( 'NONE', *, *, #146, .T. ) ;
#94 = ORIENTED_EDGE ( 'NONE', *, *, #146, .F. ) ;
#95 = DIRECTION ( 'NONE',  ( 0.000000000000000000, 0.000000000000000000, 1.000000000000000000 ) ) ;
#96 = EDGE_CURVE ( 'NONE', #88, #234, #228, .T. ) ;
#97 = CIRCLE ( 'NONE', #13, 0.1999999999999996503 ) ;
#98 = LOCAL_TIME ( 11, 44, 22.00000000000000000, #276 ) ;
#99 = VERTEX_POINT ( 'NONE', #162 ) ;
#100 = APPROVAL ( #205, 'NEURÈENÝ' ) ;
#101 = EDGE_CURVE ( 'NONE', #35, #61, #29, .T. ) ;
#102 = DIRECTION ( 'NONE',  ( 1.000000000000000000, 0.000000000000000000, 0.000000000000000000 ) ) ;
#103 = PRODUCT_RELATED_PRODUCT_CATEGORY ( 'detail', '', ( #274 ) ) ;
#104 = PERSON_AND_ORGANIZATION ( #223, #54 ) ;
#105 = DIRECTION ( 'NONE',  ( -0.000000000000000000, -0.000000000000000000, -1.000000000000000000 ) ) ;
#106 = PLANE ( 'NONE',  #57 ) ;
#107 = CARTESIAN_POINT ( 'NONE',  ( -7.000000000000000000, 0.000000000000000000, 5.000000000000000000 ) ) ;
#108 = APPROVAL_ROLE ( '' ) ;
#109 = APPLICATION_CONTEXT ( 'configuration controlled 3d designs of mechanical parts and assemblies' ) ;
#110 = PERSON_AND_ORGANIZATION ( #223, #54 ) ;
#111 = ORIENTED_EDGE ( 'NONE', *, *, #282, .T. ) ;
#112 = PERSON_AND_ORGANIZATION ( #223, #54 ) ;
#113 = PERSON_AND_ORGANIZATION_ROLE ( 'design_supplier' ) ;
#114 = AXIS2_PLACEMENT_3D ( 'NONE', #242, #201, #267 ) ;
#115 = CYLINDRICAL_SURFACE ( 'NONE', #42, 7.000000000000000000 ) ;
#116 = FACE_OUTER_BOUND ( 'NONE', #189, .T. ) ;
#117 = ADVANCED_FACE ( 'NONE', ( #239 ), #64, .T. ) ;
#118 = APPROVAL_STATUS ( 'not_yet_approved' ) ;
#119 = DIRECTION ( 'NONE',  ( -1.000000000000000000, 0.000000000000000000, 0.000000000000000000 ) ) ;
#120 = PRODUCT_DEFINITION_FORMATION_WITH_SPECIFIED_SOURCE ( 'LIBOVOLNÝ', '', #274, .NOT_KNOWN. ) ;
#121 = CC_DESIGN_PERSON_AND_ORGANIZATION_ASSIGNMENT ( #104, #11, ( #265 ) ) ;
#122 = ORIENTED_EDGE ( 'NONE', *, *, #83, .F. ) ;
#123 = DIRECTION ( 'NONE',  ( 0.000000000000000000, 0.000000000000000000, 1.000000000000000000 ) ) ;
#124 = AXIS2_PLACEMENT_3D ( 'NONE', #127, #95, #269 ) ;
#125 = LOCAL_TIME ( 11, 44, 22.00000000000000000, #137 ) ;
#126 = ORIENTED_EDGE ( 'NONE', *, *, #246, .F. ) ;
#127 = CARTESIAN_POINT ( 'NONE',  ( 0.000000000000000000, 0.000000000000000000, 635.0000000000000000 ) ) ;
#128 = ADVANCED_FACE ( 'NONE', ( #190 ), #235, .T. ) ;
#129 = DIRECTION ( 'NONE',  ( 0.000000000000000000, 0.000000000000000000, 1.000000000000000000 ) ) ;
#130 = DIRECTION ( 'NONE',  ( 0.000000000000000000, 0.000000000000000000, 1.000000000000000000 ) ) ;
#131 = ADVANCED_FACE ( 'NONE', ( #307 ), #115, .T. ) ;
#132 = DIRECTION ( 'NONE',  ( -0.000000000000000000, -0.000000000000000000, -1.000000000000000000 ) ) ;
#133 = COORDINATED_UNIVERSAL_TIME_OFFSET ( 1, 0, .AHEAD. ) ;
#134 = ORIENTED_EDGE ( 'NONE', *, *, #302, .F. ) ;
#135 = AXIS2_PLACEMENT_3D ( 'NONE', #275, #249, #32 ) ;
#136 = VERTEX_POINT ( 'NONE', #165 ) ;
#137 = COORDINATED_UNIVERSAL_TIME_OFFSET ( 1, 0, .AHEAD. ) ;
#138 = CIRCLE ( 'NONE', #81, 7.000000000000000000 ) ;
#139 = DIRECTION ( 'NONE',  ( 1.000000000000000000, 0.000000000000000000, 0.000000000000000000 ) ) ;
#140 = PERSON_AND_ORGANIZATION ( #223, #54 ) ;
#141 = EDGE_CURVE ( 'NONE', #136, #63, #253, .T. ) ;
#142 = DIRECTION ( 'NONE',  ( -0.000000000000000000, -0.000000000000000000, -1.000000000000000000 ) ) ;
#143 = CARTESIAN_POINT ( 'NONE',  ( 0.000000000000000000, 0.000000000000000000, 0.000000000000000000 ) ) ;
#144 = AXIS2_PLACEMENT_3D ( 'NONE', #199, #245, #196 ) ;
#145 = LOCAL_TIME ( 11, 44, 22.00000000000000000, #39 ) ;
#146 = EDGE_CURVE ( 'NONE', #172, #47, #69, .T. ) ;
#147 = ORIENTED_EDGE ( 'NONE', *, *, #141, .F. ) ;
#148 = ORIENTED_EDGE ( 'NONE', *, *, #141, .T. ) ;
#149 = ORIENTED_EDGE ( 'NONE', *, *, #240, .F. ) ;
#150 = CIRCLE ( 'NONE', #285, 4.250000000000000000 ) ;
#151 = CYLINDRICAL_SURFACE ( 'NONE', #144, 7.000000000000000000 ) ;
#152 = PERSON_AND_ORGANIZATION ( #223, #54 ) ;
#153 = CC_DESIGN_PERSON_AND_ORGANIZATION_ASSIGNMENT ( #152, #202, ( #120 ) ) ;
#154 = CARTESIAN_POINT ( 'NONE',  ( 7.000000000000000000, 8.572527594031473190E-16, 5.000000000000000000 ) ) ;
#155 = CIRCLE ( 'NONE', #198, 0.1999999999999996503 ) ;
#156 = ADVANCED_FACE ( 'NONE', ( #171, #304 ), #66, .T. ) ;
#157 = APPROVAL_DATE_TIME ( #58, #207 ) ;
#158 = CARTESIAN_POINT ( 'NONE',  ( 4.450000000000000178, 0.000000000000000000, 5.199999999999982414 ) ) ;
#159 = CALENDAR_DATE ( 2022, 20, 6 ) ;
#160 = CARTESIAN_POINT ( 'NONE',  ( 0.000000000000000000, 0.000000000000000000, 5.199999999999982414 ) ) ;
#161 = ORIENTED_EDGE ( 'NONE', *, *, #96, .T. ) ;
#162 = CARTESIAN_POINT ( 'NONE',  ( 7.000000000000000000, 8.572527594031473190E-16, 0.000000000000000000 ) ) ;
#163 = ORIENTED_EDGE ( 'NONE', *, *, #101, .T. ) ;
#164 = CARTESIAN_POINT ( 'NONE',  ( 0.000000000000000000, 0.000000000000000000, 635.0000000000000000 ) ) ;
#165 = CARTESIAN_POINT ( 'NONE',  ( -4.450000000000000178, 5.449678256205721784E-16, 4.999999999999991118 ) ) ;
#166 = AXIS2_PLACEMENT_3D ( 'NONE', #19, #142, #139 ) ;
#167 = DATE_TIME_ROLE ( 'classification_date' ) ;
#168 = CC_DESIGN_SECURITY_CLASSIFICATION ( #262, ( #120 ) ) ;
#169 = DIRECTION ( 'NONE',  ( -0.000000000000000000, -0.000000000000000000, -1.000000000000000000 ) ) ;
#170 = CARTESIAN_POINT ( 'NONE',  ( 0.000000000000000000, 0.000000000000000000, 635.0000000000000000 ) ) ;
#171 = FACE_BOUND ( 'NONE', #18, .T. ) ;
#172 = VERTEX_POINT ( 'NONE', #237 ) ;
#173 = ADVANCED_BREP_SHAPE_REPRESENTATION ( '45ad', ( #230, #31 ), #51 ) ;
#174 = ADVANCED_FACE ( 'NONE', ( #116 ), #256, .F. ) ;
#175 = AXIS2_PLACEMENT_3D ( 'NONE', #260, #41, #266 ) ;
#176 = LOCAL_TIME ( 11, 44, 22.00000000000000000, #133 ) ;
#177 = DIRECTION ( 'NONE',  ( 0.000000000000000000, 0.000000000000000000, 1.000000000000000000 ) ) ;
#178 = ORIENTED_EDGE ( 'NONE', *, *, #302, .T. ) ;
#179 = CARTESIAN_POINT ( 'NONE',  ( 0.000000000000000000, 0.000000000000000000, 0.000000000000000000 ) ) ;
#180 = DATE_AND_TIME ( #159, #67 ) ;
#181 =( LENGTH_UNIT ( ) NAMED_UNIT ( * ) SI_UNIT ( .MILLI., .METRE. ) );
#182 = APPROVAL_STATUS ( 'not_yet_approved' ) ;
#183 = CC_DESIGN_DATE_AND_TIME_ASSIGNMENT ( #12, #185, ( #265 ) ) ;
#184 = VECTOR ( 'NONE', #105, 1000.000000000000000 ) ;
#185 = DATE_TIME_ROLE ( 'creation_date' ) ;
#186 = DIRECTION ( 'NONE',  ( 0.000000000000000000, 0.000000000000000000, -1.000000000000000000 ) ) ;
#187 = UNCERTAINTY_MEASURE_WITH_UNIT (LENGTH_MEASURE( 1.000000000000000082E-05 ), #181, 'distance_accuracy_value', 'NONE');
#188 = ORIENTED_EDGE ( 'NONE', *, *, #101, .F. ) ;
#189 = EDGE_LOOP ( 'NONE', ( #254, #49 ) ) ;
#190 = FACE_OUTER_BOUND ( 'NONE', #60, .T. ) ;
#191 = ADVANCED_FACE ( 'NONE', ( #21 ), #50, .F. ) ;
#192 = DIRECTION ( 'NONE',  ( -1.000000000000000000, 0.000000000000000000, 0.000000000000000000 ) ) ;
#193 = APPROVAL_PERSON_ORGANIZATION ( #232, #77, #68 ) ;
#194 = FACE_OUTER_BOUND ( 'NONE', #85, .T. ) ;
#195 = EDGE_LOOP ( 'NONE', ( #219, #197, #17, #147 ) ) ;
#196 = DIRECTION ( 'NONE',  ( -1.000000000000000000, 0.000000000000000000, 0.000000000000000000 ) ) ;
#197 = ORIENTED_EDGE ( 'NONE', *, *, #92, .F. ) ;
#198 = AXIS2_PLACEMENT_3D ( 'NONE', #24, #74, #52 ) ;
#199 = CARTESIAN_POINT ( 'NONE',  ( 0.000000000000000000, 0.000000000000000000, 5.000000000000000000 ) ) ;
#200 = DIRECTION ( 'NONE',  ( 0.000000000000000000, 0.000000000000000000, 1.000000000000000000 ) ) ;
#201 = DIRECTION ( 'NONE',  ( 0.000000000000000000, 0.000000000000000000, 1.000000000000000000 ) ) ;
#202 = PERSON_AND_ORGANIZATION_ROLE ( 'creator' ) ;
#203 = MECHANICAL_CONTEXT ( 'NONE', #90, 'mechanical' ) ;
#204 = CC_DESIGN_APPROVAL ( #100, ( #120 ) ) ;
#205 = APPROVAL_STATUS ( 'not_yet_approved' ) ;
#206 = EDGE_LOOP ( 'NONE', ( #2, #163, #243, #94 ) ) ;
#207 = APPROVAL ( #182, 'NEURÈENÝ' ) ;
#208 = APPLICATION_PROTOCOL_DEFINITION ( 'international standard', 'config_control_design', 1994, #109 ) ;
#209 = DIRECTION ( 'NONE',  ( 1.000000000000000000, 0.000000000000000000, 0.000000000000000000 ) ) ;
#210 = CARTESIAN_POINT ( 'NONE',  ( 0.000000000000000000, 0.000000000000000000, 635.0000000000000000 ) ) ;
#211 = ORIENTED_EDGE ( 'NONE', *, *, #56, .F. ) ;
#212 = AXIS2_PLACEMENT_3D ( 'NONE', #286, #70, #38 ) ;
#213 = APPROVAL_PERSON_ORGANIZATION ( #110, #100, #78 ) ;
#214 = CARTESIAN_POINT ( 'NONE',  ( -4.250000000000000000, 0.000000000000000000, 635.0000000000000000 ) ) ;
#215 = SHAPE_DEFINITION_REPRESENTATION ( #71, #173 ) ;
#216 = ADVANCED_FACE ( 'NONE', ( #194 ), #151, .T. ) ;
#217 = ORIENTED_EDGE ( 'NONE', *, *, #6, .T. ) ;
#218 = CARTESIAN_POINT ( 'NONE',  ( -7.000000000000000000, 0.000000000000000000, 0.000000000000000000 ) ) ;
#219 = ORIENTED_EDGE ( 'NONE', *, *, #282, .F. ) ;
#220 = DIRECTION ( 'NONE',  ( 1.000000000000000000, 0.000000000000000000, 0.000000000000000000 ) ) ;
#221 = CARTESIAN_POINT ( 'NONE',  ( 0.000000000000000000, 0.000000000000000000, 0.000000000000000000 ) ) ;
#222 = EDGE_CURVE ( 'NONE', #35, #172, #284, .T. ) ;
#223 = PERSON ( 'NEURÈENÝ', 'NEURÈENÝ', 'NEURÈENÝ', ('NEURÈENÝ'), ('NEURÈENÝ'), ('NEURÈENÝ') ) ;
#224 = CIRCLE ( 'NONE', #87, 7.000000000000000000 ) ;
#225 = CARTESIAN_POINT ( 'NONE',  ( 4.450000000000000178, 0.000000000000000000, 4.999999999999991118 ) ) ;
#226 = DIRECTION ( 'NONE',  ( -0.000000000000000000, -0.000000000000000000, -1.000000000000000000 ) ) ;
#227 = CALENDAR_DATE ( 2022, 20, 6 ) ;
#228 = CIRCLE ( 'NONE', #91, 7.000000000000000000 ) ;
#229 = CC_DESIGN_APPROVAL ( #207, ( #265 ) ) ;
#230 = MANIFOLD_SOLID_BREP ( 'Zaoblit1', #23 ) ;
#231 = CARTESIAN_POINT ( 'NONE',  ( 0.000000000000000000, 0.000000000000000000, 0.000000000000000000 ) ) ;
#232 = PERSON_AND_ORGANIZATION ( #223, #54 ) ;
#233 = DIRECTION ( 'NONE',  ( -1.000000000000000000, 0.000000000000000000, 0.000000000000000000 ) ) ;
#234 = VERTEX_POINT ( 'NONE', #76 ) ;
#235 = CYLINDRICAL_SURFACE ( 'NONE', #8, 4.250000000000000000 ) ;
#236 = VECTOR ( 'NONE', #226, 1000.000000000000000 ) ;
#237 = CARTESIAN_POINT ( 'NONE',  ( -4.250000000000000000, 0.000000000000000000, 635.0000000000000000 ) ) ;
#238 = DIRECTION ( 'NONE',  ( 1.000000000000000000, 0.000000000000000000, -0.000000000000000000 ) ) ;
#239 = FACE_OUTER_BOUND ( 'NONE', #206, .T. ) ;
#240 = EDGE_CURVE ( 'NONE', #234, #88, #224, .T. ) ;
#241 = AXIS2_PLACEMENT_3D ( 'NONE', #143, #89, #238 ) ;
#242 = CARTESIAN_POINT ( 'NONE',  ( 0.000000000000000000, 0.000000000000000000, 5.199999999999982414 ) ) ;
#243 = ORIENTED_EDGE ( 'NONE', *, *, #92, .T. ) ;
#244 = EDGE_CURVE ( 'NONE', #287, #99, #288, .T. ) ;
#245 = DIRECTION ( 'NONE',  ( -0.000000000000000000, -0.000000000000000000, -1.000000000000000000 ) ) ;
#246 = EDGE_CURVE ( 'NONE', #47, #61, #248, .T. ) ;
#247 =( NAMED_UNIT ( * ) PLANE_ANGLE_UNIT ( ) SI_UNIT ( $, .RADIAN. ) );
#248 = CIRCLE ( 'NONE', #114, 4.250000000000000000 ) ;
#249 = DIRECTION ( 'NONE',  ( 0.000000000000000000, 0.000000000000000000, 1.000000000000000000 ) ) ;
#250 = CARTESIAN_POINT ( 'NONE',  ( 0.000000000000000000, 0.000000000000000000, 635.0000000000000000 ) ) ;
#251 = DIRECTION ( 'NONE',  ( 0.000000000000000000, -1.000000000000000000, 0.000000000000000000 ) ) ;
#252 = CARTESIAN_POINT ( 'NONE',  ( 4.250000000000000000, 5.204748896376250699E-16, 635.0000000000000000 ) ) ;
#253 = CIRCLE ( 'NONE', #166, 4.450000000000000178 ) ;
#254 = ORIENTED_EDGE ( 'NONE', *, *, #244, .F. ) ;
#255 = PERSON_AND_ORGANIZATION ( #223, #54 ) ;
#256 = PLANE ( 'NONE',  #241 ) ;
#257 = DIRECTION ( 'NONE',  ( 1.000000000000000000, 0.000000000000000000, 0.000000000000000000 ) ) ;
#258 = PERSON_AND_ORGANIZATION_ROLE ( 'classification_officer' ) ;
#259 = CARTESIAN_POINT ( 'NONE',  ( 0.000000000000000000, 0.000000000000000000, 5.000000000000000000 ) ) ;
#260 = CARTESIAN_POINT ( 'NONE',  ( 0.000000000000000000, 0.000000000000000000, 5.000000000000000000 ) ) ;
#261 = CIRCLE ( 'NONE', #53, 4.450000000000000178 ) ;
#262 = SECURITY_CLASSIFICATION ( '', '', #65 ) ;
#263 = ORIENTED_EDGE ( 'NONE', *, *, #246, .T. ) ;
#264 = DATE_AND_TIME ( #22, #145 ) ;
#265 = PRODUCT_DEFINITION ( 'NEZNÁMÝ', '', #120, #271 ) ;
#266 = DIRECTION ( 'NONE',  ( 1.000000000000000000, 0.000000000000000000, -0.000000000000000000 ) ) ;
#267 = DIRECTION ( 'NONE',  ( 1.000000000000000000, 0.000000000000000000, 0.000000000000000000 ) ) ;
#268 = ORIENTED_EDGE ( 'NONE', *, *, #294, .T. ) ;
#269 = DIRECTION ( 'NONE',  ( 1.000000000000000000, 0.000000000000000000, 0.000000000000000000 ) ) ;
#270 = ORIENTED_EDGE ( 'NONE', *, *, #222, .T. ) ;
#271 = DESIGN_CONTEXT ( 'detailed design', #109, 'design' ) ;
#272 = ORIENTED_EDGE ( 'NONE', *, *, #36, .F. ) ;
#273 = AXIS2_PLACEMENT_3D ( 'NONE', #160, #297, #209 ) ;
#274 = PRODUCT ( '45ad', '45ad', '', ( #203 ) ) ;
#275 = CARTESIAN_POINT ( 'NONE',  ( 0.000000000000000000, 0.000000000000000000, 5.199999999999982414 ) ) ;
#276 = COORDINATED_UNIVERSAL_TIME_OFFSET ( 1, 0, .AHEAD. ) ;
#277 = VECTOR ( 'NONE', #295, 1000.000000000000000 ) ;
#278 = DIRECTION ( 'NONE',  ( 0.000000000000000000, 0.000000000000000000, 1.000000000000000000 ) ) ;
#279 = COORDINATED_UNIVERSAL_TIME_OFFSET ( 1, 0, .AHEAD. ) ;
#280 = DIRECTION ( 'NONE',  ( 1.000000000000000000, 0.000000000000000000, 0.000000000000000000 ) ) ;
#281 = ORIENTED_EDGE ( 'NONE', *, *, #294, .F. ) ;
#282 = EDGE_CURVE ( 'NONE', #47, #136, #155, .T. ) ;
#283 = DIRECTION ( 'NONE',  ( 1.000000000000000000, 0.000000000000000000, 0.000000000000000000 ) ) ;
#284 = CIRCLE ( 'NONE', #124, 4.250000000000000000 ) ;
#285 = AXIS2_PLACEMENT_3D ( 'NONE', #170, #177, #25 ) ;
#286 = CARTESIAN_POINT ( 'NONE',  ( 0.000000000000000000, 0.000000000000000000, 5.199999999999982414 ) ) ;
#287 = VERTEX_POINT ( 'NONE', #218 ) ;
#288 = CIRCLE ( 'NONE', #72, 7.000000000000000000 ) ;
#289 = EDGE_LOOP ( 'NONE', ( #149, #268, #217, #134 ) ) ;
#290 = DIRECTION ( 'NONE',  ( 0.000000000000000000, 0.000000000000000000, 1.000000000000000000 ) ) ;
#291 = CARTESIAN_POINT ( 'NONE',  ( -4.250000000000000000, 0.000000000000000000, 5.199999999999982414 ) ) ;
#292 = ADVANCED_FACE ( 'NONE', ( #1 ), #106, .T. ) ;
#293 = CARTESIAN_POINT ( 'NONE',  ( 0.000000000000000000, 0.000000000000000000, 5.000000000000000000 ) ) ;
#294 = EDGE_CURVE ( 'NONE', #234, #99, #10, .T. ) ;
#295 = DIRECTION ( 'NONE',  ( -0.000000000000000000, -0.000000000000000000, -1.000000000000000000 ) ) ;
#296 = TOROIDAL_SURFACE ( 'NONE', #135, 4.450000000000000178, 0.2000000000000000111 ) ;
#297 = DIRECTION ( 'NONE',  ( 0.000000000000000000, 0.000000000000000000, 1.000000000000000000 ) ) ;
#298 = CC_DESIGN_DATE_AND_TIME_ASSIGNMENT ( #306, #167, ( #262 ) ) ;
#299 = CALENDAR_DATE ( 2022, 20, 6 ) ;
#300 = CARTESIAN_POINT ( 'NONE',  ( 0.000000000000000000, 0.000000000000000000, 5.000000000000000000 ) ) ;
#301 = EDGE_LOOP ( 'NONE', ( #161, #27 ) ) ;
#302 = EDGE_CURVE ( 'NONE', #88, #287, #82, .T. ) ;
#303 = APPROVAL_DATE_TIME ( #264, #77 ) ;
#304 = FACE_OUTER_BOUND ( 'NONE', #301, .T. ) ;
#305 = DIRECTION ( 'NONE',  ( -0.000000000000000000, -0.000000000000000000, -1.000000000000000000 ) ) ;
#306 = DATE_AND_TIME ( #44, #125 ) ;
#307 = FACE_OUTER_BOUND ( 'NONE', #289, .T. ) ;
ENDSEC;
END-ISO-10303-21;
