ISO-10303-21;
HEADER;
FILE_DESCRIPTION (( 'STEP AP203' ),
    '1' );
FILE_NAME ('18c3.STEP',
    '2022-06-20T10:22:07',
    ( '' ),
    ( '' ),
    'SwSTEP 2.0',
    'SolidWorks 2019',
    '' );
FILE_SCHEMA (( 'CONFIG_CONTROL_DESIGN' ));
ENDSEC;

DATA;
#1 = CC_DESIGN_PERSON_AND_ORGANIZATION_ASSIGNMENT ( #242, #264, ( #100 ) ) ;
#2 = DIRECTION ( 'NONE',  ( 0.000000000000000000, 0.000000000000000000, 1.000000000000000000 ) ) ;
#3 = CARTESIAN_POINT ( 'NONE',  ( -2.000000000000000000, 0.000000000000000000, 1.500000000000000000 ) ) ;
#4 = CALENDAR_DATE ( 2022, 20, 6 ) ;
#5 = ADVANCED_FACE ( 'NONE', ( #21 ), #45, .T. ) ;
#6 = AXIS2_PLACEMENT_3D ( 'NONE', #9, #95, #68 ) ;
#7 = DIRECTION ( 'NONE',  ( -0.000000000000000000, -0.000000000000000000, -1.000000000000000000 ) ) ;
#8 = COORDINATED_UNIVERSAL_TIME_OFFSET ( 1, 0, .AHEAD. ) ;
#9 = CARTESIAN_POINT ( 'NONE',  ( 0.000000000000000000, 0.000000000000000000, 126.5000000000000000 ) ) ;
#10 = DIRECTION ( 'NONE',  ( -0.000000000000000000, -0.000000000000000000, -1.000000000000000000 ) ) ;
#11 = TOROIDAL_SURFACE ( 'NONE', #251, 1.050000000000000044, 0.2000000000000000111 ) ;
#12 = EDGE_CURVE ( 'NONE', #65, #233, #35, .T. ) ;
#13 = PERSON ( 'NEURÈENÝ', 'NEURÈENÝ', 'NEURÈENÝ', ('NEURÈENÝ'), ('NEURÈENÝ'), ('NEURÈENÝ') ) ;
#14 = PERSON_AND_ORGANIZATION_ROLE ( 'design_owner' ) ;
#15 = EDGE_LOOP ( 'NONE', ( #306, #212, #63, #138 ) ) ;
#16 = AXIS2_PLACEMENT_3D ( 'NONE', #158, #178, #270 ) ;
#17 = DIRECTION ( 'NONE',  ( 1.000000000000000000, 0.000000000000000000, 0.000000000000000000 ) ) ;
#18 = ORIENTED_EDGE ( 'NONE', *, *, #250, .F. ) ;
#19 = PERSON_AND_ORGANIZATION ( #13, #276 ) ;
#20 = EDGE_LOOP ( 'NONE', ( #256, #62, #160, #278 ) ) ;
#21 = FACE_OUTER_BOUND ( 'NONE', #15, .T. ) ;
#22 = AXIS2_PLACEMENT_3D ( 'NONE', #82, #224, #79 ) ;
#23 = DIRECTION ( 'NONE',  ( -0.000000000000000000, -0.000000000000000000, -1.000000000000000000 ) ) ;
#24 = CARTESIAN_POINT ( 'NONE',  ( -1.050000000000000044, 1.285879139104720732E-16, 1.700000000000007061 ) ) ;
#25 = APPROVAL_STATUS ( 'not_yet_approved' ) ;
#26 = VERTEX_POINT ( 'NONE', #121 ) ;
#27 = DIRECTION ( 'NONE',  ( 1.000000000000000000, 0.000000000000000000, 0.000000000000000000 ) ) ;
#28 = COORDINATED_UNIVERSAL_TIME_OFFSET ( 1, 0, .AHEAD. ) ;
#29 = CALENDAR_DATE ( 2022, 20, 6 ) ;
#30 = CC_DESIGN_DATE_AND_TIME_ASSIGNMENT ( #99, #44, ( #259 ) ) ;
#31 = FACE_OUTER_BOUND ( 'NONE', #304, .T. ) ;
#32 = CARTESIAN_POINT ( 'NONE',  ( 0.000000000000000000, 0.000000000000000000, 1.700000000000007061 ) ) ;
#33 = CIRCLE ( 'NONE', #156, 0.8499999999999999778 ) ;
#34 = PERSON_AND_ORGANIZATION ( #13, #276 ) ;
#35 = CIRCLE ( 'NONE', #152, 2.000000000000000000 ) ;
#36 = ORIENTED_EDGE ( 'NONE', *, *, #143, .T. ) ;
#37 = ORIENTED_EDGE ( 'NONE', *, *, #70, .F. ) ;
#38 = EDGE_LOOP ( 'NONE', ( #36, #275 ) ) ;
#39 = ORIENTED_EDGE ( 'NONE', *, *, #285, .F. ) ;
#40 = ADVANCED_FACE ( 'NONE', ( #75 ), #281, .F. ) ;
#41 = DIRECTION ( 'NONE',  ( 1.000000000000000000, 0.000000000000000000, 0.000000000000000000 ) ) ;
#42 = CIRCLE ( 'NONE', #22, 1.050000000000000044 ) ;
#43 = FACE_OUTER_BOUND ( 'NONE', #244, .T. ) ;
#44 = DATE_TIME_ROLE ( 'classification_date' ) ;
#45 = CYLINDRICAL_SURFACE ( 'NONE', #64, 0.8499999999999999778 ) ;
#46 = DIRECTION ( 'NONE',  ( -0.000000000000000000, -0.000000000000000000, -1.000000000000000000 ) ) ;
#47 = AXIS2_PLACEMENT_3D ( 'NONE', #205, #104, #295 ) ;
#48 = DIRECTION ( 'NONE',  ( 0.000000000000000000, 0.000000000000000000, 1.000000000000000000 ) ) ;
#49 = DATE_AND_TIME ( #29, #234 ) ;
#50 = APPROVAL_DATE_TIME ( #274, #211 ) ;
#51 = DIRECTION ( 'NONE',  ( 0.000000000000000000, 0.000000000000000000, 1.000000000000000000 ) ) ;
#52 = CARTESIAN_POINT ( 'NONE',  ( 0.000000000000000000, 0.000000000000000000, 0.000000000000000000 ) ) ;
#53 = DIRECTION ( 'NONE',  ( 1.000000000000000000, 0.000000000000000000, 0.000000000000000000 ) ) ;
#54 = CC_DESIGN_PERSON_AND_ORGANIZATION_ASSIGNMENT ( #34, #14, ( #117 ) ) ;
#55 = LOCAL_TIME ( 12, 22, 7.000000000000000000, #197 ) ;
#56 = DIRECTION ( 'NONE',  ( 0.000000000000000000, 0.000000000000000000, 1.000000000000000000 ) ) ;
#57 =( LENGTH_UNIT ( ) NAMED_UNIT ( * ) SI_UNIT ( .MILLI., .METRE. ) );
#58 = CARTESIAN_POINT ( 'NONE',  ( 0.000000000000000000, 0.000000000000000000, 0.000000000000000000 ) ) ;
#59 = ORIENTED_EDGE ( 'NONE', *, *, #181, .T. ) ;
#60 = VECTOR ( 'NONE', #23, 1000.000000000000000 ) ;
#61 = PRODUCT_RELATED_PRODUCT_CATEGORY ( 'detail', '', ( #117 ) ) ;
#62 = ORIENTED_EDGE ( 'NONE', *, *, #89, .T. ) ;
#63 = ORIENTED_EDGE ( 'NONE', *, *, #250, .T. ) ;
#64 = AXIS2_PLACEMENT_3D ( 'NONE', #71, #7, #167 ) ;
#65 = VERTEX_POINT ( 'NONE', #3 ) ;
#66 = CARTESIAN_POINT ( 'NONE',  ( 0.000000000000000000, 0.000000000000000000, 1.700000000000007061 ) ) ;
#67 = LINE ( 'NONE', #172, #283 ) ;
#68 = DIRECTION ( 'NONE',  ( 1.000000000000000000, 0.000000000000000000, -0.000000000000000000 ) ) ;
#69 = DATE_AND_TIME ( #195, #55 ) ;
#70 = EDGE_CURVE ( 'NONE', #118, #235, #245, .T. ) ;
#71 = CARTESIAN_POINT ( 'NONE',  ( 0.000000000000000000, 0.000000000000000000, 126.5000000000000000 ) ) ;
#72 = APPROVAL_ROLE ( '' ) ;
#73 = DIRECTION ( 'NONE',  ( -1.000000000000000000, 0.000000000000000000, 0.000000000000000000 ) ) ;
#74 = SHAPE_DEFINITION_REPRESENTATION ( #84, #249 ) ;
#75 = FACE_OUTER_BOUND ( 'NONE', #115, .T. ) ;
#76 = AXIS2_PLACEMENT_3D ( 'NONE', #227, #10, #129 ) ;
#77 = LOCAL_TIME ( 12, 22, 7.000000000000000000, #28 ) ;
#78 = CYLINDRICAL_SURFACE ( 'NONE', #139, 0.8499999999999999778 ) ;
#79 = DIRECTION ( 'NONE',  ( 1.000000000000000000, 0.000000000000000000, 0.000000000000000000 ) ) ;
#80 = EDGE_CURVE ( 'NONE', #142, #168, #97, .T. ) ;
#81 = CARTESIAN_POINT ( 'NONE',  ( -1.050000000000000044, 1.285879139104720732E-16, 1.500000000000003553 ) ) ;
#82 = CARTESIAN_POINT ( 'NONE',  ( 0.000000000000000000, 0.000000000000000000, 1.500000000000000000 ) ) ;
#83 = FACE_OUTER_BOUND ( 'NONE', #91, .T. ) ;
#84 = PRODUCT_DEFINITION_SHAPE ( 'NONE', 'NONE',  #100 ) ;
#85 = ADVANCED_FACE ( 'NONE', ( #190 ), #102, .T. ) ;
#86 = CIRCLE ( 'NONE', #268, 2.000000000000000000 ) ;
#87 = ORIENTED_EDGE ( 'NONE', *, *, #255, .T. ) ;
#88 = ORIENTED_EDGE ( 'NONE', *, *, #89, .F. ) ;
#89 = EDGE_CURVE ( 'NONE', #233, #118, #196, .T. ) ;
#90 = APPROVAL_ROLE ( '' ) ;
#91 = EDGE_LOOP ( 'NONE', ( #187, #253, #232, #18 ) ) ;
#92 = DIRECTION ( 'NONE',  ( -0.000000000000000000, -0.000000000000000000, -1.000000000000000000 ) ) ;
#93 = CARTESIAN_POINT ( 'NONE',  ( 0.000000000000000000, 0.000000000000000000, 1.500000000000000000 ) ) ;
#94 = ADVANCED_FACE ( 'NONE', ( #238 ), #120, .T. ) ;
#95 = DIRECTION ( 'NONE',  ( 0.000000000000000000, 0.000000000000000000, 1.000000000000000000 ) ) ;
#96 = PERSON_AND_ORGANIZATION ( #13, #276 ) ;
#97 = CIRCLE ( 'NONE', #225, 0.8499999999999999778 ) ;
#98 = CARTESIAN_POINT ( 'NONE',  ( 0.8499999999999999778, 1.040949779275250140E-16, 1.700000000000007061 ) ) ;
#99 = DATE_AND_TIME ( #4, #239 ) ;
#100 = PRODUCT_DEFINITION ( 'NEZNÁMÝ', '', #114, #101 ) ;
#101 = DESIGN_CONTEXT ( 'detailed design', #262, 'design' ) ;
#102 = PLANE ( 'NONE',  #6 ) ;
#103 = PERSON_AND_ORGANIZATION ( #13, #276 ) ;
#104 = DIRECTION ( 'NONE',  ( -0.000000000000000000, -0.000000000000000000, -1.000000000000000000 ) ) ;
#105 = CIRCLE ( 'NONE', #271, 0.2000000000000000944 ) ;
#106 = FACE_OUTER_BOUND ( 'NONE', #300, .T. ) ;
#107 = CYLINDRICAL_SURFACE ( 'NONE', #47, 2.000000000000000000 ) ;
#108 = CARTESIAN_POINT ( 'NONE',  ( -0.8499999999999999778, 0.000000000000000000, 1.700000000000007061 ) ) ;
#109 = DIRECTION ( 'NONE',  ( 1.000000000000000000, 0.000000000000000000, 0.000000000000000000 ) ) ;
#110 = CC_DESIGN_APPROVAL ( #211, ( #100 ) ) ;
#111 = CALENDAR_DATE ( 2022, 20, 6 ) ;
#112 = EDGE_LOOP ( 'NONE', ( #165, #236, #252, #185 ) ) ;
#113 = ORIENTED_EDGE ( 'NONE', *, *, #12, .F. ) ;
#114 = PRODUCT_DEFINITION_FORMATION_WITH_SPECIFIED_SOURCE ( 'LIBOVOLNÝ', '', #117, .NOT_KNOWN. ) ;
#115 = EDGE_LOOP ( 'NONE', ( #166, #37 ) ) ;
#116 = PERSON_AND_ORGANIZATION_ROLE ( 'classification_officer' ) ;
#117 = PRODUCT ( '18c3', '18c3', '', ( #230 ) ) ;
#118 = VERTEX_POINT ( 'NONE', #173 ) ;
#119 = CIRCLE ( 'NONE', #289, 0.8499999999999999778 ) ;
#120 = CYLINDRICAL_SURFACE ( 'NONE', #302, 2.000000000000000000 ) ;
#121 = CARTESIAN_POINT ( 'NONE',  ( 0.8499999999999999778, 1.040949779275250140E-16, 126.5000000000000000 ) ) ;
#122 = DIRECTION ( 'NONE',  ( 0.000000000000000000, 0.000000000000000000, 1.000000000000000000 ) ) ;
#123 = APPROVAL_ROLE ( '' ) ;
#124 = ADVANCED_FACE ( 'NONE', ( #261, #43 ), #219, .T. ) ;
#125 = TOROIDAL_SURFACE ( 'NONE', #215, 1.050000000000000044, 0.2000000000000000111 ) ;
#126 = PERSON_AND_ORGANIZATION_ROLE ( 'creator' ) ;
#127 = DIRECTION ( 'NONE',  ( 0.000000000000000000, 0.000000000000000000, 1.000000000000000000 ) ) ;
#128 = CALENDAR_DATE ( 2022, 20, 6 ) ;
#129 = DIRECTION ( 'NONE',  ( 1.000000000000000000, 0.000000000000000000, 0.000000000000000000 ) ) ;
#130 = DIRECTION ( 'NONE',  ( 1.000000000000000000, 0.000000000000000000, 0.000000000000000000 ) ) ;
#131 = EDGE_CURVE ( 'NONE', #168, #279, #105, .T. ) ;
#132 = CARTESIAN_POINT ( 'NONE',  ( 0.000000000000000000, 0.000000000000000000, 1.700000000000007061 ) ) ;
#133 = CARTESIAN_POINT ( 'NONE',  ( 0.000000000000000000, 0.000000000000000000, 1.700000000000007061 ) ) ;
#134 = CARTESIAN_POINT ( 'NONE',  ( -0.8499999999999999778, 0.000000000000000000, 126.5000000000000000 ) ) ;
#135 = CC_DESIGN_PERSON_AND_ORGANIZATION_ASSIGNMENT ( #282, #126, ( #114 ) ) ;
#136 = VECTOR ( 'NONE', #297, 1000.000000000000000 ) ;
#137 = APPROVAL ( #201, 'NEURÈENÝ' ) ;
#138 = ORIENTED_EDGE ( 'NONE', *, *, #285, .T. ) ;
#139 = AXIS2_PLACEMENT_3D ( 'NONE', #273, #214, #231 ) ;
#140 = ORIENTED_EDGE ( 'NONE', *, *, #131, .T. ) ;
#141 = EDGE_LOOP ( 'NONE', ( #87, #59 ) ) ;
#142 = VERTEX_POINT ( 'NONE', #98 ) ;
#143 = EDGE_CURVE ( 'NONE', #183, #26, #33, .T. ) ;
#144 = DIRECTION ( 'NONE',  ( 1.000000000000000000, 0.000000000000000000, 0.000000000000000000 ) ) ;
#145 = AXIS2_PLACEMENT_3D ( 'NONE', #58, #299, #17 ) ;
#146 = CARTESIAN_POINT ( 'NONE',  ( 0.000000000000000000, 0.000000000000000000, 1.500000000000000000 ) ) ;
#147 = APPROVAL_DATE_TIME ( #49, #154 ) ;
#148 = ORIENTED_EDGE ( 'NONE', *, *, #149, .T. ) ;
#149 = EDGE_CURVE ( 'NONE', #233, #65, #229, .T. ) ;
#150 = CARTESIAN_POINT ( 'NONE',  ( 0.000000000000000000, 0.000000000000000000, 1.500000000000000000 ) ) ;
#151 = DATE_AND_TIME ( #128, #77 ) ;
#152 = AXIS2_PLACEMENT_3D ( 'NONE', #217, #122, #27 ) ;
#153 = CARTESIAN_POINT ( 'NONE',  ( 1.050000000000000044, 0.000000000000000000, 1.500000000000003553 ) ) ;
#154 = APPROVAL ( #25, 'NEURÈENÝ' ) ;
#155 = CARTESIAN_POINT ( 'NONE',  ( -2.000000000000000000, 0.000000000000000000, 1.500000000000000000 ) ) ;
#156 = AXIS2_PLACEMENT_3D ( 'NONE', #194, #286, #265 ) ;
#157 = DIRECTION ( 'NONE',  ( 1.000000000000000000, 0.000000000000000000, 0.000000000000000000 ) ) ;
#158 = CARTESIAN_POINT ( 'NONE',  ( 1.050000000000000044, 0.000000000000000000, 1.700000000000007061 ) ) ;
#159 = EDGE_CURVE ( 'NONE', #26, #142, #207, .T. ) ;
#160 = ORIENTED_EDGE ( 'NONE', *, *, #70, .T. ) ;
#161 = APPROVAL_STATUS ( 'not_yet_approved' ) ;
#162 = VERTEX_POINT ( 'NONE', #153 ) ;
#163 = ORIENTED_EDGE ( 'NONE', *, *, #186, .F. ) ;
#164 = AXIS2_PLACEMENT_3D ( 'NONE', #132, #226, #179 ) ;
#165 = ORIENTED_EDGE ( 'NONE', *, *, #131, .F. ) ;
#166 = ORIENTED_EDGE ( 'NONE', *, *, #200, .F. ) ;
#167 = DIRECTION ( 'NONE',  ( -1.000000000000000000, 0.000000000000000000, 0.000000000000000000 ) ) ;
#168 = VERTEX_POINT ( 'NONE', #108 ) ;
#169 = COORDINATED_UNIVERSAL_TIME_OFFSET ( 1, 0, .AHEAD. ) ;
#170 = ADVANCED_FACE ( 'NONE', ( #31 ), #107, .T. ) ;
#171 = DIRECTION ( 'NONE',  ( 1.224646799147353207E-16, 1.000000000000000000, -0.000000000000000000 ) ) ;
#172 = CARTESIAN_POINT ( 'NONE',  ( -0.8499999999999999778, 0.000000000000000000, 126.5000000000000000 ) ) ;
#173 = CARTESIAN_POINT ( 'NONE',  ( 2.000000000000000000, 2.449293598294706414E-16, 0.000000000000000000 ) ) ;
#174 = SECURITY_CLASSIFICATION_LEVEL ( 'unclassified' ) ;
#175 = FACE_OUTER_BOUND ( 'NONE', #112, .T. ) ;
#176 = CARTESIAN_POINT ( 'NONE',  ( 0.000000000000000000, 0.000000000000000000, 0.000000000000000000 ) ) ;
#177 = AXIS2_PLACEMENT_3D ( 'NONE', #150, #127, #109 ) ;
#178 = DIRECTION ( 'NONE',  ( 0.000000000000000000, -1.000000000000000000, 0.000000000000000000 ) ) ;
#179 = DIRECTION ( 'NONE',  ( 1.000000000000000000, 0.000000000000000000, 0.000000000000000000 ) ) ;
#180 = CLOSED_SHELL ( 'NONE', ( #291, #247, #94, #170, #124, #40, #5, #85, #260 ) ) ;
#181 = EDGE_CURVE ( 'NONE', #279, #162, #42, .T. ) ;
#182 = APPLICATION_PROTOCOL_DEFINITION ( 'international standard', 'config_control_design', 1994, #262 ) ;
#183 = VERTEX_POINT ( 'NONE', #134 ) ;
#184 = AXIS2_PLACEMENT_3D ( 'NONE', #176, #2, #220 ) ;
#185 = ORIENTED_EDGE ( 'NONE', *, *, #181, .F. ) ;
#186 = EDGE_CURVE ( 'NONE', #142, #162, #203, .T. ) ;
#187 = ORIENTED_EDGE ( 'NONE', *, *, #301, .F. ) ;
#188 = VECTOR ( 'NONE', #223, 1000.000000000000000 ) ;
#189 = CC_DESIGN_SECURITY_CLASSIFICATION ( #259, ( #114 ) ) ;
#190 = FACE_OUTER_BOUND ( 'NONE', #38, .T. ) ;
#191 = ORIENTED_EDGE ( 'NONE', *, *, #240, .T. ) ;
#192 = CARTESIAN_POINT ( 'NONE',  ( 0.000000000000000000, 0.000000000000000000, 0.000000000000000000 ) ) ;
#193 = APPROVAL_PERSON_ORGANIZATION ( #19, #154, #123 ) ;
#194 = CARTESIAN_POINT ( 'NONE',  ( 0.000000000000000000, 0.000000000000000000, 126.5000000000000000 ) ) ;
#195 = CALENDAR_DATE ( 2022, 20, 6 ) ;
#196 = LINE ( 'NONE', #284, #60 ) ;
#197 = COORDINATED_UNIVERSAL_TIME_OFFSET ( 1, 0, .AHEAD. ) ;
#198 = UNCERTAINTY_MEASURE_WITH_UNIT (LENGTH_MEASURE( 1.000000000000000082E-05 ), #57, 'distance_accuracy_value', 'NONE');
#199 = CARTESIAN_POINT ( 'NONE',  ( -2.000000000000000000, 0.000000000000000000, 0.000000000000000000 ) ) ;
#200 = EDGE_CURVE ( 'NONE', #235, #118, #86, .T. ) ;
#201 = APPROVAL_STATUS ( 'not_yet_approved' ) ;
#202 =( GEOMETRIC_REPRESENTATION_CONTEXT ( 3 ) GLOBAL_UNCERTAINTY_ASSIGNED_CONTEXT ( ( #198 ) ) GLOBAL_UNIT_ASSIGNED_CONTEXT ( ( #57, #248, #269 ) ) REPRESENTATION_CONTEXT ( 'NONE', 'WORKASPACE' ) );
#203 = CIRCLE ( 'NONE', #16, 0.2000000000000000944 ) ;
#204 = CARTESIAN_POINT ( 'NONE',  ( 0.000000000000000000, 0.000000000000000000, 126.5000000000000000 ) ) ;
#205 = CARTESIAN_POINT ( 'NONE',  ( 0.000000000000000000, 0.000000000000000000, 1.500000000000000000 ) ) ;
#206 = CC_DESIGN_DATE_AND_TIME_ASSIGNMENT ( #69, #266, ( #100 ) ) ;
#207 = LINE ( 'NONE', #294, #188 ) ;
#208 = LOCAL_TIME ( 12, 22, 7.000000000000000000, #209 ) ;
#209 = COORDINATED_UNIVERSAL_TIME_OFFSET ( 1, 0, .AHEAD. ) ;
#210 = CC_DESIGN_APPROVAL ( #154, ( #114 ) ) ;
#211 = APPROVAL ( #161, 'NEURÈENÝ' ) ;
#212 = ORIENTED_EDGE ( 'NONE', *, *, #143, .F. ) ;
#213 = APPROVAL_PERSON_ORGANIZATION ( #305, #211, #90 ) ;
#214 = DIRECTION ( 'NONE',  ( -0.000000000000000000, -0.000000000000000000, -1.000000000000000000 ) ) ;
#215 = AXIS2_PLACEMENT_3D ( 'NONE', #32, #293, #130 ) ;
#216 = ORIENTED_EDGE ( 'NONE', *, *, #255, .F. ) ;
#217 = CARTESIAN_POINT ( 'NONE',  ( 0.000000000000000000, 0.000000000000000000, 1.500000000000000000 ) ) ;
#218 = APPROVAL_DATE_TIME ( #151, #137 ) ;
#219 = PLANE ( 'NONE',  #237 ) ;
#220 = DIRECTION ( 'NONE',  ( 1.000000000000000000, 0.000000000000000000, -0.000000000000000000 ) ) ;
#221 = PERSON_AND_ORGANIZATION_ROLE ( 'design_supplier' ) ;
#222 = DIRECTION ( 'NONE',  ( 0.000000000000000000, 0.000000000000000000, 1.000000000000000000 ) ) ;
#223 = DIRECTION ( 'NONE',  ( -0.000000000000000000, -0.000000000000000000, -1.000000000000000000 ) ) ;
#224 = DIRECTION ( 'NONE',  ( -0.000000000000000000, -0.000000000000000000, -1.000000000000000000 ) ) ;
#225 = AXIS2_PLACEMENT_3D ( 'NONE', #66, #222, #41 ) ;
#226 = DIRECTION ( 'NONE',  ( 0.000000000000000000, 0.000000000000000000, 1.000000000000000000 ) ) ;
#227 = CARTESIAN_POINT ( 'NONE',  ( 0.000000000000000000, 0.000000000000000000, 1.500000000000000000 ) ) ;
#228 = CARTESIAN_POINT ( 'NONE',  ( 2.000000000000000000, 2.449293598294706414E-16, 1.500000000000000000 ) ) ;
#229 = CIRCLE ( 'NONE', #177, 2.000000000000000000 ) ;
#230 = MECHANICAL_CONTEXT ( 'NONE', #257, 'mechanical' ) ;
#231 = DIRECTION ( 'NONE',  ( -1.000000000000000000, 0.000000000000000000, 0.000000000000000000 ) ) ;
#232 = ORIENTED_EDGE ( 'NONE', *, *, #80, .T. ) ;
#233 = VERTEX_POINT ( 'NONE', #228 ) ;
#234 = LOCAL_TIME ( 12, 22, 7.000000000000000000, #8 ) ;
#235 = VERTEX_POINT ( 'NONE', #199 ) ;
#236 = ORIENTED_EDGE ( 'NONE', *, *, #80, .F. ) ;
#237 = AXIS2_PLACEMENT_3D ( 'NONE', #146, #241, #243 ) ;
#238 = FACE_OUTER_BOUND ( 'NONE', #20, .T. ) ;
#239 = LOCAL_TIME ( 12, 22, 7.000000000000000000, #169 ) ;
#240 = EDGE_CURVE ( 'NONE', #65, #235, #288, .T. ) ;
#241 = DIRECTION ( 'NONE',  ( 0.000000000000000000, 0.000000000000000000, 1.000000000000000000 ) ) ;
#242 = PERSON_AND_ORGANIZATION ( #13, #276 ) ;
#243 = DIRECTION ( 'NONE',  ( 1.000000000000000000, 0.000000000000000000, -0.000000000000000000 ) ) ;
#244 = EDGE_LOOP ( 'NONE', ( #267, #148 ) ) ;
#245 = CIRCLE ( 'NONE', #307, 2.000000000000000000 ) ;
#246 = APPROVAL_PERSON_ORGANIZATION ( #287, #137, #72 ) ;
#247 = ADVANCED_FACE ( 'NONE', ( #83 ), #78, .T. ) ;
#248 =( NAMED_UNIT ( * ) PLANE_ANGLE_UNIT ( ) SI_UNIT ( $, .RADIAN. ) );
#249 = ADVANCED_BREP_SHAPE_REPRESENTATION ( '18c3', ( #292, #145 ), #202 ) ;
#250 = EDGE_CURVE ( 'NONE', #183, #168, #67, .T. ) ;
#251 = AXIS2_PLACEMENT_3D ( 'NONE', #133, #51, #157 ) ;
#252 = ORIENTED_EDGE ( 'NONE', *, *, #186, .T. ) ;
#253 = ORIENTED_EDGE ( 'NONE', *, *, #159, .T. ) ;
#254 = APPLICATION_PROTOCOL_DEFINITION ( 'international standard', 'config_control_design', 1994, #257 ) ;
#255 = EDGE_CURVE ( 'NONE', #162, #279, #258, .T. ) ;
#256 = ORIENTED_EDGE ( 'NONE', *, *, #149, .F. ) ;
#257 = APPLICATION_CONTEXT ( 'configuration controlled 3d designs of mechanical parts and assemblies' ) ;
#258 = CIRCLE ( 'NONE', #76, 1.050000000000000044 ) ;
#259 = SECURITY_CLASSIFICATION ( '', '', #174 ) ;
#260 = ADVANCED_FACE ( 'NONE', ( #175 ), #125, .F. ) ;
#261 = FACE_BOUND ( 'NONE', #141, .T. ) ;
#262 = APPLICATION_CONTEXT ( 'configuration controlled 3d designs of mechanical parts and assemblies' ) ;
#263 = DIRECTION ( 'NONE',  ( -1.000000000000000000, 1.224646799147353207E-16, 0.000000000000000000 ) ) ;
#264 = PERSON_AND_ORGANIZATION_ROLE ( 'creator' ) ;
#265 = DIRECTION ( 'NONE',  ( 1.000000000000000000, 0.000000000000000000, 0.000000000000000000 ) ) ;
#266 = DATE_TIME_ROLE ( 'creation_date' ) ;
#267 = ORIENTED_EDGE ( 'NONE', *, *, #12, .T. ) ;
#268 = AXIS2_PLACEMENT_3D ( 'NONE', #52, #56, #272 ) ;
#269 =( NAMED_UNIT ( * ) SI_UNIT ( $, .STERADIAN. ) SOLID_ANGLE_UNIT ( ) );
#270 = DIRECTION ( 'NONE',  ( 0.000000000000000000, 0.000000000000000000, -1.000000000000000000 ) ) ;
#271 = AXIS2_PLACEMENT_3D ( 'NONE', #24, #171, #263 ) ;
#272 = DIRECTION ( 'NONE',  ( 1.000000000000000000, 0.000000000000000000, 0.000000000000000000 ) ) ;
#273 = CARTESIAN_POINT ( 'NONE',  ( 0.000000000000000000, 0.000000000000000000, 126.5000000000000000 ) ) ;
#274 = DATE_AND_TIME ( #111, #208 ) ;
#275 = ORIENTED_EDGE ( 'NONE', *, *, #301, .T. ) ;
#276 = ORGANIZATION ( 'NEURÈENÝ', 'NEURÈENÝ', '' ) ;
#277 = CC_DESIGN_PERSON_AND_ORGANIZATION_ASSIGNMENT ( #103, #116, ( #259 ) ) ;
#278 = ORIENTED_EDGE ( 'NONE', *, *, #240, .F. ) ;
#279 = VERTEX_POINT ( 'NONE', #81 ) ;
#280 = CC_DESIGN_PERSON_AND_ORGANIZATION_ASSIGNMENT ( #96, #221, ( #114 ) ) ;
#281 = PLANE ( 'NONE',  #184 ) ;
#282 = PERSON_AND_ORGANIZATION ( #13, #276 ) ;
#283 = VECTOR ( 'NONE', #46, 1000.000000000000000 ) ;
#284 = CARTESIAN_POINT ( 'NONE',  ( 2.000000000000000000, 2.449293598294706414E-16, 1.500000000000000000 ) ) ;
#285 = EDGE_CURVE ( 'NONE', #168, #142, #296, .T. ) ;
#286 = DIRECTION ( 'NONE',  ( 0.000000000000000000, 0.000000000000000000, 1.000000000000000000 ) ) ;
#287 = PERSON_AND_ORGANIZATION ( #13, #276 ) ;
#288 = LINE ( 'NONE', #155, #136 ) ;
#289 = AXIS2_PLACEMENT_3D ( 'NONE', #204, #290, #53 ) ;
#290 = DIRECTION ( 'NONE',  ( 0.000000000000000000, 0.000000000000000000, 1.000000000000000000 ) ) ;
#291 = ADVANCED_FACE ( 'NONE', ( #106 ), #11, .F. ) ;
#292 = MANIFOLD_SOLID_BREP ( 'Zaoblit1', #180 ) ;
#293 = DIRECTION ( 'NONE',  ( 0.000000000000000000, 0.000000000000000000, 1.000000000000000000 ) ) ;
#294 = CARTESIAN_POINT ( 'NONE',  ( 0.8499999999999999778, 1.040949779275250140E-16, 126.5000000000000000 ) ) ;
#295 = DIRECTION ( 'NONE',  ( -1.000000000000000000, 0.000000000000000000, 0.000000000000000000 ) ) ;
#296 = CIRCLE ( 'NONE', #164, 0.8499999999999999778 ) ;
#297 = DIRECTION ( 'NONE',  ( -0.000000000000000000, -0.000000000000000000, -1.000000000000000000 ) ) ;
#298 = ORIENTED_EDGE ( 'NONE', *, *, #200, .T. ) ;
#299 = DIRECTION ( 'NONE',  ( 0.000000000000000000, 0.000000000000000000, 1.000000000000000000 ) ) ;
#300 = EDGE_LOOP ( 'NONE', ( #39, #140, #216, #163 ) ) ;
#301 = EDGE_CURVE ( 'NONE', #26, #183, #119, .T. ) ;
#302 = AXIS2_PLACEMENT_3D ( 'NONE', #93, #92, #73 ) ;
#303 = CC_DESIGN_APPROVAL ( #137, ( #259 ) ) ;
#304 = EDGE_LOOP ( 'NONE', ( #88, #113, #191, #298 ) ) ;
#305 = PERSON_AND_ORGANIZATION ( #13, #276 ) ;
#306 = ORIENTED_EDGE ( 'NONE', *, *, #159, .F. ) ;
#307 = AXIS2_PLACEMENT_3D ( 'NONE', #192, #48, #144 ) ;
ENDSEC;
END-ISO-10303-21;
