ISO-10303-21;
HEADER;
FILE_DESCRIPTION (( 'STEP AP203' ),
    '1' );
FILE_NAME ('09bb.STEP',
    '2022-06-20T10:25:44',
    ( '' ),
    ( '' ),
    'SwSTEP 2.0',
    'SolidWorks 2019',
    '' );
FILE_SCHEMA (( 'CONFIG_CONTROL_DESIGN' ));
ENDSEC;

DATA;
#1 = CARTESIAN_POINT ( 'NONE',  ( -0.5000000000000000000, 0.000000000000000000, 1.399999999999998579 ) ) ;
#2 = ORIENTED_EDGE ( 'NONE', *, *, #206, .F. ) ;
#3 = AXIS2_PLACEMENT_3D ( 'NONE', #95, #189, #307 ) ;
#4 = APPROVAL_DATE_TIME ( #144, #298 ) ;
#5 = ORIENTED_EDGE ( 'NONE', *, *, #248, .F. ) ;
#6 = ORIENTED_EDGE ( 'NONE', *, *, #165, .F. ) ;
#7 = CARTESIAN_POINT ( 'NONE',  ( 0.000000000000000000, 0.000000000000000000, 1.199999999999999956 ) ) ;
#8 = AXIS2_PLACEMENT_3D ( 'NONE', #91, #88, #10 ) ;
#9 = CARTESIAN_POINT ( 'NONE',  ( -0.5000000000000000000, 0.000000000000000000, 101.2000000000000171 ) ) ;
#10 = DIRECTION ( 'NONE',  ( -1.000000000000000000, 0.000000000000000000, 0.000000000000000000 ) ) ;
#11 = CIRCLE ( 'NONE', #120, 0.6999999999999999556 ) ;
#12 = CARTESIAN_POINT ( 'NONE',  ( 0.000000000000000000, 0.000000000000000000, 1.399999999999998579 ) ) ;
#13 = CARTESIAN_POINT ( 'NONE',  ( -0.6999999999999999556, 8.572527594031471957E-17, 1.399999999999998579 ) ) ;
#14 = PERSON_AND_ORGANIZATION ( #90, #178 ) ;
#15 = CIRCLE ( 'NONE', #276, 0.5000000000000000000 ) ;
#16 = DIRECTION ( 'NONE',  ( -0.000000000000000000, -0.000000000000000000, -1.000000000000000000 ) ) ;
#17 = TOROIDAL_SURFACE ( 'NONE', #143, 0.6999999999999999556, 0.2000000000000000111 ) ;
#18 = ORIENTED_EDGE ( 'NONE', *, *, #92, .F. ) ;
#19 = APPROVAL_ROLE ( '' ) ;
#20 = ORIENTED_EDGE ( 'NONE', *, *, #142, .F. ) ;
#21 = DIRECTION ( 'NONE',  ( 0.000000000000000000, 0.000000000000000000, 1.000000000000000000 ) ) ;
#22 = AXIS2_PLACEMENT_3D ( 'NONE', #13, #110, #282 ) ;
#23 = APPROVAL_STATUS ( 'not_yet_approved' ) ;
#24 = VERTEX_POINT ( 'NONE', #174 ) ;
#25 = CARTESIAN_POINT ( 'NONE',  ( 0.000000000000000000, 0.000000000000000000, 1.399999999999998579 ) ) ;
#26 = CC_DESIGN_PERSON_AND_ORGANIZATION_ASSIGNMENT ( #158, #121, ( #104 ) ) ;
#27 = ORIENTED_EDGE ( 'NONE', *, *, #41, .T. ) ;
#28 = CC_DESIGN_APPROVAL ( #298, ( #162 ) ) ;
#29 = CIRCLE ( 'NONE', #49, 0.5000000000000000000 ) ;
#30 = VERTEX_POINT ( 'NONE', #148 ) ;
#31 = PERSON_AND_ORGANIZATION ( #90, #178 ) ;
#32 = CARTESIAN_POINT ( 'NONE',  ( 0.000000000000000000, 0.000000000000000000, 1.199999999999999956 ) ) ;
#33 = EDGE_CURVE ( 'NONE', #119, #271, #75, .T. ) ;
#34 = PLANE ( 'NONE',  #136 ) ;
#35 = VECTOR ( 'NONE', #192, 1000.000000000000000 ) ;
#36 = DIRECTION ( 'NONE',  ( 0.000000000000000000, 0.000000000000000000, 1.000000000000000000 ) ) ;
#37 = AXIS2_PLACEMENT_3D ( 'NONE', #302, #299, #152 ) ;
#38 = DIRECTION ( 'NONE',  ( 0.000000000000000000, 0.000000000000000000, 1.000000000000000000 ) ) ;
#39 = CARTESIAN_POINT ( 'NONE',  ( 0.000000000000000000, 0.000000000000000000, 1.199999999999999956 ) ) ;
#40 = DIRECTION ( 'NONE',  ( 1.000000000000000000, 0.000000000000000000, 0.000000000000000000 ) ) ;
#41 = EDGE_CURVE ( 'NONE', #271, #30, #171, .T. ) ;
#42 = PERSON_AND_ORGANIZATION ( #90, #178 ) ;
#43 = APPROVAL_PERSON_ORGANIZATION ( #42, #62, #19 ) ;
#44 = VERTEX_POINT ( 'NONE', #1 ) ;
#45 = PERSON_AND_ORGANIZATION_ROLE ( 'creator' ) ;
#46 = CC_DESIGN_PERSON_AND_ORGANIZATION_ASSIGNMENT ( #31, #193, ( #162 ) ) ;
#47 = EDGE_LOOP ( 'NONE', ( #112, #100 ) ) ;
#48 = ORIENTED_EDGE ( 'NONE', *, *, #225, .F. ) ;
#49 = AXIS2_PLACEMENT_3D ( 'NONE', #204, #300, #280 ) ;
#50 = CC_DESIGN_APPROVAL ( #62, ( #127 ) ) ;
#51 = CALENDAR_DATE ( 2022, 20, 6 ) ;
#52 = VERTEX_POINT ( 'NONE', #194 ) ;
#53 = ADVANCED_FACE ( 'NONE', ( #99 ), #132, .F. ) ;
#54 = EDGE_LOOP ( 'NONE', ( #5, #20, #27, #6 ) ) ;
#55 = EDGE_LOOP ( 'NONE', ( #210, #125, #197, #243 ) ) ;
#56 = ADVANCED_FACE ( 'NONE', ( #244 ), #102, .T. ) ;
#57 = ORIENTED_EDGE ( 'NONE', *, *, #33, .T. ) ;
#58 = LINE ( 'NONE', #252, #228 ) ;
#59 = VECTOR ( 'NONE', #177, 1000.000000000000000 ) ;
#60 = CYLINDRICAL_SURFACE ( 'NONE', #190, 1.250000000000000000 ) ;
#61 = AXIS2_PLACEMENT_3D ( 'NONE', #39, #233, #180 ) ;
#62 = APPROVAL ( #239, 'NEURÈENÝ' ) ;
#63 = DIRECTION ( 'NONE',  ( -0.000000000000000000, -0.000000000000000000, -1.000000000000000000 ) ) ;
#64 = DIRECTION ( 'NONE',  ( 1.000000000000000000, 0.000000000000000000, 0.000000000000000000 ) ) ;
#65 = FACE_BOUND ( 'NONE', #265, .T. ) ;
#66 = ADVANCED_FACE ( 'NONE', ( #173 ), #73, .T. ) ;
#67 = COORDINATED_UNIVERSAL_TIME_OFFSET ( 1, 0, .AHEAD. ) ;
#68 = EDGE_LOOP ( 'NONE', ( #247, #57, #286, #123 ) ) ;
#69 = DESIGN_CONTEXT ( 'detailed design', #159, 'design' ) ;
#70 = PLANE ( 'NONE',  #267 ) ;
#71 = DATE_AND_TIME ( #97, #205 ) ;
#72 = SHAPE_DEFINITION_REPRESENTATION ( #83, #285 ) ;
#73 = CYLINDRICAL_SURFACE ( 'NONE', #150, 0.5000000000000000000 ) ;
#74 = PERSON_AND_ORGANIZATION ( #90, #178 ) ;
#75 = LINE ( 'NONE', #218, #35 ) ;
#76 = ORIENTED_EDGE ( 'NONE', *, *, #165, .T. ) ;
#77 = CC_DESIGN_DATE_AND_TIME_ASSIGNMENT ( #260, #212, ( #175 ) ) ;
#78 = AXIS2_PLACEMENT_3D ( 'NONE', #198, #79, #226 ) ;
#79 = DIRECTION ( 'NONE',  ( -0.000000000000000000, -0.000000000000000000, -1.000000000000000000 ) ) ;
#80 = AXIS2_PLACEMENT_3D ( 'NONE', #229, #63, #64 ) ;
#81 = DIRECTION ( 'NONE',  ( 0.000000000000000000, 0.000000000000000000, 1.000000000000000000 ) ) ;
#82 = CARTESIAN_POINT ( 'NONE',  ( 0.5000000000000000000, 6.123233995736766036E-17, 101.2000000000000171 ) ) ;
#83 = PRODUCT_DEFINITION_SHAPE ( 'NONE', 'NONE',  #175 ) ;
#84 = DIRECTION ( 'NONE',  ( 1.000000000000000000, 0.000000000000000000, 0.000000000000000000 ) ) ;
#85 = CIRCLE ( 'NONE', #277, 0.5000000000000000000 ) ;
#86 = EDGE_CURVE ( 'NONE', #30, #52, #11, .T. ) ;
#87 = LOCAL_TIME ( 12, 25, 44.00000000000000000, #222 ) ;
#88 = DIRECTION ( 'NONE',  ( -0.000000000000000000, -0.000000000000000000, -1.000000000000000000 ) ) ;
#89 = DIRECTION ( 'NONE',  ( -0.000000000000000000, -0.000000000000000000, -1.000000000000000000 ) ) ;
#90 = PERSON ( 'NEURÈENÝ', 'NEURÈENÝ', 'NEURÈENÝ', ('NEURÈENÝ'), ('NEURÈENÝ'), ('NEURÈENÝ') ) ;
#91 = CARTESIAN_POINT ( 'NONE',  ( 0.000000000000000000, 0.000000000000000000, 101.2000000000000171 ) ) ;
#92 = EDGE_CURVE ( 'NONE', #44, #271, #15, .T. ) ;
#93 = APPROVAL_DATE_TIME ( #237, #62 ) ;
#94 = PERSON_AND_ORGANIZATION ( #90, #178 ) ;
#95 = CARTESIAN_POINT ( 'NONE',  ( 0.000000000000000000, 0.000000000000000000, 0.000000000000000000 ) ) ;
#96 =( NAMED_UNIT ( * ) SI_UNIT ( $, .STERADIAN. ) SOLID_ANGLE_UNIT ( ) );
#97 = CALENDAR_DATE ( 2022, 20, 6 ) ;
#98 = ADVANCED_FACE ( 'NONE', ( #207 ), #34, .F. ) ;
#99 = FACE_OUTER_BOUND ( 'NONE', #54, .T. ) ;
#100 = ORIENTED_EDGE ( 'NONE', *, *, #235, .T. ) ;
#101 = CC_DESIGN_PERSON_AND_ORGANIZATION_ASSIGNMENT ( #183, #283, ( #127 ) ) ;
#102 = CYLINDRICAL_SURFACE ( 'NONE', #78, 1.250000000000000000 ) ;
#103 = DIRECTION ( 'NONE',  ( -0.000000000000000000, -0.000000000000000000, -1.000000000000000000 ) ) ;
#104 = PRODUCT ( '09bb', '09bb', '', ( #186 ) ) ;
#105 = DIRECTION ( 'NONE',  ( 1.000000000000000000, 0.000000000000000000, -0.000000000000000000 ) ) ;
#106 = CYLINDRICAL_SURFACE ( 'NONE', #8, 0.5000000000000000000 ) ;
#107 = CARTESIAN_POINT ( 'NONE',  ( 0.000000000000000000, 0.000000000000000000, 1.199999999999999956 ) ) ;
#108 = DIRECTION ( 'NONE',  ( 1.000000000000000000, 0.000000000000000000, 0.000000000000000000 ) ) ;
#109 = EDGE_CURVE ( 'NONE', #138, #24, #294, .T. ) ;
#110 = DIRECTION ( 'NONE',  ( 1.224646799147353207E-16, 1.000000000000000000, -0.000000000000000000 ) ) ;
#111 = CALENDAR_DATE ( 2022, 20, 6 ) ;
#112 = ORIENTED_EDGE ( 'NONE', *, *, #206, .T. ) ;
#113 = CLOSED_SHELL ( 'NONE', ( #199, #213, #154, #56, #257, #98, #66, #288, #53 ) ) ;
#114 =( NAMED_UNIT ( * ) PLANE_ANGLE_UNIT ( ) SI_UNIT ( $, .RADIAN. ) );
#115 = AXIS2_PLACEMENT_3D ( 'NONE', #164, #21, #241 ) ;
#116 = ORIENTED_EDGE ( 'NONE', *, *, #248, .T. ) ;
#117 = EDGE_CURVE ( 'NONE', #238, #138, #153, .T. ) ;
#118 = DIRECTION ( 'NONE',  ( 1.000000000000000000, 0.000000000000000000, -0.000000000000000000 ) ) ;
#119 = VERTEX_POINT ( 'NONE', #82 ) ;
#120 = AXIS2_PLACEMENT_3D ( 'NONE', #32, #200, #145 ) ;
#121 = PERSON_AND_ORGANIZATION_ROLE ( 'design_owner' ) ;
#122 = PRODUCT_RELATED_PRODUCT_CATEGORY ( 'detail', '', ( #104 ) ) ;
#123 = ORIENTED_EDGE ( 'NONE', *, *, #284, .F. ) ;
#124 = ORIENTED_EDGE ( 'NONE', *, *, #306, .T. ) ;
#125 = ORIENTED_EDGE ( 'NONE', *, *, #169, .F. ) ;
#126 = CARTESIAN_POINT ( 'NONE',  ( 1.250000000000000000, 1.530808498934191571E-16, 1.199999999999999956 ) ) ;
#127 = PRODUCT_DEFINITION_FORMATION_WITH_SPECIFIED_SOURCE ( 'LIBOVOLNÝ', '', #104, .NOT_KNOWN. ) ;
#128 = CIRCLE ( 'NONE', #115, 1.250000000000000000 ) ;
#129 = FACE_OUTER_BOUND ( 'NONE', #263, .T. ) ;
#130 = DIRECTION ( 'NONE',  ( 1.000000000000000000, 0.000000000000000000, -0.000000000000000000 ) ) ;
#131 = CARTESIAN_POINT ( 'NONE',  ( 1.250000000000000000, 1.530808498934191571E-16, 0.000000000000000000 ) ) ;
#132 = TOROIDAL_SURFACE ( 'NONE', #147, 0.6999999999999999556, 0.2000000000000000111 ) ;
#133 = LINE ( 'NONE', #255, #273 ) ;
#134 = APPROVAL_STATUS ( 'not_yet_approved' ) ;
#135 = ORIENTED_EDGE ( 'NONE', *, *, #86, .T. ) ;
#136 = AXIS2_PLACEMENT_3D ( 'NONE', #256, #281, #130 ) ;
#137 = DIRECTION ( 'NONE',  ( 0.000000000000000000, 0.000000000000000000, 1.000000000000000000 ) ) ;
#138 = VERTEX_POINT ( 'NONE', #131 ) ;
#139 = PERSON_AND_ORGANIZATION_ROLE ( 'creator' ) ;
#140 = EDGE_LOOP ( 'NONE', ( #292, #224, #184, #48 ) ) ;
#141 =( LENGTH_UNIT ( ) NAMED_UNIT ( * ) SI_UNIT ( .MILLI., .METRE. ) );
#142 = EDGE_CURVE ( 'NONE', #271, #44, #85, .T. ) ;
#143 = AXIS2_PLACEMENT_3D ( 'NONE', #155, #231, #40 ) ;
#144 = DATE_AND_TIME ( #51, #87 ) ;
#145 = DIRECTION ( 'NONE',  ( 1.000000000000000000, 0.000000000000000000, 0.000000000000000000 ) ) ;
#146 = DIRECTION ( 'NONE',  ( 0.000000000000000000, -1.000000000000000000, 0.000000000000000000 ) ) ;
#147 = AXIS2_PLACEMENT_3D ( 'NONE', #290, #168, #270 ) ;
#148 = CARTESIAN_POINT ( 'NONE',  ( 0.6999999999999999556, 0.000000000000000000, 1.199999999999999289 ) ) ;
#149 = VERTEX_POINT ( 'NONE', #279 ) ;
#150 = AXIS2_PLACEMENT_3D ( 'NONE', #167, #103, #249 ) ;
#151 = CARTESIAN_POINT ( 'NONE',  ( 0.000000000000000000, 0.000000000000000000, 101.2000000000000171 ) ) ;
#152 = DIRECTION ( 'NONE',  ( 1.000000000000000000, 0.000000000000000000, 0.000000000000000000 ) ) ;
#153 = LINE ( 'NONE', #126, #59 ) ;
#154 = ADVANCED_FACE ( 'NONE', ( #254 ), #60, .T. ) ;
#155 = CARTESIAN_POINT ( 'NONE',  ( 0.000000000000000000, 0.000000000000000000, 1.399999999999998579 ) ) ;
#156 = APPROVAL_PERSON_ORGANIZATION ( #14, #196, #262 ) ;
#157 = CIRCLE ( 'NONE', #37, 1.250000000000000000 ) ;
#158 = PERSON_AND_ORGANIZATION ( #90, #178 ) ;
#159 = APPLICATION_CONTEXT ( 'configuration controlled 3d designs of mechanical parts and assemblies' ) ;
#160 = ORIENTED_EDGE ( 'NONE', *, *, #225, .T. ) ;
#161 = CC_DESIGN_DATE_AND_TIME_ASSIGNMENT ( #245, #172, ( #162 ) ) ;
#162 = SECURITY_CLASSIFICATION ( '', '', #266 ) ;
#163 = VERTEX_POINT ( 'NONE', #9 ) ;
#164 = CARTESIAN_POINT ( 'NONE',  ( 0.000000000000000000, 0.000000000000000000, 0.000000000000000000 ) ) ;
#165 = EDGE_CURVE ( 'NONE', #52, #30, #217, .T. ) ;
#166 = ORIENTED_EDGE ( 'NONE', *, *, #109, .F. ) ;
#167 = CARTESIAN_POINT ( 'NONE',  ( 0.000000000000000000, 0.000000000000000000, 101.2000000000000171 ) ) ;
#168 = DIRECTION ( 'NONE',  ( 0.000000000000000000, 0.000000000000000000, 1.000000000000000000 ) ) ;
#169 = EDGE_CURVE ( 'NONE', #163, #119, #296, .T. ) ;
#170 = DIRECTION ( 'NONE',  ( 0.000000000000000000, 0.000000000000000000, -1.000000000000000000 ) ) ;
#171 = CIRCLE ( 'NONE', #215, 0.2000000000000000944 ) ;
#172 = DATE_TIME_ROLE ( 'classification_date' ) ;
#173 = FACE_OUTER_BOUND ( 'NONE', #55, .T. ) ;
#174 = CARTESIAN_POINT ( 'NONE',  ( -1.250000000000000000, 0.000000000000000000, 0.000000000000000000 ) ) ;
#175 = PRODUCT_DEFINITION ( 'NEZNÁMÝ', '', #127, #69 ) ;
#176 = FACE_OUTER_BOUND ( 'NONE', #47, .T. ) ;
#177 = DIRECTION ( 'NONE',  ( -0.000000000000000000, -0.000000000000000000, -1.000000000000000000 ) ) ;
#178 = ORGANIZATION ( 'NEURÈENÝ', 'NEURÈENÝ', '' ) ;
#179 = DIRECTION ( 'NONE',  ( -0.000000000000000000, -0.000000000000000000, -1.000000000000000000 ) ) ;
#180 = DIRECTION ( 'NONE',  ( 1.000000000000000000, 0.000000000000000000, 0.000000000000000000 ) ) ;
#181 =( GEOMETRIC_REPRESENTATION_CONTEXT ( 3 ) GLOBAL_UNCERTAINTY_ASSIGNED_CONTEXT ( ( #253 ) ) GLOBAL_UNIT_ASSIGNED_CONTEXT ( ( #141, #114, #96 ) ) REPRESENTATION_CONTEXT ( 'NONE', 'WORKASPACE' ) );
#182 = AXIS2_PLACEMENT_3D ( 'NONE', #7, #36, #105 ) ;
#183 = PERSON_AND_ORGANIZATION ( #90, #178 ) ;
#184 = ORIENTED_EDGE ( 'NONE', *, *, #109, .T. ) ;
#185 = PERSON_AND_ORGANIZATION ( #90, #178 ) ;
#186 = MECHANICAL_CONTEXT ( 'NONE', #230, 'mechanical' ) ;
#187 = CC_DESIGN_APPROVAL ( #196, ( #175 ) ) ;
#188 = CC_DESIGN_PERSON_AND_ORGANIZATION_ASSIGNMENT ( #94, #45, ( #175 ) ) ;
#189 = DIRECTION ( 'NONE',  ( 0.000000000000000000, 0.000000000000000000, 1.000000000000000000 ) ) ;
#190 = AXIS2_PLACEMENT_3D ( 'NONE', #107, #179, #297 ) ;
#191 = APPROVAL_DATE_TIME ( #71, #196 ) ;
#192 = DIRECTION ( 'NONE',  ( -0.000000000000000000, -0.000000000000000000, -1.000000000000000000 ) ) ;
#193 = PERSON_AND_ORGANIZATION_ROLE ( 'classification_officer' ) ;
#194 = CARTESIAN_POINT ( 'NONE',  ( -0.6999999999999999556, 8.572527594031473190E-17, 1.199999999999999289 ) ) ;
#195 = CIRCLE ( 'NONE', #61, 1.250000000000000000 ) ;
#196 = APPROVAL ( #134, 'NEURÈENÝ' ) ;
#197 = ORIENTED_EDGE ( 'NONE', *, *, #284, .T. ) ;
#198 = CARTESIAN_POINT ( 'NONE',  ( 0.000000000000000000, 0.000000000000000000, 1.199999999999999956 ) ) ;
#199 = ADVANCED_FACE ( 'NONE', ( #129 ), #17, .F. ) ;
#200 = DIRECTION ( 'NONE',  ( -0.000000000000000000, -0.000000000000000000, -1.000000000000000000 ) ) ;
#201 = LOCAL_TIME ( 12, 25, 44.00000000000000000, #259 ) ;
#202 = CARTESIAN_POINT ( 'NONE',  ( 0.5000000000000000000, 6.123233995736766036E-17, 1.399999999999998579 ) ) ;
#203 = DIRECTION ( 'NONE',  ( 0.000000000000000000, 0.000000000000000000, 1.000000000000000000 ) ) ;
#204 = CARTESIAN_POINT ( 'NONE',  ( 0.000000000000000000, 0.000000000000000000, 101.2000000000000171 ) ) ;
#205 = LOCAL_TIME ( 12, 25, 44.00000000000000000, #67 ) ;
#206 = EDGE_CURVE ( 'NONE', #149, #238, #157, .T. ) ;
#207 = FACE_OUTER_BOUND ( 'NONE', #223, .T. ) ;
#208 = CARTESIAN_POINT ( 'NONE',  ( 0.000000000000000000, 0.000000000000000000, 0.000000000000000000 ) ) ;
#209 = COORDINATED_UNIVERSAL_TIME_OFFSET ( 1, 0, .AHEAD. ) ;
#210 = ORIENTED_EDGE ( 'NONE', *, *, #33, .F. ) ;
#211 = AXIS2_PLACEMENT_3D ( 'NONE', #151, #227, #301 ) ;
#212 = DATE_TIME_ROLE ( 'creation_date' ) ;
#213 = ADVANCED_FACE ( 'NONE', ( #275 ), #106, .T. ) ;
#214 = EDGE_LOOP ( 'NONE', ( #268, #295 ) ) ;
#215 = AXIS2_PLACEMENT_3D ( 'NONE', #289, #146, #170 ) ;
#216 = APPLICATION_PROTOCOL_DEFINITION ( 'international standard', 'config_control_design', 1994, #230 ) ;
#217 = CIRCLE ( 'NONE', #80, 0.6999999999999999556 ) ;
#218 = CARTESIAN_POINT ( 'NONE',  ( 0.5000000000000000000, 6.123233995736766036E-17, 101.2000000000000171 ) ) ;
#219 = EDGE_CURVE ( 'NONE', #119, #163, #29, .T. ) ;
#220 = ORIENTED_EDGE ( 'NONE', *, *, #41, .F. ) ;
#221 = LOCAL_TIME ( 12, 25, 44.00000000000000000, #209 ) ;
#222 = COORDINATED_UNIVERSAL_TIME_OFFSET ( 1, 0, .AHEAD. ) ;
#223 = EDGE_LOOP ( 'NONE', ( #293, #166 ) ) ;
#224 = ORIENTED_EDGE ( 'NONE', *, *, #117, .T. ) ;
#225 = EDGE_CURVE ( 'NONE', #149, #24, #133, .T. ) ;
#226 = DIRECTION ( 'NONE',  ( -1.000000000000000000, 0.000000000000000000, 0.000000000000000000 ) ) ;
#227 = DIRECTION ( 'NONE',  ( 0.000000000000000000, 0.000000000000000000, 1.000000000000000000 ) ) ;
#228 = VECTOR ( 'NONE', #16, 1000.000000000000000 ) ;
#229 = CARTESIAN_POINT ( 'NONE',  ( 0.000000000000000000, 0.000000000000000000, 1.199999999999999956 ) ) ;
#230 = APPLICATION_CONTEXT ( 'configuration controlled 3d designs of mechanical parts and assemblies' ) ;
#231 = DIRECTION ( 'NONE',  ( 0.000000000000000000, 0.000000000000000000, 1.000000000000000000 ) ) ;
#232 = MANIFOLD_SOLID_BREP ( 'Zaoblit1', #113 ) ;
#233 = DIRECTION ( 'NONE',  ( 0.000000000000000000, 0.000000000000000000, 1.000000000000000000 ) ) ;
#234 = CARTESIAN_POINT ( 'NONE',  ( 1.250000000000000000, 1.530808498934191571E-16, 1.199999999999999956 ) ) ;
#235 = EDGE_CURVE ( 'NONE', #238, #149, #195, .T. ) ;
#236 = APPLICATION_PROTOCOL_DEFINITION ( 'international standard', 'config_control_design', 1994, #159 ) ;
#237 = DATE_AND_TIME ( #303, #221 ) ;
#238 = VERTEX_POINT ( 'NONE', #234 ) ;
#239 = APPROVAL_STATUS ( 'not_yet_approved' ) ;
#240 = ORIENTED_EDGE ( 'NONE', *, *, #117, .F. ) ;
#241 = DIRECTION ( 'NONE',  ( 1.000000000000000000, 0.000000000000000000, 0.000000000000000000 ) ) ;
#242 = CC_DESIGN_SECURITY_CLASSIFICATION ( #162, ( #127 ) ) ;
#243 = ORIENTED_EDGE ( 'NONE', *, *, #92, .T. ) ;
#244 = FACE_OUTER_BOUND ( 'NONE', #304, .T. ) ;
#245 = DATE_AND_TIME ( #246, #278 ) ;
#246 = CALENDAR_DATE ( 2022, 20, 6 ) ;
#247 = ORIENTED_EDGE ( 'NONE', *, *, #219, .F. ) ;
#248 = EDGE_CURVE ( 'NONE', #44, #52, #258, .T. ) ;
#249 = DIRECTION ( 'NONE',  ( -1.000000000000000000, 0.000000000000000000, 0.000000000000000000 ) ) ;
#250 = PLANE ( 'NONE',  #182 ) ;
#251 = AXIS2_PLACEMENT_3D ( 'NONE', #208, #203, #84 ) ;
#252 = CARTESIAN_POINT ( 'NONE',  ( -0.5000000000000000000, 0.000000000000000000, 101.2000000000000171 ) ) ;
#253 = UNCERTAINTY_MEASURE_WITH_UNIT (LENGTH_MEASURE( 1.000000000000000082E-05 ), #141, 'distance_accuracy_value', 'NONE');
#254 = FACE_OUTER_BOUND ( 'NONE', #140, .T. ) ;
#255 = CARTESIAN_POINT ( 'NONE',  ( -1.250000000000000000, 0.000000000000000000, 1.199999999999999956 ) ) ;
#256 = CARTESIAN_POINT ( 'NONE',  ( 0.000000000000000000, 0.000000000000000000, 0.000000000000000000 ) ) ;
#257 = ADVANCED_FACE ( 'NONE', ( #65, #176 ), #250, .T. ) ;
#258 = CIRCLE ( 'NONE', #22, 0.1999999999999999833 ) ;
#259 = COORDINATED_UNIVERSAL_TIME_OFFSET ( 1, 0, .AHEAD. ) ;
#260 = DATE_AND_TIME ( #111, #201 ) ;
#261 = APPROVAL_PERSON_ORGANIZATION ( #74, #298, #264 ) ;
#262 = APPROVAL_ROLE ( '' ) ;
#263 = EDGE_LOOP ( 'NONE', ( #18, #116, #272, #220 ) ) ;
#264 = APPROVAL_ROLE ( '' ) ;
#265 = EDGE_LOOP ( 'NONE', ( #135, #76 ) ) ;
#266 = SECURITY_CLASSIFICATION_LEVEL ( 'unclassified' ) ;
#267 = AXIS2_PLACEMENT_3D ( 'NONE', #287, #137, #118 ) ;
#268 = ORIENTED_EDGE ( 'NONE', *, *, #169, .T. ) ;
#269 = COORDINATED_UNIVERSAL_TIME_OFFSET ( 1, 0, .AHEAD. ) ;
#270 = DIRECTION ( 'NONE',  ( 1.000000000000000000, 0.000000000000000000, 0.000000000000000000 ) ) ;
#271 = VERTEX_POINT ( 'NONE', #202 ) ;
#272 = ORIENTED_EDGE ( 'NONE', *, *, #86, .F. ) ;
#273 = VECTOR ( 'NONE', #89, 1000.000000000000000 ) ;
#274 = DIRECTION ( 'NONE',  ( 1.000000000000000000, 0.000000000000000000, 0.000000000000000000 ) ) ;
#275 = FACE_OUTER_BOUND ( 'NONE', #68, .T. ) ;
#276 = AXIS2_PLACEMENT_3D ( 'NONE', #25, #81, #274 ) ;
#277 = AXIS2_PLACEMENT_3D ( 'NONE', #12, #38, #108 ) ;
#278 = LOCAL_TIME ( 12, 25, 44.00000000000000000, #269 ) ;
#279 = CARTESIAN_POINT ( 'NONE',  ( -1.250000000000000000, 0.000000000000000000, 1.199999999999999956 ) ) ;
#280 = DIRECTION ( 'NONE',  ( 1.000000000000000000, 0.000000000000000000, 0.000000000000000000 ) ) ;
#281 = DIRECTION ( 'NONE',  ( 0.000000000000000000, 0.000000000000000000, 1.000000000000000000 ) ) ;
#282 = DIRECTION ( 'NONE',  ( -1.000000000000000000, 1.224646799147352714E-16, 0.000000000000000000 ) ) ;
#283 = PERSON_AND_ORGANIZATION_ROLE ( 'design_supplier' ) ;
#284 = EDGE_CURVE ( 'NONE', #163, #44, #58, .T. ) ;
#285 = ADVANCED_BREP_SHAPE_REPRESENTATION ( '09bb', ( #232, #3 ), #181 ) ;
#286 = ORIENTED_EDGE ( 'NONE', *, *, #142, .T. ) ;
#287 = CARTESIAN_POINT ( 'NONE',  ( 0.000000000000000000, 0.000000000000000000, 101.2000000000000171 ) ) ;
#288 = ADVANCED_FACE ( 'NONE', ( #305 ), #70, .T. ) ;
#289 = CARTESIAN_POINT ( 'NONE',  ( 0.6999999999999999556, 0.000000000000000000, 1.399999999999998579 ) ) ;
#290 = CARTESIAN_POINT ( 'NONE',  ( 0.000000000000000000, 0.000000000000000000, 1.399999999999998579 ) ) ;
#291 = CC_DESIGN_PERSON_AND_ORGANIZATION_ASSIGNMENT ( #185, #139, ( #127 ) ) ;
#292 = ORIENTED_EDGE ( 'NONE', *, *, #235, .F. ) ;
#293 = ORIENTED_EDGE ( 'NONE', *, *, #306, .F. ) ;
#294 = CIRCLE ( 'NONE', #251, 1.250000000000000000 ) ;
#295 = ORIENTED_EDGE ( 'NONE', *, *, #219, .T. ) ;
#296 = CIRCLE ( 'NONE', #211, 0.5000000000000000000 ) ;
#297 = DIRECTION ( 'NONE',  ( -1.000000000000000000, 0.000000000000000000, 0.000000000000000000 ) ) ;
#298 = APPROVAL ( #23, 'NEURÈENÝ' ) ;
#299 = DIRECTION ( 'NONE',  ( 0.000000000000000000, 0.000000000000000000, 1.000000000000000000 ) ) ;
#300 = DIRECTION ( 'NONE',  ( 0.000000000000000000, 0.000000000000000000, 1.000000000000000000 ) ) ;
#301 = DIRECTION ( 'NONE',  ( 1.000000000000000000, 0.000000000000000000, 0.000000000000000000 ) ) ;
#302 = CARTESIAN_POINT ( 'NONE',  ( 0.000000000000000000, 0.000000000000000000, 1.199999999999999956 ) ) ;
#303 = CALENDAR_DATE ( 2022, 20, 6 ) ;
#304 = EDGE_LOOP ( 'NONE', ( #240, #2, #160, #124 ) ) ;
#305 = FACE_OUTER_BOUND ( 'NONE', #214, .T. ) ;
#306 = EDGE_CURVE ( 'NONE', #24, #138, #128, .T. ) ;
#307 = DIRECTION ( 'NONE',  ( 1.000000000000000000, 0.000000000000000000, 0.000000000000000000 ) ) ;
ENDSEC;
END-ISO-10303-21;
