ISO-10303-21;
HEADER;
FILE_DESCRIPTION (( 'STEP AP203' ),
    '1' );
FILE_NAME ('9c0b.STEP',
    '2022-06-20T10:17:43',
    ( '' ),
    ( '' ),
    'SwSTEP 2.0',
    'SolidWorks 2019',
    '' );
FILE_SCHEMA (( 'CONFIG_CONTROL_DESIGN' ));
ENDSEC;

DATA;
#1 = CARTESIAN_POINT ( 'NONE',  ( 0.000000000000000000, 0.000000000000000000, 0.000000000000000000 ) ) ;
#2 = DIRECTION ( 'NONE',  ( 0.000000000000000000, 0.000000000000000000, 1.000000000000000000 ) ) ;
#3 = ORIENTED_EDGE ( 'NONE', *, *, #143, .T. ) ;
#4 = APPROVAL_STATUS ( 'not_yet_approved' ) ;
#5 = PERSON_AND_ORGANIZATION_ROLE ( 'design_owner' ) ;
#6 = PRODUCT_RELATED_PRODUCT_CATEGORY ( 'detail', '', ( #185 ) ) ;
#7 = PERSON_AND_ORGANIZATION ( #165, #270 ) ;
#8 = CC_DESIGN_APPROVAL ( #162, ( #124 ) ) ;
#9 = CC_DESIGN_APPROVAL ( #293, ( #24 ) ) ;
#10 = EDGE_CURVE ( 'NONE', #13, #103, #161, .T. ) ;
#11 = ORIENTED_EDGE ( 'NONE', *, *, #211, .F. ) ;
#12 = CARTESIAN_POINT ( 'NONE',  ( 2.500000000000000000, 3.061616997868383141E-16, 0.000000000000000000 ) ) ;
#13 = VERTEX_POINT ( 'NONE', #99 ) ;
#14 = FACE_OUTER_BOUND ( 'NONE', #30, .T. ) ;
#15 = CARTESIAN_POINT ( 'NONE',  ( 0.000000000000000000, 0.000000000000000000, 2.000000000000000000 ) ) ;
#16 = AXIS2_PLACEMENT_3D ( 'NONE', #193, #241, #191 ) ;
#17 = AXIS2_PLACEMENT_3D ( 'NONE', #225, #155, #109 ) ;
#18 = DIRECTION ( 'NONE',  ( 1.000000000000000000, 0.000000000000000000, 0.000000000000000000 ) ) ;
#19 = EDGE_CURVE ( 'NONE', #97, #38, #146, .T. ) ;
#20 = DIRECTION ( 'NONE',  ( -0.000000000000000000, -0.000000000000000000, -1.000000000000000000 ) ) ;
#21 = CARTESIAN_POINT ( 'NONE',  ( 1.250000000000000000, 1.530808498934191571E-16, 252.0000000000000000 ) ) ;
#22 = CIRCLE ( 'NONE', #205, 1.450000000000000178 ) ;
#23 = FACE_OUTER_BOUND ( 'NONE', #59, .T. ) ;
#24 = SECURITY_CLASSIFICATION ( '', '', #50 ) ;
#25 = APPROVAL_ROLE ( '' ) ;
#26 = CALENDAR_DATE ( 2022, 20, 6 ) ;
#27 = ORIENTED_EDGE ( 'NONE', *, *, #289, .T. ) ;
#28 = ADVANCED_FACE ( 'NONE', ( #172 ), #190, .T. ) ;
#29 = COORDINATED_UNIVERSAL_TIME_OFFSET ( 1, 0, .AHEAD. ) ;
#30 = EDGE_LOOP ( 'NONE', ( #91, #147, #35, #101 ) ) ;
#31 = PERSON_AND_ORGANIZATION_ROLE ( 'creator' ) ;
#32 = CLOSED_SHELL ( 'NONE', ( #207, #94, #28, #119, #279, #184, #34, #252, #271 ) ) ;
#33 = ORIENTED_EDGE ( 'NONE', *, *, #143, .F. ) ;
#34 = ADVANCED_FACE ( 'NONE', ( #14 ), #120, .T. ) ;
#35 = ORIENTED_EDGE ( 'NONE', *, *, #100, .T. ) ;
#36 = CARTESIAN_POINT ( 'NONE',  ( -1.250000000000000000, 0.000000000000000000, 252.0000000000000000 ) ) ;
#37 = CIRCLE ( 'NONE', #234, 2.500000000000000000 ) ;
#38 = VERTEX_POINT ( 'NONE', #12 ) ;
#39 = CARTESIAN_POINT ( 'NONE',  ( 0.000000000000000000, 0.000000000000000000, 2.200000000000007283 ) ) ;
#40 = CARTESIAN_POINT ( 'NONE',  ( 0.000000000000000000, 0.000000000000000000, 2.200000000000007283 ) ) ;
#41 = DIRECTION ( 'NONE',  ( 1.000000000000000000, 0.000000000000000000, 0.000000000000000000 ) ) ;
#42 = APPLICATION_CONTEXT ( 'configuration controlled 3d designs of mechanical parts and assemblies' ) ;
#43 = DIRECTION ( 'NONE',  ( -0.000000000000000000, -0.000000000000000000, -1.000000000000000000 ) ) ;
#44 = CARTESIAN_POINT ( 'NONE',  ( -2.500000000000000000, 0.000000000000000000, 2.000000000000000000 ) ) ;
#45 = PRODUCT_DEFINITION_FORMATION_WITH_SPECIFIED_SOURCE ( 'LIBOVOLNÝ', '', #185, .NOT_KNOWN. ) ;
#46 = CC_DESIGN_SECURITY_CLASSIFICATION ( #24, ( #45 ) ) ;
#47 = APPROVAL_DATE_TIME ( #257, #162 ) ;
#48 = ORIENTED_EDGE ( 'NONE', *, *, #10, .F. ) ;
#49 = ORIENTED_EDGE ( 'NONE', *, *, #197, .T. ) ;
#50 = SECURITY_CLASSIFICATION_LEVEL ( 'unclassified' ) ;
#51 = ORIENTED_EDGE ( 'NONE', *, *, #217, .F. ) ;
#52 = DATE_AND_TIME ( #188, #235 ) ;
#53 = EDGE_CURVE ( 'NONE', #233, #142, #22, .T. ) ;
#54 = CARTESIAN_POINT ( 'NONE',  ( 2.500000000000000000, 3.061616997868383141E-16, 2.000000000000000000 ) ) ;
#55 = ORIENTED_EDGE ( 'NONE', *, *, #151, .F. ) ;
#56 = DIRECTION ( 'NONE',  ( 0.000000000000000000, 0.000000000000000000, 1.000000000000000000 ) ) ;
#57 = ORIENTED_EDGE ( 'NONE', *, *, #267, .F. ) ;
#58 = CIRCLE ( 'NONE', #244, 2.500000000000000000 ) ;
#59 = EDGE_LOOP ( 'NONE', ( #73, #266 ) ) ;
#60 = DIRECTION ( 'NONE',  ( 0.000000000000000000, 0.000000000000000000, 1.000000000000000000 ) ) ;
#61 = DIRECTION ( 'NONE',  ( 1.000000000000000000, 0.000000000000000000, -0.000000000000000000 ) ) ;
#62 = DIRECTION ( 'NONE',  ( 0.000000000000000000, -1.000000000000000000, 0.000000000000000000 ) ) ;
#63 = DIRECTION ( 'NONE',  ( 1.000000000000000000, 0.000000000000000000, 0.000000000000000000 ) ) ;
#64 = EDGE_CURVE ( 'NONE', #136, #13, #169, .T. ) ;
#65 = DIRECTION ( 'NONE',  ( 1.000000000000000000, 0.000000000000000000, 0.000000000000000000 ) ) ;
#66 = SHAPE_DEFINITION_REPRESENTATION ( #240, #83 ) ;
#67 = PERSON_AND_ORGANIZATION ( #165, #270 ) ;
#68 = MECHANICAL_CONTEXT ( 'NONE', #42, 'mechanical' ) ;
#69 = PERSON_AND_ORGANIZATION ( #165, #270 ) ;
#70 = VERTEX_POINT ( 'NONE', #54 ) ;
#71 = DIRECTION ( 'NONE',  ( 1.000000000000000000, 0.000000000000000000, 0.000000000000000000 ) ) ;
#72 = APPROVAL_ROLE ( '' ) ;
#73 = ORIENTED_EDGE ( 'NONE', *, *, #19, .F. ) ;
#74 = CIRCLE ( 'NONE', #259, 1.250000000000000000 ) ;
#75 = DIRECTION ( 'NONE',  ( -1.000000000000000000, 0.000000000000000000, 0.000000000000000000 ) ) ;
#76 = AXIS2_PLACEMENT_3D ( 'NONE', #82, #86, #253 ) ;
#77 = CARTESIAN_POINT ( 'NONE',  ( 0.000000000000000000, 0.000000000000000000, 2.000000000000000000 ) ) ;
#78 = DIRECTION ( 'NONE',  ( -0.000000000000000000, -0.000000000000000000, -1.000000000000000000 ) ) ;
#79 = ORIENTED_EDGE ( 'NONE', *, *, #19, .T. ) ;
#80 = AXIS2_PLACEMENT_3D ( 'NONE', #277, #106, #305 ) ;
#81 = CARTESIAN_POINT ( 'NONE',  ( 0.000000000000000000, 0.000000000000000000, 2.200000000000007283 ) ) ;
#82 = CARTESIAN_POINT ( 'NONE',  ( 0.000000000000000000, 0.000000000000000000, 2.200000000000007283 ) ) ;
#83 = ADVANCED_BREP_SHAPE_REPRESENTATION ( '9c0b', ( #98, #96 ), #299 ) ;
#84 = DIRECTION ( 'NONE',  ( 0.000000000000000000, 0.000000000000000000, 1.000000000000000000 ) ) ;
#85 = VECTOR ( 'NONE', #303, 1000.000000000000000 ) ;
#86 = DIRECTION ( 'NONE',  ( 0.000000000000000000, 0.000000000000000000, 1.000000000000000000 ) ) ;
#87 = APPROVAL ( #4, 'NEURÈENÝ' ) ;
#88 = LINE ( 'NONE', #179, #163 ) ;
#89 = APPROVAL_STATUS ( 'not_yet_approved' ) ;
#90 = AXIS2_PLACEMENT_3D ( 'NONE', #40, #126, #65 ) ;
#91 = ORIENTED_EDGE ( 'NONE', *, *, #64, .F. ) ;
#92 = CALENDAR_DATE ( 2022, 20, 6 ) ;
#93 = CALENDAR_DATE ( 2022, 20, 6 ) ;
#94 = ADVANCED_FACE ( 'NONE', ( #192 ), #239, .T. ) ;
#95 = CARTESIAN_POINT ( 'NONE',  ( 0.000000000000000000, 0.000000000000000000, 0.000000000000000000 ) ) ;
#96 = AXIS2_PLACEMENT_3D ( 'NONE', #1, #2, #182 ) ;
#97 = VERTEX_POINT ( 'NONE', #268 ) ;
#98 = MANIFOLD_SOLID_BREP ( 'Zaoblit1', #32 ) ;
#99 = CARTESIAN_POINT ( 'NONE',  ( 1.250000000000000000, 1.530808498934191571E-16, 2.200000000000007283 ) ) ;
#100 = EDGE_CURVE ( 'NONE', #157, #103, #145, .T. ) ;
#101 = ORIENTED_EDGE ( 'NONE', *, *, #217, .T. ) ;
#102 = TOROIDAL_SURFACE ( 'NONE', #181, 1.450000000000000178, 0.2000000000000000111 ) ;
#103 = VERTEX_POINT ( 'NONE', #173 ) ;
#104 = DIRECTION ( 'NONE',  ( -0.000000000000000000, -0.000000000000000000, -1.000000000000000000 ) ) ;
#105 = CC_DESIGN_PERSON_AND_ORGANIZATION_ASSIGNMENT ( #7, #210, ( #45 ) ) ;
#106 = DIRECTION ( 'NONE',  ( 0.000000000000000000, 0.000000000000000000, 1.000000000000000000 ) ) ;
#107 = DIRECTION ( 'NONE',  ( 0.000000000000000000, 0.000000000000000000, 1.000000000000000000 ) ) ;
#108 = FACE_BOUND ( 'NONE', #246, .T. ) ;
#109 = DIRECTION ( 'NONE',  ( -1.000000000000000000, 1.224646799147353207E-16, 0.000000000000000000 ) ) ;
#110 = TOROIDAL_SURFACE ( 'NONE', #76, 1.450000000000000178, 0.2000000000000000111 ) ;
#111 = CARTESIAN_POINT ( 'NONE',  ( 1.450000000000000178, 0.000000000000000000, 2.200000000000007283 ) ) ;
#112 = APPROVAL_DATE_TIME ( #159, #293 ) ;
#113 = DATE_TIME_ROLE ( 'classification_date' ) ;
#114 = AXIS2_PLACEMENT_3D ( 'NONE', #222, #84, #61 ) ;
#115 = DATE_AND_TIME ( #26, #174 ) ;
#116 = ORIENTED_EDGE ( 'NONE', *, *, #237, .F. ) ;
#117 = APPLICATION_PROTOCOL_DEFINITION ( 'international standard', 'config_control_design', 1994, #42 ) ;
#118 = PERSON_AND_ORGANIZATION_ROLE ( 'classification_officer' ) ;
#119 = ADVANCED_FACE ( 'NONE', ( #269 ), #129, .T. ) ;
#120 = CYLINDRICAL_SURFACE ( 'NONE', #16, 1.250000000000000000 ) ;
#121 = EDGE_LOOP ( 'NONE', ( #160, #287, #27, #55 ) ) ;
#122 = DIRECTION ( 'NONE',  ( -0.000000000000000000, -0.000000000000000000, -1.000000000000000000 ) ) ;
#123 = EDGE_LOOP ( 'NONE', ( #116, #48, #49, #171 ) ) ;
#124 = PRODUCT_DEFINITION ( 'NEZNÁMÝ', '', #45, #158 ) ;
#125 = EDGE_LOOP ( 'NONE', ( #11, #297, #230, #255 ) ) ;
#126 = DIRECTION ( 'NONE',  ( 0.000000000000000000, 0.000000000000000000, 1.000000000000000000 ) ) ;
#127 = DIRECTION ( 'NONE',  ( 1.000000000000000000, 0.000000000000000000, 0.000000000000000000 ) ) ;
#128 = CARTESIAN_POINT ( 'NONE',  ( 0.000000000000000000, 0.000000000000000000, 252.0000000000000000 ) ) ;
#129 = CYLINDRICAL_SURFACE ( 'NONE', #249, 2.500000000000000000 ) ;
#130 = VECTOR ( 'NONE', #122, 1000.000000000000000 ) ;
#131 = AXIS2_PLACEMENT_3D ( 'NONE', #132, #43, #18 ) ;
#132 = CARTESIAN_POINT ( 'NONE',  ( 0.000000000000000000, 0.000000000000000000, 2.000000000000000000 ) ) ;
#133 = EDGE_CURVE ( 'NONE', #157, #136, #74, .T. ) ;
#134 = PERSON_AND_ORGANIZATION ( #165, #270 ) ;
#135 =( NAMED_UNIT ( * ) SI_UNIT ( $, .STERADIAN. ) SOLID_ANGLE_UNIT ( ) );
#136 = VERTEX_POINT ( 'NONE', #21 ) ;
#137 = ORIENTED_EDGE ( 'NONE', *, *, #197, .F. ) ;
#138 = PERSON_AND_ORGANIZATION ( #165, #270 ) ;
#139 = APPROVAL_STATUS ( 'not_yet_approved' ) ;
#140 = EDGE_LOOP ( 'NONE', ( #291, #285 ) ) ;
#141 = CIRCLE ( 'NONE', #17, 0.2000000000000000944 ) ;
#142 = VERTEX_POINT ( 'NONE', #149 ) ;
#143 = EDGE_CURVE ( 'NONE', #142, #233, #187, .T. ) ;
#144 = DIRECTION ( 'NONE',  ( -1.000000000000000000, 0.000000000000000000, 0.000000000000000000 ) ) ;
#145 = LINE ( 'NONE', #36, #130 ) ;
#146 = CIRCLE ( 'NONE', #238, 2.500000000000000000 ) ;
#147 = ORIENTED_EDGE ( 'NONE', *, *, #133, .F. ) ;
#148 = EDGE_LOOP ( 'NONE', ( #51, #215, #33, #137 ) ) ;
#149 = CARTESIAN_POINT ( 'NONE',  ( 1.450000000000000178, 0.000000000000000000, 2.000000000000003553 ) ) ;
#150 = DIRECTION ( 'NONE',  ( 0.000000000000000000, 0.000000000000000000, 1.000000000000000000 ) ) ;
#151 = EDGE_CURVE ( 'NONE', #245, #97, #224, .T. ) ;
#152 = DIRECTION ( 'NONE',  ( 1.000000000000000000, 0.000000000000000000, 0.000000000000000000 ) ) ;
#153 = DIRECTION ( 'NONE',  ( 0.000000000000000000, 0.000000000000000000, -1.000000000000000000 ) ) ;
#154 = CC_DESIGN_PERSON_AND_ORGANIZATION_ASSIGNMENT ( #69, #5, ( #185 ) ) ;
#155 = DIRECTION ( 'NONE',  ( 1.224646799147353207E-16, 1.000000000000000000, -0.000000000000000000 ) ) ;
#156 =( LENGTH_UNIT ( ) NAMED_UNIT ( * ) SI_UNIT ( .MILLI., .METRE. ) );
#157 = VERTEX_POINT ( 'NONE', #178 ) ;
#158 = DESIGN_CONTEXT ( 'detailed design', #306, 'design' ) ;
#159 = DATE_AND_TIME ( #92, #228 ) ;
#160 = ORIENTED_EDGE ( 'NONE', *, *, #189, .F. ) ;
#161 = CIRCLE ( 'NONE', #170, 1.250000000000000000 ) ;
#162 = APPROVAL ( #139, 'NEURÈENÝ' ) ;
#163 = VECTOR ( 'NONE', #20, 1000.000000000000000 ) ;
#164 = PERSON_AND_ORGANIZATION_ROLE ( 'creator' ) ;
#165 = PERSON ( 'NEURÈENÝ', 'NEURÈENÝ', 'NEURÈENÝ', ('NEURÈENÝ'), ('NEURÈENÝ'), ('NEURÈENÝ') ) ;
#166 = EDGE_LOOP ( 'NONE', ( #57, #263, #209, #79 ) ) ;
#167 = COORDINATED_UNIVERSAL_TIME_OFFSET ( 1, 0, .AHEAD. ) ;
#168 = ORIENTED_EDGE ( 'NONE', *, *, #189, .T. ) ;
#169 = LINE ( 'NONE', #264, #216 ) ;
#170 = AXIS2_PLACEMENT_3D ( 'NONE', #39, #56, #218 ) ;
#171 = ORIENTED_EDGE ( 'NONE', *, *, #53, .F. ) ;
#172 = FACE_OUTER_BOUND ( 'NONE', #121, .T. ) ;
#173 = CARTESIAN_POINT ( 'NONE',  ( -1.250000000000000000, 0.000000000000000000, 2.200000000000007283 ) ) ;
#174 = LOCAL_TIME ( 12, 17, 43.00000000000000000, #232 ) ;
#175 = CARTESIAN_POINT ( 'NONE',  ( 0.000000000000000000, 0.000000000000000000, 2.000000000000000000 ) ) ;
#176 = CARTESIAN_POINT ( 'NONE',  ( 0.000000000000000000, 0.000000000000000000, 2.000000000000000000 ) ) ;
#177 = AXIS2_PLACEMENT_3D ( 'NONE', #214, #294, #75 ) ;
#178 = CARTESIAN_POINT ( 'NONE',  ( -1.250000000000000000, 0.000000000000000000, 252.0000000000000000 ) ) ;
#179 = CARTESIAN_POINT ( 'NONE',  ( 2.500000000000000000, 3.061616997868383141E-16, 2.000000000000000000 ) ) ;
#180 = PERSON_AND_ORGANIZATION ( #165, #270 ) ;
#181 = AXIS2_PLACEMENT_3D ( 'NONE', #81, #250, #41 ) ;
#182 = DIRECTION ( 'NONE',  ( 1.000000000000000000, 0.000000000000000000, 0.000000000000000000 ) ) ;
#183 = COORDINATED_UNIVERSAL_TIME_OFFSET ( 1, 0, .AHEAD. ) ;
#184 = ADVANCED_FACE ( 'NONE', ( #23 ), #229, .F. ) ;
#185 = PRODUCT ( '9c0b', '9c0b', '', ( #68 ) ) ;
#186 = PERSON_AND_ORGANIZATION ( #165, #270 ) ;
#187 = CIRCLE ( 'NONE', #131, 1.450000000000000178 ) ;
#188 = CALENDAR_DATE ( 2022, 20, 6 ) ;
#189 = EDGE_CURVE ( 'NONE', #70, #245, #58, .T. ) ;
#190 = CYLINDRICAL_SURFACE ( 'NONE', #281, 2.500000000000000000 ) ;
#191 = DIRECTION ( 'NONE',  ( -1.000000000000000000, 0.000000000000000000, 0.000000000000000000 ) ) ;
#192 = FACE_OUTER_BOUND ( 'NONE', #125, .T. ) ;
#193 = CARTESIAN_POINT ( 'NONE',  ( 0.000000000000000000, 0.000000000000000000, 252.0000000000000000 ) ) ;
#194 = FACE_OUTER_BOUND ( 'NONE', #123, .T. ) ;
#195 = CIRCLE ( 'NONE', #283, 0.2000000000000000944 ) ;
#196 = LOCAL_TIME ( 12, 17, 43.00000000000000000, #183 ) ;
#197 = EDGE_CURVE ( 'NONE', #13, #142, #195, .T. ) ;
#198 = CARTESIAN_POINT ( 'NONE',  ( 0.000000000000000000, 0.000000000000000000, 2.000000000000000000 ) ) ;
#199 = COORDINATED_UNIVERSAL_TIME_OFFSET ( 1, 0, .AHEAD. ) ;
#200 = FACE_OUTER_BOUND ( 'NONE', #140, .T. ) ;
#201 = CARTESIAN_POINT ( 'NONE',  ( 0.000000000000000000, 0.000000000000000000, 252.0000000000000000 ) ) ;
#202 = APPROVAL_PERSON_ORGANIZATION ( #134, #87, #72 ) ;
#203 = PLANE ( 'NONE',  #80 ) ;
#204 = PERSON_AND_ORGANIZATION ( #165, #270 ) ;
#205 = AXIS2_PLACEMENT_3D ( 'NONE', #77, #292, #296 ) ;
#206 = ORIENTED_EDGE ( 'NONE', *, *, #53, .T. ) ;
#207 = ADVANCED_FACE ( 'NONE', ( #248 ), #110, .F. ) ;
#208 = DATE_TIME_ROLE ( 'creation_date' ) ;
#209 = ORIENTED_EDGE ( 'NONE', *, *, #151, .T. ) ;
#210 = PERSON_AND_ORGANIZATION_ROLE ( 'design_supplier' ) ;
#211 = EDGE_CURVE ( 'NONE', #136, #157, #282, .T. ) ;
#212 = LOCAL_TIME ( 12, 17, 43.00000000000000000, #29 ) ;
#213 = UNCERTAINTY_MEASURE_WITH_UNIT (LENGTH_MEASURE( 1.000000000000000082E-05 ), #156, 'distance_accuracy_value', 'NONE');
#214 = CARTESIAN_POINT ( 'NONE',  ( 0.000000000000000000, 0.000000000000000000, 252.0000000000000000 ) ) ;
#215 = ORIENTED_EDGE ( 'NONE', *, *, #237, .T. ) ;
#216 = VECTOR ( 'NONE', #104, 1000.000000000000000 ) ;
#217 = EDGE_CURVE ( 'NONE', #103, #13, #221, .T. ) ;
#218 = DIRECTION ( 'NONE',  ( 1.000000000000000000, 0.000000000000000000, 0.000000000000000000 ) ) ;
#219 = DIRECTION ( 'NONE',  ( 1.000000000000000000, 0.000000000000000000, 0.000000000000000000 ) ) ;
#220 = EDGE_CURVE ( 'NONE', #245, #70, #37, .T. ) ;
#221 = CIRCLE ( 'NONE', #90, 1.250000000000000000 ) ;
#222 = CARTESIAN_POINT ( 'NONE',  ( 0.000000000000000000, 0.000000000000000000, 0.000000000000000000 ) ) ;
#223 = APPROVAL_ROLE ( '' ) ;
#224 = LINE ( 'NONE', #44, #85 ) ;
#225 = CARTESIAN_POINT ( 'NONE',  ( -1.450000000000000178, 1.775737858763662163E-16, 2.200000000000007283 ) ) ;
#226 = DIRECTION ( 'NONE',  ( -1.000000000000000000, 0.000000000000000000, 0.000000000000000000 ) ) ;
#227 = CIRCLE ( 'NONE', #288, 2.500000000000000000 ) ;
#228 = LOCAL_TIME ( 12, 17, 43.00000000000000000, #199 ) ;
#229 = PLANE ( 'NONE',  #114 ) ;
#230 = ORIENTED_EDGE ( 'NONE', *, *, #10, .T. ) ;
#231 = CC_DESIGN_DATE_AND_TIME_ASSIGNMENT ( #115, #208, ( #124 ) ) ;
#232 = COORDINATED_UNIVERSAL_TIME_OFFSET ( 1, 0, .AHEAD. ) ;
#233 = VERTEX_POINT ( 'NONE', #301 ) ;
#234 = AXIS2_PLACEMENT_3D ( 'NONE', #198, #150, #63 ) ;
#235 = LOCAL_TIME ( 12, 17, 43.00000000000000000, #167 ) ;
#236 = APPLICATION_PROTOCOL_DEFINITION ( 'international standard', 'config_control_design', 1994, #306 ) ;
#237 = EDGE_CURVE ( 'NONE', #103, #233, #141, .T. ) ;
#238 = AXIS2_PLACEMENT_3D ( 'NONE', #298, #243, #219 ) ;
#239 = CYLINDRICAL_SURFACE ( 'NONE', #177, 1.250000000000000000 ) ;
#240 = PRODUCT_DEFINITION_SHAPE ( 'NONE', 'NONE',  #124 ) ;
#241 = DIRECTION ( 'NONE',  ( -0.000000000000000000, -0.000000000000000000, -1.000000000000000000 ) ) ;
#242 = CC_DESIGN_DATE_AND_TIME_ASSIGNMENT ( #52, #113, ( #24 ) ) ;
#243 = DIRECTION ( 'NONE',  ( 0.000000000000000000, 0.000000000000000000, 1.000000000000000000 ) ) ;
#244 = AXIS2_PLACEMENT_3D ( 'NONE', #251, #276, #127 ) ;
#245 = VERTEX_POINT ( 'NONE', #254 ) ;
#246 = EDGE_LOOP ( 'NONE', ( #3, #206 ) ) ;
#247 = CC_DESIGN_PERSON_AND_ORGANIZATION_ASSIGNMENT ( #138, #118, ( #24 ) ) ;
#248 = FACE_OUTER_BOUND ( 'NONE', #148, .T. ) ;
#249 = AXIS2_PLACEMENT_3D ( 'NONE', #176, #278, #226 ) ;
#250 = DIRECTION ( 'NONE',  ( 0.000000000000000000, 0.000000000000000000, 1.000000000000000000 ) ) ;
#251 = CARTESIAN_POINT ( 'NONE',  ( 0.000000000000000000, 0.000000000000000000, 2.000000000000000000 ) ) ;
#252 = ADVANCED_FACE ( 'NONE', ( #200 ), #203, .T. ) ;
#253 = DIRECTION ( 'NONE',  ( 1.000000000000000000, 0.000000000000000000, 0.000000000000000000 ) ) ;
#254 = CARTESIAN_POINT ( 'NONE',  ( -2.500000000000000000, 0.000000000000000000, 2.000000000000000000 ) ) ;
#255 = ORIENTED_EDGE ( 'NONE', *, *, #100, .F. ) ;
#256 = CC_DESIGN_PERSON_AND_ORGANIZATION_ASSIGNMENT ( #186, #31, ( #124 ) ) ;
#257 = DATE_AND_TIME ( #93, #212 ) ;
#258 =( NAMED_UNIT ( * ) PLANE_ANGLE_UNIT ( ) SI_UNIT ( $, .RADIAN. ) );
#259 = AXIS2_PLACEMENT_3D ( 'NONE', #201, #60, #274 ) ;
#260 = APPROVAL_PERSON_ORGANIZATION ( #67, #162, #25 ) ;
#261 = CALENDAR_DATE ( 2022, 20, 6 ) ;
#262 = EDGE_LOOP ( 'NONE', ( #272, #168 ) ) ;
#263 = ORIENTED_EDGE ( 'NONE', *, *, #220, .F. ) ;
#264 = CARTESIAN_POINT ( 'NONE',  ( 1.250000000000000000, 1.530808498934191571E-16, 252.0000000000000000 ) ) ;
#265 = CC_DESIGN_APPROVAL ( #87, ( #45 ) ) ;
#266 = ORIENTED_EDGE ( 'NONE', *, *, #289, .F. ) ;
#267 = EDGE_CURVE ( 'NONE', #70, #38, #88, .T. ) ;
#268 = CARTESIAN_POINT ( 'NONE',  ( -2.500000000000000000, 0.000000000000000000, 0.000000000000000000 ) ) ;
#269 = FACE_OUTER_BOUND ( 'NONE', #166, .T. ) ;
#270 = ORGANIZATION ( 'NEURÈENÝ', 'NEURÈENÝ', '' ) ;
#271 = ADVANCED_FACE ( 'NONE', ( #194 ), #102, .F. ) ;
#272 = ORIENTED_EDGE ( 'NONE', *, *, #220, .T. ) ;
#273 = DIRECTION ( 'NONE',  ( 0.000000000000000000, 0.000000000000000000, 1.000000000000000000 ) ) ;
#274 = DIRECTION ( 'NONE',  ( 1.000000000000000000, 0.000000000000000000, 0.000000000000000000 ) ) ;
#275 = AXIS2_PLACEMENT_3D ( 'NONE', #175, #273, #290 ) ;
#276 = DIRECTION ( 'NONE',  ( 0.000000000000000000, 0.000000000000000000, 1.000000000000000000 ) ) ;
#277 = CARTESIAN_POINT ( 'NONE',  ( 0.000000000000000000, 0.000000000000000000, 252.0000000000000000 ) ) ;
#278 = DIRECTION ( 'NONE',  ( -0.000000000000000000, -0.000000000000000000, -1.000000000000000000 ) ) ;
#279 = ADVANCED_FACE ( 'NONE', ( #108, #302 ), #300, .T. ) ;
#280 = DIRECTION ( 'NONE',  ( 0.000000000000000000, 0.000000000000000000, 1.000000000000000000 ) ) ;
#281 = AXIS2_PLACEMENT_3D ( 'NONE', #15, #78, #144 ) ;
#282 = CIRCLE ( 'NONE', #295, 1.250000000000000000 ) ;
#283 = AXIS2_PLACEMENT_3D ( 'NONE', #111, #62, #153 ) ;
#284 = APPROVAL_DATE_TIME ( #286, #87 ) ;
#285 = ORIENTED_EDGE ( 'NONE', *, *, #211, .T. ) ;
#286 = DATE_AND_TIME ( #261, #196 ) ;
#287 = ORIENTED_EDGE ( 'NONE', *, *, #267, .T. ) ;
#288 = AXIS2_PLACEMENT_3D ( 'NONE', #95, #280, #71 ) ;
#289 = EDGE_CURVE ( 'NONE', #38, #97, #227, .T. ) ;
#290 = DIRECTION ( 'NONE',  ( 1.000000000000000000, 0.000000000000000000, -0.000000000000000000 ) ) ;
#291 = ORIENTED_EDGE ( 'NONE', *, *, #133, .T. ) ;
#292 = DIRECTION ( 'NONE',  ( -0.000000000000000000, -0.000000000000000000, -1.000000000000000000 ) ) ;
#293 = APPROVAL ( #89, 'NEURÈENÝ' ) ;
#294 = DIRECTION ( 'NONE',  ( -0.000000000000000000, -0.000000000000000000, -1.000000000000000000 ) ) ;
#295 = AXIS2_PLACEMENT_3D ( 'NONE', #128, #107, #152 ) ;
#296 = DIRECTION ( 'NONE',  ( 1.000000000000000000, 0.000000000000000000, 0.000000000000000000 ) ) ;
#297 = ORIENTED_EDGE ( 'NONE', *, *, #64, .T. ) ;
#298 = CARTESIAN_POINT ( 'NONE',  ( 0.000000000000000000, 0.000000000000000000, 0.000000000000000000 ) ) ;
#299 =( GEOMETRIC_REPRESENTATION_CONTEXT ( 3 ) GLOBAL_UNCERTAINTY_ASSIGNED_CONTEXT ( ( #213 ) ) GLOBAL_UNIT_ASSIGNED_CONTEXT ( ( #156, #258, #135 ) ) REPRESENTATION_CONTEXT ( 'NONE', 'WORKASPACE' ) );
#300 = PLANE ( 'NONE',  #275 ) ;
#301 = CARTESIAN_POINT ( 'NONE',  ( -1.450000000000000178, 1.775737858763662409E-16, 2.000000000000003553 ) ) ;
#302 = FACE_OUTER_BOUND ( 'NONE', #262, .T. ) ;
#303 = DIRECTION ( 'NONE',  ( -0.000000000000000000, -0.000000000000000000, -1.000000000000000000 ) ) ;
#304 = APPROVAL_PERSON_ORGANIZATION ( #204, #293, #223 ) ;
#305 = DIRECTION ( 'NONE',  ( 1.000000000000000000, 0.000000000000000000, -0.000000000000000000 ) ) ;
#306 = APPLICATION_CONTEXT ( 'configuration controlled 3d designs of mechanical parts and assemblies' ) ;
#307 = CC_DESIGN_PERSON_AND_ORGANIZATION_ASSIGNMENT ( #180, #164, ( #45 ) ) ;
ENDSEC;
END-ISO-10303-21;
