ISO-10303-21;
HEADER;
FILE_DESCRIPTION (( 'STEP AP203' ),
    '1' );
FILE_NAME ('259b.STEP',
    '2022-06-20T10:06:32',
    ( '' ),
    ( '' ),
    'SwSTEP 2.0',
    'SolidWorks 2019',
    '' );
FILE_SCHEMA (( 'CONFIG_CONTROL_DESIGN' ));
ENDSEC;

DATA;
#1 = ORIENTED_EDGE ( 'NONE', *, *, #128, .F. ) ;
#2 = CIRCLE ( 'NONE', #66, 4.000000000000000000 ) ;
#3 = VERTEX_POINT ( 'NONE', #95 ) ;
#4 = EDGE_LOOP ( 'NONE', ( #190, #215, #50, #32 ) ) ;
#5 = VERTEX_POINT ( 'NONE', #188 ) ;
#6 = ADVANCED_FACE ( 'NONE', ( #261 ), #286, .F. ) ;
#7 = APPROVAL_ROLE ( '' ) ;
#8 = ORIENTED_EDGE ( 'NONE', *, *, #197, .F. ) ;
#9 = AXIS2_PLACEMENT_3D ( 'NONE', #179, #60, #106 ) ;
#10 = DIRECTION ( 'NONE',  ( 0.000000000000000000, 0.000000000000000000, 1.000000000000000000 ) ) ;
#11 = DIRECTION ( 'NONE',  ( 1.000000000000000000, 0.000000000000000000, 0.000000000000000000 ) ) ;
#12 = EDGE_CURVE ( 'NONE', #172, #5, #210, .T. ) ;
#13 = AXIS2_PLACEMENT_3D ( 'NONE', #263, #142, #48 ) ;
#14 = CYLINDRICAL_SURFACE ( 'NONE', #116, 4.000000000000000000 ) ;
#15 = TOROIDAL_SURFACE ( 'NONE', #159, 2.300000000000000266, 0.2000000000000000111 ) ;
#16 = AXIS2_PLACEMENT_3D ( 'NONE', #109, #87, #126 ) ;
#17 = CARTESIAN_POINT ( 'NONE',  ( -2.300000000000000266, 2.816687638038912549E-16, 2.999999999999990674 ) ) ;
#18 = CYLINDRICAL_SURFACE ( 'NONE', #163, 4.000000000000000000 ) ;
#19 = APPLICATION_PROTOCOL_DEFINITION ( 'international standard', 'config_control_design', 1994, #258 ) ;
#20 = TOROIDAL_SURFACE ( 'NONE', #283, 2.300000000000000266, 0.2000000000000000111 ) ;
#21 = AXIS2_PLACEMENT_3D ( 'NONE', #23, #209, #280 ) ;
#22 = APPROVAL_ROLE ( '' ) ;
#23 = CARTESIAN_POINT ( 'NONE',  ( 0.000000000000000000, 0.000000000000000000, 1002.999999999999886 ) ) ;
#24 = EDGE_CURVE ( 'NONE', #167, #242, #237, .T. ) ;
#25 = EDGE_CURVE ( 'NONE', #97, #264, #2, .T. ) ;
#26 = PLANE ( 'NONE',  #129 ) ;
#27 = ORIENTED_EDGE ( 'NONE', *, *, #243, .F. ) ;
#28 = ORIENTED_EDGE ( 'NONE', *, *, #128, .T. ) ;
#29 = CARTESIAN_POINT ( 'NONE',  ( -2.100000000000000089, 0.000000000000000000, 1002.999999999999886 ) ) ;
#30 = DATE_AND_TIME ( #239, #149 ) ;
#31 = EDGE_LOOP ( 'NONE', ( #241, #219, #165, #28 ) ) ;
#32 = ORIENTED_EDGE ( 'NONE', *, *, #202, .F. ) ;
#33 = EDGE_CURVE ( 'NONE', #264, #97, #194, .T. ) ;
#34 = AXIS2_PLACEMENT_3D ( 'NONE', #104, #277, #41 ) ;
#35 = CARTESIAN_POINT ( 'NONE',  ( 4.000000000000000000, 4.898587196589412829E-16, 3.000000000000000000 ) ) ;
#36 = VECTOR ( 'NONE', #226, 1000.000000000000000 ) ;
#37 = ADVANCED_FACE ( 'NONE', ( #176 ), #15, .F. ) ;
#38 = CARTESIAN_POINT ( 'NONE',  ( 0.000000000000000000, 0.000000000000000000, 3.000000000000000000 ) ) ;
#39 = DIRECTION ( 'NONE',  ( -1.000000000000000000, 0.000000000000000000, 0.000000000000000000 ) ) ;
#40 = DIRECTION ( 'NONE',  ( 0.000000000000000000, 0.000000000000000000, 1.000000000000000000 ) ) ;
#41 = DIRECTION ( 'NONE',  ( 1.000000000000000000, 0.000000000000000000, 0.000000000000000000 ) ) ;
#42 = PERSON_AND_ORGANIZATION_ROLE ( 'design_owner' ) ;
#43 = EDGE_LOOP ( 'NONE', ( #57, #117, #216, #146 ) ) ;
#44 = PRODUCT_DEFINITION_SHAPE ( 'NONE', 'NONE',  #156 ) ;
#45 = APPROVAL_ROLE ( '' ) ;
#46 = CIRCLE ( 'NONE', #9, 4.000000000000000000 ) ;
#47 = CC_DESIGN_DATE_AND_TIME_ASSIGNMENT ( #207, #304, ( #156 ) ) ;
#48 = DIRECTION ( 'NONE',  ( 1.000000000000000000, 0.000000000000000000, 0.000000000000000000 ) ) ;
#49 = APPROVAL_DATE_TIME ( #30, #290 ) ;
#50 = ORIENTED_EDGE ( 'NONE', *, *, #25, .T. ) ;
#51 = APPROVAL_STATUS ( 'not_yet_approved' ) ;
#52 = ORIENTED_EDGE ( 'NONE', *, *, #33, .F. ) ;
#53 = VECTOR ( 'NONE', #222, 1000.000000000000000 ) ;
#54 = PERSON_AND_ORGANIZATION ( #56, #173 ) ;
#55 = DIRECTION ( 'NONE',  ( 1.000000000000000000, 0.000000000000000000, 0.000000000000000000 ) ) ;
#56 = PERSON ( 'NEURÈENÝ', 'NEURÈENÝ', 'NEURÈENÝ', ('NEURÈENÝ'), ('NEURÈENÝ'), ('NEURÈENÝ') ) ;
#57 = ORIENTED_EDGE ( 'NONE', *, *, #240, .F. ) ;
#58 = DIRECTION ( 'NONE',  ( 1.000000000000000000, 0.000000000000000000, 0.000000000000000000 ) ) ;
#59 = CARTESIAN_POINT ( 'NONE',  ( 0.000000000000000000, 0.000000000000000000, 3.199999999999980638 ) ) ;
#60 = DIRECTION ( 'NONE',  ( 0.000000000000000000, 0.000000000000000000, 1.000000000000000000 ) ) ;
#61 = LINE ( 'NONE', #253, #36 ) ;
#62 = CARTESIAN_POINT ( 'NONE',  ( -4.000000000000000000, 0.000000000000000000, 3.000000000000000000 ) ) ;
#63 = MECHANICAL_CONTEXT ( 'NONE', #258, 'mechanical' ) ;
#64 = ORIENTED_EDGE ( 'NONE', *, *, #24, .F. ) ;
#65 = DIRECTION ( 'NONE',  ( 0.000000000000000000, 0.000000000000000000, 1.000000000000000000 ) ) ;
#66 = AXIS2_PLACEMENT_3D ( 'NONE', #218, #192, #291 ) ;
#67 = CC_DESIGN_APPROVAL ( #166, ( #156 ) ) ;
#68 = CARTESIAN_POINT ( 'NONE',  ( 0.000000000000000000, 0.000000000000000000, 3.000000000000000000 ) ) ;
#69 = CALENDAR_DATE ( 2022, 20, 6 ) ;
#70 = APPLICATION_CONTEXT ( 'configuration controlled 3d designs of mechanical parts and assemblies' ) ;
#71 = ADVANCED_FACE ( 'NONE', ( #223 ), #153, .T. ) ;
#72 = SECURITY_CLASSIFICATION_LEVEL ( 'unclassified' ) ;
#73 = AXIS2_PLACEMENT_3D ( 'NONE', #198, #10, #90 ) ;
#74 = CIRCLE ( 'NONE', #112, 2.300000000000000266 ) ;
#75 = CARTESIAN_POINT ( 'NONE',  ( 0.000000000000000000, 0.000000000000000000, 0.000000000000000000 ) ) ;
#76 = PRODUCT_RELATED_PRODUCT_CATEGORY ( 'detail', '', ( #175 ) ) ;
#77 = ADVANCED_BREP_SHAPE_REPRESENTATION ( '259b', ( #274, #134 ), #230 ) ;
#78 = PERSON_AND_ORGANIZATION ( #56, #173 ) ;
#79 = ORIENTED_EDGE ( 'NONE', *, *, #150, .T. ) ;
#80 = ORIENTED_EDGE ( 'NONE', *, *, #284, .T. ) ;
#81 = EDGE_CURVE ( 'NONE', #167, #195, #182, .T. ) ;
#82 = COORDINATED_UNIVERSAL_TIME_OFFSET ( 1, 0, .AHEAD. ) ;
#83 = CARTESIAN_POINT ( 'NONE',  ( 0.000000000000000000, 0.000000000000000000, 0.000000000000000000 ) ) ;
#84 = ORIENTED_EDGE ( 'NONE', *, *, #284, .F. ) ;
#85 = EDGE_CURVE ( 'NONE', #195, #167, #204, .T. ) ;
#86 = CARTESIAN_POINT ( 'NONE',  ( 0.000000000000000000, 0.000000000000000000, 3.199999999999980638 ) ) ;
#87 = DIRECTION ( 'NONE',  ( 1.224646799147353207E-16, 1.000000000000000000, -0.000000000000000000 ) ) ;
#88 = DIRECTION ( 'NONE',  ( 1.000000000000000000, 0.000000000000000000, 0.000000000000000000 ) ) ;
#89 = FACE_OUTER_BOUND ( 'NONE', #140, .T. ) ;
#90 = DIRECTION ( 'NONE',  ( 1.000000000000000000, 0.000000000000000000, 0.000000000000000000 ) ) ;
#91 = CC_DESIGN_APPROVAL ( #290, ( #108 ) ) ;
#92 = CALENDAR_DATE ( 2022, 20, 6 ) ;
#93 = DIRECTION ( 'NONE',  ( -0.000000000000000000, -0.000000000000000000, -1.000000000000000000 ) ) ;
#94 = CLOSED_SHELL ( 'NONE', ( #37, #71, #236, #269, #275, #6, #299, #306, #139 ) ) ;
#95 = CARTESIAN_POINT ( 'NONE',  ( 2.100000000000000089, 2.571758278209441957E-16, 3.199999999999980638 ) ) ;
#96 = CALENDAR_DATE ( 2022, 20, 6 ) ;
#97 = VERTEX_POINT ( 'NONE', #130 ) ;
#98 = PERSON_AND_ORGANIZATION_ROLE ( 'classification_officer' ) ;
#99 = VERTEX_POINT ( 'NONE', #295 ) ;
#100 = COORDINATED_UNIVERSAL_TIME_OFFSET ( 1, 0, .AHEAD. ) ;
#101 = ORIENTED_EDGE ( 'NONE', *, *, #200, .F. ) ;
#102 = ORIENTED_EDGE ( 'NONE', *, *, #185, .T. ) ;
#103 = CC_DESIGN_PERSON_AND_ORGANIZATION_ASSIGNMENT ( #259, #138, ( #156 ) ) ;
#104 = CARTESIAN_POINT ( 'NONE',  ( 0.000000000000000000, 0.000000000000000000, 1002.999999999999886 ) ) ;
#105 = UNCERTAINTY_MEASURE_WITH_UNIT (LENGTH_MEASURE( 1.000000000000000082E-05 ), #212, 'distance_accuracy_value', 'NONE');
#106 = DIRECTION ( 'NONE',  ( 1.000000000000000000, 0.000000000000000000, 0.000000000000000000 ) ) ;
#107 = CARTESIAN_POINT ( 'NONE',  ( 0.000000000000000000, 0.000000000000000000, 3.199999999999980638 ) ) ;
#108 = SECURITY_CLASSIFICATION ( '', '', #72 ) ;
#109 = CARTESIAN_POINT ( 'NONE',  ( -2.300000000000000266, 2.816687638038912549E-16, 3.199999999999980638 ) ) ;
#110 = DIRECTION ( 'NONE',  ( -0.000000000000000000, -0.000000000000000000, -1.000000000000000000 ) ) ;
#111 = FACE_BOUND ( 'NONE', #169, .T. ) ;
#112 = AXIS2_PLACEMENT_3D ( 'NONE', #181, #93, #205 ) ;
#113 = LOCAL_TIME ( 12, 6, 32.00000000000000000, #214 ) ;
#114 = FACE_OUTER_BOUND ( 'NONE', #31, .T. ) ;
#115 = PLANE ( 'NONE',  #265 ) ;
#116 = AXIS2_PLACEMENT_3D ( 'NONE', #38, #137, #231 ) ;
#117 = ORIENTED_EDGE ( 'NONE', *, *, #12, .F. ) ;
#118 = EDGE_LOOP ( 'NONE', ( #288, #102, #122, #64 ) ) ;
#119 = ORIENTED_EDGE ( 'NONE', *, *, #25, .F. ) ;
#120 = PERSON_AND_ORGANIZATION ( #56, #173 ) ;
#121 = DIRECTION ( 'NONE',  ( -0.000000000000000000, -0.000000000000000000, -1.000000000000000000 ) ) ;
#122 = ORIENTED_EDGE ( 'NONE', *, *, #243, .T. ) ;
#123 = ORIENTED_EDGE ( 'NONE', *, *, #177, .F. ) ;
#124 = CARTESIAN_POINT ( 'NONE',  ( -2.100000000000000089, 0.000000000000000000, 3.199999999999980638 ) ) ;
#125 = DIRECTION ( 'NONE',  ( 0.000000000000000000, 0.000000000000000000, 1.000000000000000000 ) ) ;
#126 = DIRECTION ( 'NONE',  ( -1.000000000000000000, 1.224646799147353207E-16, 0.000000000000000000 ) ) ;
#127 = DIRECTION ( 'NONE',  ( -0.000000000000000000, -0.000000000000000000, -1.000000000000000000 ) ) ;
#128 = EDGE_CURVE ( 'NONE', #242, #3, #245, .T. ) ;
#129 = AXIS2_PLACEMENT_3D ( 'NONE', #160, #65, #186 ) ;
#130 = CARTESIAN_POINT ( 'NONE',  ( 4.000000000000000000, 4.898587196589412829E-16, 0.000000000000000000 ) ) ;
#131 =( NAMED_UNIT ( * ) SI_UNIT ( $, .STERADIAN. ) SOLID_ANGLE_UNIT ( ) );
#132 = APPROVAL_DATE_TIME ( #161, #166 ) ;
#133 = ORIENTED_EDGE ( 'NONE', *, *, #197, .T. ) ;
#134 = AXIS2_PLACEMENT_3D ( 'NONE', #187, #285, #305 ) ;
#135 = FACE_OUTER_BOUND ( 'NONE', #180, .T. ) ;
#136 = CC_DESIGN_PERSON_AND_ORGANIZATION_ASSIGNMENT ( #234, #98, ( #108 ) ) ;
#137 = DIRECTION ( 'NONE',  ( -0.000000000000000000, -0.000000000000000000, -1.000000000000000000 ) ) ;
#138 = PERSON_AND_ORGANIZATION_ROLE ( 'creator' ) ;
#139 = ADVANCED_FACE ( 'NONE', ( #89 ), #20, .F. ) ;
#140 = EDGE_LOOP ( 'NONE', ( #8, #27, #256, #84 ) ) ;
#141 = SHAPE_DEFINITION_REPRESENTATION ( #44, #77 ) ;
#142 = DIRECTION ( 'NONE',  ( 0.000000000000000000, 0.000000000000000000, 1.000000000000000000 ) ) ;
#143 = CIRCLE ( 'NONE', #221, 2.300000000000000266 ) ;
#144 = ORIENTED_EDGE ( 'NONE', *, *, #12, .T. ) ;
#145 = ORIENTED_EDGE ( 'NONE', *, *, #177, .T. ) ;
#146 = ORIENTED_EDGE ( 'NONE', *, *, #33, .T. ) ;
#147 = AXIS2_PLACEMENT_3D ( 'NONE', #107, #40, #11 ) ;
#148 = CARTESIAN_POINT ( 'NONE',  ( 0.000000000000000000, 0.000000000000000000, 3.199999999999980638 ) ) ;
#149 = LOCAL_TIME ( 12, 6, 32.00000000000000000, #100 ) ;
#150 = EDGE_CURVE ( 'NONE', #5, #172, #46, .T. ) ;
#151 = DIRECTION ( 'NONE',  ( -0.000000000000000000, -0.000000000000000000, -1.000000000000000000 ) ) ;
#152 = CARTESIAN_POINT ( 'NONE',  ( -2.100000000000000089, 0.000000000000000000, 1002.999999999999886 ) ) ;
#153 = CYLINDRICAL_SURFACE ( 'NONE', #301, 2.100000000000000089 ) ;
#154 = CC_DESIGN_SECURITY_CLASSIFICATION ( #108, ( #297 ) ) ;
#155 =( NAMED_UNIT ( * ) PLANE_ANGLE_UNIT ( ) SI_UNIT ( $, .RADIAN. ) );
#156 = PRODUCT_DEFINITION ( 'NEZNÁMÝ', '', #297, #249 ) ;
#157 = PERSON_AND_ORGANIZATION ( #56, #173 ) ;
#158 = PERSON_AND_ORGANIZATION ( #56, #173 ) ;
#159 = AXIS2_PLACEMENT_3D ( 'NONE', #148, #273, #244 ) ;
#160 = CARTESIAN_POINT ( 'NONE',  ( 0.000000000000000000, 0.000000000000000000, 1002.999999999999886 ) ) ;
#161 = DATE_AND_TIME ( #69, #184 ) ;
#162 = DATE_AND_TIME ( #191, #227 ) ;
#163 = AXIS2_PLACEMENT_3D ( 'NONE', #300, #110, #39 ) ;
#164 = APPROVAL_PERSON_ORGANIZATION ( #158, #303, #45 ) ;
#165 = ORIENTED_EDGE ( 'NONE', *, *, #24, .T. ) ;
#166 = APPROVAL ( #255, 'NEURÈENÝ' ) ;
#167 = VERTEX_POINT ( 'NONE', #152 ) ;
#168 = DATE_AND_TIME ( #96, #113 ) ;
#169 = EDGE_LOOP ( 'NONE', ( #145, #80 ) ) ;
#170 = CC_DESIGN_APPROVAL ( #303, ( #297 ) ) ;
#171 = DIRECTION ( 'NONE',  ( 0.000000000000000000, 0.000000000000000000, 1.000000000000000000 ) ) ;
#172 = VERTEX_POINT ( 'NONE', #276 ) ;
#173 = ORGANIZATION ( 'NEURÈENÝ', 'NEURÈENÝ', '' ) ;
#174 = CARTESIAN_POINT ( 'NONE',  ( 0.000000000000000000, 0.000000000000000000, 3.000000000000000000 ) ) ;
#175 = PRODUCT ( '259b', '259b', '', ( #63 ) ) ;
#176 = FACE_OUTER_BOUND ( 'NONE', #279, .T. ) ;
#177 = EDGE_CURVE ( 'NONE', #99, #193, #143, .T. ) ;
#178 = CARTESIAN_POINT ( 'NONE',  ( 2.300000000000000266, 0.000000000000000000, 3.199999999999980638 ) ) ;
#179 = CARTESIAN_POINT ( 'NONE',  ( 0.000000000000000000, 0.000000000000000000, 3.000000000000000000 ) ) ;
#180 = EDGE_LOOP ( 'NONE', ( #292, #220 ) ) ;
#181 = CARTESIAN_POINT ( 'NONE',  ( 0.000000000000000000, 0.000000000000000000, 3.000000000000000000 ) ) ;
#182 = CIRCLE ( 'NONE', #34, 2.100000000000000089 ) ;
#183 = PERSON_AND_ORGANIZATION ( #56, #173 ) ;
#184 = LOCAL_TIME ( 12, 6, 32.00000000000000000, #282 ) ;
#185 = EDGE_CURVE ( 'NONE', #195, #3, #61, .T. ) ;
#186 = DIRECTION ( 'NONE',  ( 1.000000000000000000, 0.000000000000000000, -0.000000000000000000 ) ) ;
#187 = CARTESIAN_POINT ( 'NONE',  ( 0.000000000000000000, 0.000000000000000000, 0.000000000000000000 ) ) ;
#188 = CARTESIAN_POINT ( 'NONE',  ( 4.000000000000000000, 4.898587196589412829E-16, 3.000000000000000000 ) ) ;
#189 = PERSON_AND_ORGANIZATION_ROLE ( 'creator' ) ;
#190 = ORIENTED_EDGE ( 'NONE', *, *, #150, .F. ) ;
#191 = CALENDAR_DATE ( 2022, 20, 6 ) ;
#192 = DIRECTION ( 'NONE',  ( 0.000000000000000000, 0.000000000000000000, 1.000000000000000000 ) ) ;
#193 = VERTEX_POINT ( 'NONE', #17 ) ;
#194 = CIRCLE ( 'NONE', #252, 4.000000000000000000 ) ;
#195 = VERTEX_POINT ( 'NONE', #228 ) ;
#196 = LINE ( 'NONE', #62, #287 ) ;
#197 = EDGE_CURVE ( 'NONE', #242, #193, #271, .T. ) ;
#198 = CARTESIAN_POINT ( 'NONE',  ( 0.000000000000000000, 0.000000000000000000, 1002.999999999999886 ) ) ;
#199 = CARTESIAN_POINT ( 'NONE',  ( 0.000000000000000000, 0.000000000000000000, 1002.999999999999886 ) ) ;
#200 = EDGE_CURVE ( 'NONE', #3, #99, #247, .T. ) ;
#201 = DIRECTION ( 'NONE',  ( 0.000000000000000000, 0.000000000000000000, -1.000000000000000000 ) ) ;
#202 = EDGE_CURVE ( 'NONE', #172, #264, #196, .T. ) ;
#203 = LINE ( 'NONE', #35, #53 ) ;
#204 = CIRCLE ( 'NONE', #73, 2.100000000000000089 ) ;
#205 = DIRECTION ( 'NONE',  ( 1.000000000000000000, 0.000000000000000000, 0.000000000000000000 ) ) ;
#206 = AXIS2_PLACEMENT_3D ( 'NONE', #86, #270, #58 ) ;
#207 = DATE_AND_TIME ( #92, #238 ) ;
#208 = DIRECTION ( 'NONE',  ( 0.000000000000000000, 0.000000000000000000, 1.000000000000000000 ) ) ;
#209 = DIRECTION ( 'NONE',  ( -0.000000000000000000, -0.000000000000000000, -1.000000000000000000 ) ) ;
#210 = CIRCLE ( 'NONE', #13, 4.000000000000000000 ) ;
#211 = APPROVAL_PERSON_ORGANIZATION ( #157, #166, #22 ) ;
#212 =( LENGTH_UNIT ( ) NAMED_UNIT ( * ) SI_UNIT ( .MILLI., .METRE. ) );
#213 = CC_DESIGN_PERSON_AND_ORGANIZATION_ASSIGNMENT ( #183, #42, ( #175 ) ) ;
#214 = COORDINATED_UNIVERSAL_TIME_OFFSET ( 1, 0, .AHEAD. ) ;
#215 = ORIENTED_EDGE ( 'NONE', *, *, #240, .T. ) ;
#216 = ORIENTED_EDGE ( 'NONE', *, *, #202, .T. ) ;
#217 = PERSON_AND_ORGANIZATION_ROLE ( 'design_supplier' ) ;
#218 = CARTESIAN_POINT ( 'NONE',  ( 0.000000000000000000, 0.000000000000000000, 0.000000000000000000 ) ) ;
#219 = ORIENTED_EDGE ( 'NONE', *, *, #81, .F. ) ;
#220 = ORIENTED_EDGE ( 'NONE', *, *, #85, .T. ) ;
#221 = AXIS2_PLACEMENT_3D ( 'NONE', #174, #151, #298 ) ;
#222 = DIRECTION ( 'NONE',  ( -0.000000000000000000, -0.000000000000000000, -1.000000000000000000 ) ) ;
#223 = FACE_OUTER_BOUND ( 'NONE', #118, .T. ) ;
#224 = FACE_OUTER_BOUND ( 'NONE', #43, .T. ) ;
#225 = CIRCLE ( 'NONE', #206, 2.100000000000000089 ) ;
#226 = DIRECTION ( 'NONE',  ( -0.000000000000000000, -0.000000000000000000, -1.000000000000000000 ) ) ;
#227 = LOCAL_TIME ( 12, 6, 32.00000000000000000, #82 ) ;
#228 = CARTESIAN_POINT ( 'NONE',  ( 2.100000000000000089, 2.571758278209441957E-16, 1002.999999999999886 ) ) ;
#229 = DIRECTION ( 'NONE',  ( 1.000000000000000000, 0.000000000000000000, -0.000000000000000000 ) ) ;
#230 =( GEOMETRIC_REPRESENTATION_CONTEXT ( 3 ) GLOBAL_UNCERTAINTY_ASSIGNED_CONTEXT ( ( #105 ) ) GLOBAL_UNIT_ASSIGNED_CONTEXT ( ( #212, #155, #131 ) ) REPRESENTATION_CONTEXT ( 'NONE', 'WORKASPACE' ) );
#231 = DIRECTION ( 'NONE',  ( -1.000000000000000000, 0.000000000000000000, 0.000000000000000000 ) ) ;
#232 = CC_DESIGN_PERSON_AND_ORGANIZATION_ASSIGNMENT ( #54, #217, ( #297 ) ) ;
#233 = CYLINDRICAL_SURFACE ( 'NONE', #21, 2.100000000000000089 ) ;
#234 = PERSON_AND_ORGANIZATION ( #56, #173 ) ;
#235 = EDGE_LOOP ( 'NONE', ( #52, #119 ) ) ;
#236 = ADVANCED_FACE ( 'NONE', ( #250 ), #18, .T. ) ;
#237 = LINE ( 'NONE', #29, #296 ) ;
#238 = LOCAL_TIME ( 12, 6, 32.00000000000000000, #302 ) ;
#239 = CALENDAR_DATE ( 2022, 20, 6 ) ;
#240 = EDGE_CURVE ( 'NONE', #5, #97, #203, .T. ) ;
#241 = ORIENTED_EDGE ( 'NONE', *, *, #185, .F. ) ;
#242 = VERTEX_POINT ( 'NONE', #124 ) ;
#243 = EDGE_CURVE ( 'NONE', #3, #242, #225, .T. ) ;
#244 = DIRECTION ( 'NONE',  ( 1.000000000000000000, 0.000000000000000000, 0.000000000000000000 ) ) ;
#245 = CIRCLE ( 'NONE', #147, 2.100000000000000089 ) ;
#246 = CC_DESIGN_PERSON_AND_ORGANIZATION_ASSIGNMENT ( #120, #189, ( #297 ) ) ;
#247 = CIRCLE ( 'NONE', #260, 0.2000000000000000944 ) ;
#248 = CARTESIAN_POINT ( 'NONE',  ( -4.000000000000000000, 0.000000000000000000, 0.000000000000000000 ) ) ;
#249 = DESIGN_CONTEXT ( 'detailed design', #70, 'design' ) ;
#250 = FACE_OUTER_BOUND ( 'NONE', #4, .T. ) ;
#251 = DIRECTION ( 'NONE',  ( -1.000000000000000000, 0.000000000000000000, 0.000000000000000000 ) ) ;
#252 = AXIS2_PLACEMENT_3D ( 'NONE', #83, #171, #55 ) ;
#253 = CARTESIAN_POINT ( 'NONE',  ( 2.100000000000000089, 2.571758278209441957E-16, 1002.999999999999886 ) ) ;
#254 = APPROVAL_PERSON_ORGANIZATION ( #78, #290, #7 ) ;
#255 = APPROVAL_STATUS ( 'not_yet_approved' ) ;
#256 = ORIENTED_EDGE ( 'NONE', *, *, #200, .T. ) ;
#257 = APPROVAL_STATUS ( 'not_yet_approved' ) ;
#258 = APPLICATION_CONTEXT ( 'configuration controlled 3d designs of mechanical parts and assemblies' ) ;
#259 = PERSON_AND_ORGANIZATION ( #56, #173 ) ;
#260 = AXIS2_PLACEMENT_3D ( 'NONE', #178, #294, #201 ) ;
#261 = FACE_OUTER_BOUND ( 'NONE', #235, .T. ) ;
#262 = APPROVAL_DATE_TIME ( #168, #303 ) ;
#263 = CARTESIAN_POINT ( 'NONE',  ( 0.000000000000000000, 0.000000000000000000, 3.000000000000000000 ) ) ;
#264 = VERTEX_POINT ( 'NONE', #248 ) ;
#265 = AXIS2_PLACEMENT_3D ( 'NONE', #68, #208, #229 ) ;
#266 = DATE_TIME_ROLE ( 'classification_date' ) ;
#267 = DIRECTION ( 'NONE',  ( 1.000000000000000000, 0.000000000000000000, -0.000000000000000000 ) ) ;
#268 = DIRECTION ( 'NONE',  ( 0.000000000000000000, 0.000000000000000000, 1.000000000000000000 ) ) ;
#269 = ADVANCED_FACE ( 'NONE', ( #224 ), #14, .T. ) ;
#270 = DIRECTION ( 'NONE',  ( 0.000000000000000000, 0.000000000000000000, 1.000000000000000000 ) ) ;
#271 = CIRCLE ( 'NONE', #16, 0.2000000000000000944 ) ;
#272 = DIRECTION ( 'NONE',  ( -0.000000000000000000, -0.000000000000000000, -1.000000000000000000 ) ) ;
#273 = DIRECTION ( 'NONE',  ( 0.000000000000000000, 0.000000000000000000, 1.000000000000000000 ) ) ;
#274 = MANIFOLD_SOLID_BREP ( 'Zaoblit1', #94 ) ;
#275 = ADVANCED_FACE ( 'NONE', ( #111, #307 ), #115, .T. ) ;
#276 = CARTESIAN_POINT ( 'NONE',  ( -4.000000000000000000, 0.000000000000000000, 3.000000000000000000 ) ) ;
#277 = DIRECTION ( 'NONE',  ( 0.000000000000000000, 0.000000000000000000, 1.000000000000000000 ) ) ;
#278 = APPLICATION_PROTOCOL_DEFINITION ( 'international standard', 'config_control_design', 1994, #70 ) ;
#279 = EDGE_LOOP ( 'NONE', ( #1, #133, #123, #101 ) ) ;
#280 = DIRECTION ( 'NONE',  ( -1.000000000000000000, 0.000000000000000000, 0.000000000000000000 ) ) ;
#281 = AXIS2_PLACEMENT_3D ( 'NONE', #75, #268, #267 ) ;
#282 = COORDINATED_UNIVERSAL_TIME_OFFSET ( 1, 0, .AHEAD. ) ;
#283 = AXIS2_PLACEMENT_3D ( 'NONE', #59, #125, #88 ) ;
#284 = EDGE_CURVE ( 'NONE', #193, #99, #74, .T. ) ;
#285 = DIRECTION ( 'NONE',  ( 0.000000000000000000, 0.000000000000000000, 1.000000000000000000 ) ) ;
#286 = PLANE ( 'NONE',  #281 ) ;
#287 = VECTOR ( 'NONE', #272, 1000.000000000000000 ) ;
#288 = ORIENTED_EDGE ( 'NONE', *, *, #85, .F. ) ;
#289 = EDGE_LOOP ( 'NONE', ( #144, #79 ) ) ;
#290 = APPROVAL ( #51, 'NEURÈENÝ' ) ;
#291 = DIRECTION ( 'NONE',  ( 1.000000000000000000, 0.000000000000000000, 0.000000000000000000 ) ) ;
#292 = ORIENTED_EDGE ( 'NONE', *, *, #81, .T. ) ;
#293 = CC_DESIGN_DATE_AND_TIME_ASSIGNMENT ( #162, #266, ( #108 ) ) ;
#294 = DIRECTION ( 'NONE',  ( 0.000000000000000000, -1.000000000000000000, 0.000000000000000000 ) ) ;
#295 = CARTESIAN_POINT ( 'NONE',  ( 2.300000000000000266, 0.000000000000000000, 2.999999999999990674 ) ) ;
#296 = VECTOR ( 'NONE', #121, 1000.000000000000000 ) ;
#297 = PRODUCT_DEFINITION_FORMATION_WITH_SPECIFIED_SOURCE ( 'LIBOVOLNÝ', '', #175, .NOT_KNOWN. ) ;
#298 = DIRECTION ( 'NONE',  ( 1.000000000000000000, 0.000000000000000000, 0.000000000000000000 ) ) ;
#299 = ADVANCED_FACE ( 'NONE', ( #114 ), #233, .T. ) ;
#300 = CARTESIAN_POINT ( 'NONE',  ( 0.000000000000000000, 0.000000000000000000, 3.000000000000000000 ) ) ;
#301 = AXIS2_PLACEMENT_3D ( 'NONE', #199, #127, #251 ) ;
#302 = COORDINATED_UNIVERSAL_TIME_OFFSET ( 1, 0, .AHEAD. ) ;
#303 = APPROVAL ( #257, 'NEURÈENÝ' ) ;
#304 = DATE_TIME_ROLE ( 'creation_date' ) ;
#305 = DIRECTION ( 'NONE',  ( 1.000000000000000000, 0.000000000000000000, 0.000000000000000000 ) ) ;
#306 = ADVANCED_FACE ( 'NONE', ( #135 ), #26, .T. ) ;
#307 = FACE_OUTER_BOUND ( 'NONE', #289, .T. ) ;
ENDSEC;
END-ISO-10303-21;
