ISO-10303-21;
HEADER;
FILE_DESCRIPTION (( 'STEP AP203' ),
    '1' );
FILE_NAME ('1bc7.STEP',
    '2022-06-20T10:22:43',
    ( '' ),
    ( '' ),
    'SwSTEP 2.0',
    'SolidWorks 2019',
    '' );
FILE_SCHEMA (( 'CONFIG_CONTROL_DESIGN' ));
ENDSEC;

DATA;
#1 = CARTESIAN_POINT ( 'NONE',  ( 0.000000000000000000, 0.000000000000000000, 1.500000000000000000 ) ) ;
#2 = CARTESIAN_POINT ( 'NONE',  ( 0.000000000000000000, 0.000000000000000000, 1.500000000000000000 ) ) ;
#3 = EDGE_CURVE ( 'NONE', #17, #65, #58, .T. ) ;
#4 = DIRECTION ( 'NONE',  ( 1.000000000000000000, 0.000000000000000000, 0.000000000000000000 ) ) ;
#5 = CIRCLE ( 'NONE', #20, 1.000000000000000000 ) ;
#6 = DIRECTION ( 'NONE',  ( 0.000000000000000000, 0.000000000000000000, 1.000000000000000000 ) ) ;
#7 = AXIS2_PLACEMENT_3D ( 'NONE', #145, #221, #195 ) ;
#8 = COORDINATED_UNIVERSAL_TIME_OFFSET ( 1, 0, .AHEAD. ) ;
#9 = ORIENTED_EDGE ( 'NONE', *, *, #76, .F. ) ;
#10 = APPROVAL_ROLE ( '' ) ;
#11 = ORIENTED_EDGE ( 'NONE', *, *, #244, .T. ) ;
#12 = EDGE_CURVE ( 'NONE', #93, #261, #223, .T. ) ;
#13 = ORIENTED_EDGE ( 'NONE', *, *, #69, .F. ) ;
#14 = CIRCLE ( 'NONE', #243, 1.500000000000000222 ) ;
#15 = ORIENTED_EDGE ( 'NONE', *, *, #3, .T. ) ;
#16 = APPROVAL ( #159, 'NEURÈENÝ' ) ;
#17 = VERTEX_POINT ( 'NONE', #123 ) ;
#18 = CARTESIAN_POINT ( 'NONE',  ( 0.000000000000000000, 0.000000000000000000, 1.700000000000007061 ) ) ;
#19 = PLANE ( 'NONE',  #288 ) ;
#20 = AXIS2_PLACEMENT_3D ( 'NONE', #154, #59, #4 ) ;
#21 = UNCERTAINTY_MEASURE_WITH_UNIT (LENGTH_MEASURE( 1.000000000000000082E-05 ), #53, 'distance_accuracy_value', 'NONE');
#22 = CARTESIAN_POINT ( 'NONE',  ( 0.000000000000000000, 0.000000000000000000, 1.700000000000007061 ) ) ;
#23 = CYLINDRICAL_SURFACE ( 'NONE', #251, 0.8000000000000000444 ) ;
#24 = CC_DESIGN_PERSON_AND_ORGANIZATION_ASSIGNMENT ( #189, #111, ( #193 ) ) ;
#25 = CARTESIAN_POINT ( 'NONE',  ( 0.000000000000000000, 0.000000000000000000, 1.500000000000000000 ) ) ;
#26 = APPLICATION_CONTEXT ( 'configuration controlled 3d designs of mechanical parts and assemblies' ) ;
#27 = LOCAL_TIME ( 12, 22, 43.00000000000000000, #139 ) ;
#28 = DIRECTION ( 'NONE',  ( 1.000000000000000000, 0.000000000000000000, 0.000000000000000000 ) ) ;
#29 = PLANE ( 'NONE',  #200 ) ;
#30 = CARTESIAN_POINT ( 'NONE',  ( -1.500000000000000222, 0.000000000000000000, 1.500000000000000000 ) ) ;
#31 = FACE_OUTER_BOUND ( 'NONE', #97, .T. ) ;
#32 = DATE_AND_TIME ( #74, #273 ) ;
#33 = EDGE_CURVE ( 'NONE', #297, #112, #294, .T. ) ;
#34 = PERSON_AND_ORGANIZATION ( #37, #167 ) ;
#35 = VERTEX_POINT ( 'NONE', #267 ) ;
#36 = APPROVAL_ROLE ( '' ) ;
#37 = PERSON ( 'NEURÈENÝ', 'NEURÈENÝ', 'NEURÈENÝ', ('NEURÈENÝ'), ('NEURÈENÝ'), ('NEURÈENÝ') ) ;
#38 = CALENDAR_DATE ( 2022, 20, 6 ) ;
#39 = EDGE_LOOP ( 'NONE', ( #141, #72, #290, #190 ) ) ;
#40 = APPROVAL_DATE_TIME ( #94, #263 ) ;
#41 = ORIENTED_EDGE ( 'NONE', *, *, #187, .F. ) ;
#42 = AXIS2_PLACEMENT_3D ( 'NONE', #50, #77, #194 ) ;
#43 = CIRCLE ( 'NONE', #303, 1.000000000000000000 ) ;
#44 = VERTEX_POINT ( 'NONE', #148 ) ;
#45 = FACE_OUTER_BOUND ( 'NONE', #120, .T. ) ;
#46 = ADVANCED_BREP_SHAPE_REPRESENTATION ( '1bc7', ( #121, #157 ), #292 ) ;
#47 = FACE_BOUND ( 'NONE', #138, .T. ) ;
#48 = DIRECTION ( 'NONE',  ( -0.000000000000000000, -0.000000000000000000, -1.000000000000000000 ) ) ;
#49 = EDGE_CURVE ( 'NONE', #44, #261, #126, .T. ) ;
#50 = CARTESIAN_POINT ( 'NONE',  ( 0.000000000000000000, 0.000000000000000000, 126.5000000000000000 ) ) ;
#51 = CC_DESIGN_PERSON_AND_ORGANIZATION_ASSIGNMENT ( #34, #210, ( #214 ) ) ;
#52 = CARTESIAN_POINT ( 'NONE',  ( 0.8000000000000000444, 9.797174393178826150E-17, 126.5000000000000000 ) ) ;
#53 =( LENGTH_UNIT ( ) NAMED_UNIT ( * ) SI_UNIT ( .MILLI., .METRE. ) );
#54 = EDGE_CURVE ( 'NONE', #65, #17, #232, .T. ) ;
#55 = CC_DESIGN_APPROVAL ( #16, ( #70 ) ) ;
#56 = APPLICATION_PROTOCOL_DEFINITION ( 'international standard', 'config_control_design', 1994, #26 ) ;
#57 = CARTESIAN_POINT ( 'NONE',  ( 1.500000000000000222, 1.836970198721030181E-16, 0.000000000000000000 ) ) ;
#58 = CIRCLE ( 'NONE', #67, 0.8000000000000000444 ) ;
#59 = DIRECTION ( 'NONE',  ( -0.000000000000000000, -0.000000000000000000, -1.000000000000000000 ) ) ;
#60 = CLOSED_SHELL ( 'NONE', ( #98, #153, #198, #92, #140, #260, #161, #222, #298 ) ) ;
#61 = AXIS2_PLACEMENT_3D ( 'NONE', #250, #6, #291 ) ;
#62 = LOCAL_TIME ( 12, 22, 43.00000000000000000, #73 ) ;
#63 = DIRECTION ( 'NONE',  ( 1.000000000000000000, 0.000000000000000000, 0.000000000000000000 ) ) ;
#64 = COORDINATED_UNIVERSAL_TIME_OFFSET ( 1, 0, .AHEAD. ) ;
#65 = VERTEX_POINT ( 'NONE', #201 ) ;
#66 = APPROVAL_DATE_TIME ( #256, #275 ) ;
#67 = AXIS2_PLACEMENT_3D ( 'NONE', #284, #170, #146 ) ;
#68 = ORIENTED_EDGE ( 'NONE', *, *, #168, .F. ) ;
#69 = EDGE_CURVE ( 'NONE', #75, #297, #207, .T. ) ;
#70 = PRODUCT_DEFINITION_FORMATION_WITH_SPECIFIED_SOURCE ( 'LIBOVOLNÝ', '', #137, .NOT_KNOWN. ) ;
#71 = PERSON_AND_ORGANIZATION_ROLE ( 'creator' ) ;
#72 = ORIENTED_EDGE ( 'NONE', *, *, #3, .F. ) ;
#73 = COORDINATED_UNIVERSAL_TIME_OFFSET ( 1, 0, .AHEAD. ) ;
#74 = CALENDAR_DATE ( 2022, 20, 6 ) ;
#75 = VERTEX_POINT ( 'NONE', #218 ) ;
#76 = EDGE_CURVE ( 'NONE', #255, #44, #101, .T. ) ;
#77 = DIRECTION ( 'NONE',  ( 0.000000000000000000, 0.000000000000000000, 1.000000000000000000 ) ) ;
#78 = FACE_OUTER_BOUND ( 'NONE', #258, .T. ) ;
#79 = DIRECTION ( 'NONE',  ( -1.000000000000000000, 0.000000000000000000, 0.000000000000000000 ) ) ;
#80 = DIRECTION ( 'NONE',  ( 1.000000000000000000, 0.000000000000000000, 0.000000000000000000 ) ) ;
#81 = CARTESIAN_POINT ( 'NONE',  ( 0.000000000000000000, 0.000000000000000000, 0.000000000000000000 ) ) ;
#82 = EDGE_CURVE ( 'NONE', #65, #297, #262, .T. ) ;
#83 = DIRECTION ( 'NONE',  ( 0.000000000000000000, 0.000000000000000000, 1.000000000000000000 ) ) ;
#84 = VECTOR ( 'NONE', #150, 1000.000000000000000 ) ;
#85 = CARTESIAN_POINT ( 'NONE',  ( -0.8000000000000000444, 0.000000000000000000, 126.5000000000000000 ) ) ;
#86 = DIRECTION ( 'NONE',  ( -0.000000000000000000, -0.000000000000000000, -1.000000000000000000 ) ) ;
#87 = CC_DESIGN_PERSON_AND_ORGANIZATION_ASSIGNMENT ( #110, #91, ( #137 ) ) ;
#88 = VECTOR ( 'NONE', #173, 1000.000000000000000 ) ;
#89 = DIRECTION ( 'NONE',  ( 1.000000000000000000, 0.000000000000000000, 0.000000000000000000 ) ) ;
#90 = EDGE_LOOP ( 'NONE', ( #276, #185, #282, #41 ) ) ;
#91 = PERSON_AND_ORGANIZATION_ROLE ( 'design_owner' ) ;
#92 = ADVANCED_FACE ( 'NONE', ( #45 ), #307, .T. ) ;
#93 = VERTEX_POINT ( 'NONE', #99 ) ;
#94 = DATE_AND_TIME ( #38, #27 ) ;
#95 = EDGE_LOOP ( 'NONE', ( #162, #216, #11, #9 ) ) ;
#96 = APPROVAL_STATUS ( 'not_yet_approved' ) ;
#97 = EDGE_LOOP ( 'NONE', ( #213, #186 ) ) ;
#98 = ADVANCED_FACE ( 'NONE', ( #265 ), #259, .F. ) ;
#99 = CARTESIAN_POINT ( 'NONE',  ( 1.500000000000000222, 1.836970198721030181E-16, 1.500000000000000000 ) ) ;
#100 = PRODUCT_RELATED_PRODUCT_CATEGORY ( 'detail', '', ( #137 ) ) ;
#101 = LINE ( 'NONE', #149, #88 ) ;
#102 = CYLINDRICAL_SURFACE ( 'NONE', #199, 0.8000000000000000444 ) ;
#103 = CARTESIAN_POINT ( 'NONE',  ( 0.000000000000000000, 0.000000000000000000, 1.500000000000000000 ) ) ;
#104 = VECTOR ( 'NONE', #48, 1000.000000000000000 ) ;
#105 = DIRECTION ( 'NONE',  ( 0.000000000000000000, 0.000000000000000000, 1.000000000000000000 ) ) ;
#106 = CARTESIAN_POINT ( 'NONE',  ( 0.000000000000000000, 0.000000000000000000, 126.5000000000000000 ) ) ;
#107 = DIRECTION ( 'NONE',  ( -0.000000000000000000, -0.000000000000000000, -1.000000000000000000 ) ) ;
#108 = FACE_OUTER_BOUND ( 'NONE', #95, .T. ) ;
#109 = CIRCLE ( 'NONE', #7, 0.2000000000000000944 ) ;
#110 = PERSON_AND_ORGANIZATION ( #37, #167 ) ;
#111 = PERSON_AND_ORGANIZATION_ROLE ( 'creator' ) ;
#112 = VERTEX_POINT ( 'NONE', #246 ) ;
#113 = CALENDAR_DATE ( 2022, 20, 6 ) ;
#114 = ORIENTED_EDGE ( 'NONE', *, *, #12, .F. ) ;
#115 = CC_DESIGN_APPROVAL ( #275, ( #193 ) ) ;
#116 = DATE_AND_TIME ( #165, #62 ) ;
#117 = ORIENTED_EDGE ( 'NONE', *, *, #270, .F. ) ;
#118 = CARTESIAN_POINT ( 'NONE',  ( 1.500000000000000222, 1.836970198721030181E-16, 1.500000000000000000 ) ) ;
#119 = CC_DESIGN_DATE_AND_TIME_ASSIGNMENT ( #257, #163, ( #214 ) ) ;
#120 = EDGE_LOOP ( 'NONE', ( #114, #117, #209, #235 ) ) ;
#121 = MANIFOLD_SOLID_BREP ( 'Zaoblit1', #60 ) ;
#122 = DIRECTION ( 'NONE',  ( -0.000000000000000000, -0.000000000000000000, -1.000000000000000000 ) ) ;
#123 = CARTESIAN_POINT ( 'NONE',  ( -0.8000000000000000444, 0.000000000000000000, 126.5000000000000000 ) ) ;
#124 = DIRECTION ( 'NONE',  ( 1.000000000000000000, 0.000000000000000000, 0.000000000000000000 ) ) ;
#125 = AXIS2_PLACEMENT_3D ( 'NONE', #247, #122, #299 ) ;
#126 = CIRCLE ( 'NONE', #236, 1.500000000000000222 ) ;
#127 = PLANE ( 'NONE',  #171 ) ;
#128 = EDGE_CURVE ( 'NONE', #75, #35, #109, .T. ) ;
#129 = LINE ( 'NONE', #85, #219 ) ;
#130 = DIRECTION ( 'NONE',  ( 1.000000000000000000, 0.000000000000000000, -0.000000000000000000 ) ) ;
#131 = CARTESIAN_POINT ( 'NONE',  ( 0.000000000000000000, 0.000000000000000000, 0.000000000000000000 ) ) ;
#132 = SHAPE_DEFINITION_REPRESENTATION ( #155, #46 ) ;
#133 = APPROVAL_ROLE ( '' ) ;
#134 = CIRCLE ( 'NONE', #233, 0.8000000000000000444 ) ;
#135 = APPROVAL_PERSON_ORGANIZATION ( #231, #16, #10 ) ;
#136 = ORIENTED_EDGE ( 'NONE', *, *, #128, .F. ) ;
#137 = PRODUCT ( '1bc7', '1bc7', '', ( #178 ) ) ;
#138 = EDGE_LOOP ( 'NONE', ( #277, #296 ) ) ;
#139 = COORDINATED_UNIVERSAL_TIME_OFFSET ( 1, 0, .AHEAD. ) ;
#140 = ADVANCED_FACE ( 'NONE', ( #47, #78 ), #19, .T. ) ;
#141 = ORIENTED_EDGE ( 'NONE', *, *, #82, .F. ) ;
#142 = LOCAL_TIME ( 12, 22, 43.00000000000000000, #208 ) ;
#143 = ORIENTED_EDGE ( 'NONE', *, *, #33, .F. ) ;
#144 = DESIGN_CONTEXT ( 'detailed design', #305, 'design' ) ;
#145 = CARTESIAN_POINT ( 'NONE',  ( -1.000000000000000000, 1.224646799147353207E-16, 1.700000000000007061 ) ) ;
#146 = DIRECTION ( 'NONE',  ( 1.000000000000000000, 0.000000000000000000, 0.000000000000000000 ) ) ;
#147 = APPROVAL_PERSON_ORGANIZATION ( #234, #263, #133 ) ;
#148 = CARTESIAN_POINT ( 'NONE',  ( -1.500000000000000222, 0.000000000000000000, 0.000000000000000000 ) ) ;
#149 = CARTESIAN_POINT ( 'NONE',  ( -1.500000000000000222, 0.000000000000000000, 1.500000000000000000 ) ) ;
#150 = DIRECTION ( 'NONE',  ( -0.000000000000000000, -0.000000000000000000, -1.000000000000000000 ) ) ;
#151 = APPROVAL_PERSON_ORGANIZATION ( #184, #275, #36 ) ;
#152 = DIRECTION ( 'NONE',  ( -0.000000000000000000, -0.000000000000000000, -1.000000000000000000 ) ) ;
#153 = ADVANCED_FACE ( 'NONE', ( #264 ), #23, .T. ) ;
#154 = CARTESIAN_POINT ( 'NONE',  ( 0.000000000000000000, 0.000000000000000000, 1.500000000000000000 ) ) ;
#155 = PRODUCT_DEFINITION_SHAPE ( 'NONE', 'NONE',  #193 ) ;
#156 = CARTESIAN_POINT ( 'NONE',  ( 0.000000000000000000, 0.000000000000000000, 1.700000000000007061 ) ) ;
#157 = AXIS2_PLACEMENT_3D ( 'NONE', #131, #176, #63 ) ;
#158 = DIRECTION ( 'NONE',  ( 1.000000000000000000, 0.000000000000000000, 0.000000000000000000 ) ) ;
#159 = APPROVAL_STATUS ( 'not_yet_approved' ) ;
#160 = EDGE_LOOP ( 'NONE', ( #15, #166 ) ) ;
#161 = ADVANCED_FACE ( 'NONE', ( #304 ), #102, .T. ) ;
#162 = ORIENTED_EDGE ( 'NONE', *, *, #293, .F. ) ;
#163 = DATE_TIME_ROLE ( 'classification_date' ) ;
#164 = ORIENTED_EDGE ( 'NONE', *, *, #301, .F. ) ;
#165 = CALENDAR_DATE ( 2022, 20, 6 ) ;
#166 = ORIENTED_EDGE ( 'NONE', *, *, #54, .T. ) ;
#167 = ORGANIZATION ( 'NEURÈENÝ', 'NEURÈENÝ', '' ) ;
#168 = EDGE_CURVE ( 'NONE', #297, #75, #134, .T. ) ;
#169 = DIRECTION ( 'NONE',  ( 1.000000000000000000, 0.000000000000000000, -0.000000000000000000 ) ) ;
#170 = DIRECTION ( 'NONE',  ( 0.000000000000000000, 0.000000000000000000, 1.000000000000000000 ) ) ;
#171 = AXIS2_PLACEMENT_3D ( 'NONE', #106, #225, #205 ) ;
#172 = DIRECTION ( 'NONE',  ( 1.000000000000000000, 0.000000000000000000, 0.000000000000000000 ) ) ;
#173 = DIRECTION ( 'NONE',  ( -0.000000000000000000, -0.000000000000000000, -1.000000000000000000 ) ) ;
#174 = CC_DESIGN_PERSON_AND_ORGANIZATION_ASSIGNMENT ( #281, #71, ( #70 ) ) ;
#175 = DIRECTION ( 'NONE',  ( 1.000000000000000000, 0.000000000000000000, 0.000000000000000000 ) ) ;
#176 = DIRECTION ( 'NONE',  ( 0.000000000000000000, 0.000000000000000000, 1.000000000000000000 ) ) ;
#177 = CC_DESIGN_APPROVAL ( #263, ( #214 ) ) ;
#178 = MECHANICAL_CONTEXT ( 'NONE', #26, 'mechanical' ) ;
#179 = CYLINDRICAL_SURFACE ( 'NONE', #228, 1.500000000000000222 ) ;
#180 =( NAMED_UNIT ( * ) PLANE_ANGLE_UNIT ( ) SI_UNIT ( $, .RADIAN. ) );
#181 = EDGE_CURVE ( 'NONE', #35, #112, #43, .T. ) ;
#182 = APPLICATION_PROTOCOL_DEFINITION ( 'international standard', 'config_control_design', 1994, #305 ) ;
#183 = ORIENTED_EDGE ( 'NONE', *, *, #128, .T. ) ;
#184 = PERSON_AND_ORGANIZATION ( #37, #167 ) ;
#185 = ORIENTED_EDGE ( 'NONE', *, *, #82, .T. ) ;
#186 = ORIENTED_EDGE ( 'NONE', *, *, #244, .F. ) ;
#187 = EDGE_CURVE ( 'NONE', #17, #75, #129, .T. ) ;
#188 = LOCAL_TIME ( 12, 22, 43.00000000000000000, #64 ) ;
#189 = PERSON_AND_ORGANIZATION ( #37, #167 ) ;
#190 = ORIENTED_EDGE ( 'NONE', *, *, #69, .T. ) ;
#191 = CC_DESIGN_DATE_AND_TIME_ASSIGNMENT ( #32, #212, ( #193 ) ) ;
#192 = PERSON_AND_ORGANIZATION_ROLE ( 'design_supplier' ) ;
#193 = PRODUCT_DEFINITION ( 'NEZNÁMÝ', '', #70, #144 ) ;
#194 = DIRECTION ( 'NONE',  ( 1.000000000000000000, 0.000000000000000000, 0.000000000000000000 ) ) ;
#195 = DIRECTION ( 'NONE',  ( -1.000000000000000000, 1.224646799147351975E-16, 0.000000000000000000 ) ) ;
#196 = CARTESIAN_POINT ( 'NONE',  ( 0.000000000000000000, 0.000000000000000000, 126.5000000000000000 ) ) ;
#197 = CARTESIAN_POINT ( 'NONE',  ( 0.000000000000000000, 0.000000000000000000, 126.5000000000000000 ) ) ;
#198 = ADVANCED_FACE ( 'NONE', ( #108 ), #179, .T. ) ;
#199 = AXIS2_PLACEMENT_3D ( 'NONE', #196, #286, #79 ) ;
#200 = AXIS2_PLACEMENT_3D ( 'NONE', #226, #83, #130 ) ;
#201 = CARTESIAN_POINT ( 'NONE',  ( 0.8000000000000000444, 9.797174393178826150E-17, 126.5000000000000000 ) ) ;
#202 = DIRECTION ( 'NONE',  ( 0.000000000000000000, 0.000000000000000000, 1.000000000000000000 ) ) ;
#203 = CARTESIAN_POINT ( 'NONE',  ( 0.8000000000000000444, 9.797174393178826150E-17, 1.700000000000007061 ) ) ;
#204 =( NAMED_UNIT ( * ) SI_UNIT ( $, .STERADIAN. ) SOLID_ANGLE_UNIT ( ) );
#205 = DIRECTION ( 'NONE',  ( 1.000000000000000000, 0.000000000000000000, -0.000000000000000000 ) ) ;
#206 = DIRECTION ( 'NONE',  ( 0.000000000000000000, 0.000000000000000000, 1.000000000000000000 ) ) ;
#207 = CIRCLE ( 'NONE', #224, 0.8000000000000000444 ) ;
#208 = COORDINATED_UNIVERSAL_TIME_OFFSET ( 1, 0, .AHEAD. ) ;
#209 = ORIENTED_EDGE ( 'NONE', *, *, #76, .T. ) ;
#210 = PERSON_AND_ORGANIZATION_ROLE ( 'classification_officer' ) ;
#211 = ORIENTED_EDGE ( 'NONE', *, *, #33, .T. ) ;
#212 = DATE_TIME_ROLE ( 'creation_date' ) ;
#213 = ORIENTED_EDGE ( 'NONE', *, *, #49, .F. ) ;
#214 = SECURITY_CLASSIFICATION ( '', '', #295 ) ;
#215 = CALENDAR_DATE ( 2022, 20, 6 ) ;
#216 = ORIENTED_EDGE ( 'NONE', *, *, #12, .T. ) ;
#217 = DIRECTION ( 'NONE',  ( 0.000000000000000000, 0.000000000000000000, -1.000000000000000000 ) ) ;
#218 = CARTESIAN_POINT ( 'NONE',  ( -0.8000000000000000444, 0.000000000000000000, 1.700000000000007061 ) ) ;
#219 = VECTOR ( 'NONE', #107, 1000.000000000000000 ) ;
#220 = DIRECTION ( 'NONE',  ( -1.000000000000000000, 0.000000000000000000, 0.000000000000000000 ) ) ;
#221 = DIRECTION ( 'NONE',  ( 1.224646799147353207E-16, 1.000000000000000000, -0.000000000000000000 ) ) ;
#222 = ADVANCED_FACE ( 'NONE', ( #268 ), #127, .T. ) ;
#223 = LINE ( 'NONE', #118, #104 ) ;
#224 = AXIS2_PLACEMENT_3D ( 'NONE', #18, #266, #80 ) ;
#225 = DIRECTION ( 'NONE',  ( 0.000000000000000000, 0.000000000000000000, 1.000000000000000000 ) ) ;
#226 = CARTESIAN_POINT ( 'NONE',  ( 0.000000000000000000, 0.000000000000000000, 0.000000000000000000 ) ) ;
#227 = CARTESIAN_POINT ( 'NONE',  ( 0.000000000000000000, 0.000000000000000000, 1.500000000000000000 ) ) ;
#228 = AXIS2_PLACEMENT_3D ( 'NONE', #25, #152, #252 ) ;
#229 = DIRECTION ( 'NONE',  ( 1.000000000000000000, 0.000000000000000000, 0.000000000000000000 ) ) ;
#230 = DIRECTION ( 'NONE',  ( 0.000000000000000000, 0.000000000000000000, 1.000000000000000000 ) ) ;
#231 = PERSON_AND_ORGANIZATION ( #37, #167 ) ;
#232 = CIRCLE ( 'NONE', #42, 0.8000000000000000444 ) ;
#233 = AXIS2_PLACEMENT_3D ( 'NONE', #306, #287, #175 ) ;
#234 = PERSON_AND_ORGANIZATION ( #37, #167 ) ;
#235 = ORIENTED_EDGE ( 'NONE', *, *, #49, .T. ) ;
#236 = AXIS2_PLACEMENT_3D ( 'NONE', #81, #245, #172 ) ;
#237 = ORIENTED_EDGE ( 'NONE', *, *, #181, .F. ) ;
#238 = CC_DESIGN_SECURITY_CLASSIFICATION ( #214, ( #70 ) ) ;
#239 = EDGE_LOOP ( 'NONE', ( #136, #68, #211, #237 ) ) ;
#240 = DIRECTION ( 'NONE',  ( 0.000000000000000000, 0.000000000000000000, 1.000000000000000000 ) ) ;
#241 = DIRECTION ( 'NONE',  ( -0.000000000000000000, -0.000000000000000000, -1.000000000000000000 ) ) ;
#242 = CIRCLE ( 'NONE', #61, 1.500000000000000222 ) ;
#243 = AXIS2_PLACEMENT_3D ( 'NONE', #227, #206, #89 ) ;
#244 = EDGE_CURVE ( 'NONE', #261, #44, #242, .T. ) ;
#245 = DIRECTION ( 'NONE',  ( 0.000000000000000000, 0.000000000000000000, 1.000000000000000000 ) ) ;
#246 = CARTESIAN_POINT ( 'NONE',  ( 1.000000000000000000, 0.000000000000000000, 1.500000000000003553 ) ) ;
#247 = CARTESIAN_POINT ( 'NONE',  ( 0.000000000000000000, 0.000000000000000000, 1.500000000000000000 ) ) ;
#248 = AXIS2_PLACEMENT_3D ( 'NONE', #22, #105, #124 ) ;
#249 = TOROIDAL_SURFACE ( 'NONE', #269, 1.000000000000000000, 0.2000000000000000111 ) ;
#250 = CARTESIAN_POINT ( 'NONE',  ( 0.000000000000000000, 0.000000000000000000, 0.000000000000000000 ) ) ;
#251 = AXIS2_PLACEMENT_3D ( 'NONE', #197, #241, #220 ) ;
#252 = DIRECTION ( 'NONE',  ( -1.000000000000000000, 0.000000000000000000, 0.000000000000000000 ) ) ;
#253 = APPROVAL_DATE_TIME ( #116, #16 ) ;
#254 = EDGE_LOOP ( 'NONE', ( #13, #183, #164, #143 ) ) ;
#255 = VERTEX_POINT ( 'NONE', #30 ) ;
#256 = DATE_AND_TIME ( #113, #142 ) ;
#257 = DATE_AND_TIME ( #215, #188 ) ;
#258 = EDGE_LOOP ( 'NONE', ( #283, #279 ) ) ;
#259 = TOROIDAL_SURFACE ( 'NONE', #248, 1.000000000000000000, 0.2000000000000000111 ) ;
#260 = ADVANCED_FACE ( 'NONE', ( #31 ), #29, .F. ) ;
#261 = VERTEX_POINT ( 'NONE', #57 ) ;
#262 = LINE ( 'NONE', #52, #84 ) ;
#263 = APPROVAL ( #274, 'NEURÈENÝ' ) ;
#264 = FACE_OUTER_BOUND ( 'NONE', #90, .T. ) ;
#265 = FACE_OUTER_BOUND ( 'NONE', #254, .T. ) ;
#266 = DIRECTION ( 'NONE',  ( 0.000000000000000000, 0.000000000000000000, 1.000000000000000000 ) ) ;
#267 = CARTESIAN_POINT ( 'NONE',  ( -1.000000000000000000, 1.224646799147353207E-16, 1.500000000000003553 ) ) ;
#268 = FACE_OUTER_BOUND ( 'NONE', #160, .T. ) ;
#269 = AXIS2_PLACEMENT_3D ( 'NONE', #156, #230, #28 ) ;
#270 = EDGE_CURVE ( 'NONE', #255, #93, #280, .T. ) ;
#271 = FACE_OUTER_BOUND ( 'NONE', #239, .T. ) ;
#272 = CC_DESIGN_PERSON_AND_ORGANIZATION_ASSIGNMENT ( #278, #192, ( #70 ) ) ;
#273 = LOCAL_TIME ( 12, 22, 43.00000000000000000, #8 ) ;
#274 = APPROVAL_STATUS ( 'not_yet_approved' ) ;
#275 = APPROVAL ( #96, 'NEURÈENÝ' ) ;
#276 = ORIENTED_EDGE ( 'NONE', *, *, #54, .F. ) ;
#277 = ORIENTED_EDGE ( 'NONE', *, *, #301, .T. ) ;
#278 = PERSON_AND_ORGANIZATION ( #37, #167 ) ;
#279 = ORIENTED_EDGE ( 'NONE', *, *, #293, .T. ) ;
#280 = CIRCLE ( 'NONE', #289, 1.500000000000000222 ) ;
#281 = PERSON_AND_ORGANIZATION ( #37, #167 ) ;
#282 = ORIENTED_EDGE ( 'NONE', *, *, #168, .T. ) ;
#283 = ORIENTED_EDGE ( 'NONE', *, *, #270, .T. ) ;
#284 = CARTESIAN_POINT ( 'NONE',  ( 0.000000000000000000, 0.000000000000000000, 126.5000000000000000 ) ) ;
#285 = CARTESIAN_POINT ( 'NONE',  ( 1.000000000000000000, 0.000000000000000000, 1.700000000000007061 ) ) ;
#286 = DIRECTION ( 'NONE',  ( -0.000000000000000000, -0.000000000000000000, -1.000000000000000000 ) ) ;
#287 = DIRECTION ( 'NONE',  ( 0.000000000000000000, 0.000000000000000000, 1.000000000000000000 ) ) ;
#288 = AXIS2_PLACEMENT_3D ( 'NONE', #103, #240, #169 ) ;
#289 = AXIS2_PLACEMENT_3D ( 'NONE', #2, #202, #229 ) ;
#290 = ORIENTED_EDGE ( 'NONE', *, *, #187, .T. ) ;
#291 = DIRECTION ( 'NONE',  ( 1.000000000000000000, 0.000000000000000000, 0.000000000000000000 ) ) ;
#292 =( GEOMETRIC_REPRESENTATION_CONTEXT ( 3 ) GLOBAL_UNCERTAINTY_ASSIGNED_CONTEXT ( ( #21 ) ) GLOBAL_UNIT_ASSIGNED_CONTEXT ( ( #53, #180, #204 ) ) REPRESENTATION_CONTEXT ( 'NONE', 'WORKASPACE' ) );
#293 = EDGE_CURVE ( 'NONE', #93, #255, #14, .T. ) ;
#294 = CIRCLE ( 'NONE', #300, 0.2000000000000000944 ) ;
#295 = SECURITY_CLASSIFICATION_LEVEL ( 'unclassified' ) ;
#296 = ORIENTED_EDGE ( 'NONE', *, *, #181, .T. ) ;
#297 = VERTEX_POINT ( 'NONE', #203 ) ;
#298 = ADVANCED_FACE ( 'NONE', ( #271 ), #249, .F. ) ;
#299 = DIRECTION ( 'NONE',  ( -1.000000000000000000, 0.000000000000000000, 0.000000000000000000 ) ) ;
#300 = AXIS2_PLACEMENT_3D ( 'NONE', #285, #302, #217 ) ;
#301 = EDGE_CURVE ( 'NONE', #112, #35, #5, .T. ) ;
#302 = DIRECTION ( 'NONE',  ( 0.000000000000000000, -1.000000000000000000, 0.000000000000000000 ) ) ;
#303 = AXIS2_PLACEMENT_3D ( 'NONE', #1, #86, #158 ) ;
#304 = FACE_OUTER_BOUND ( 'NONE', #39, .T. ) ;
#305 = APPLICATION_CONTEXT ( 'configuration controlled 3d designs of mechanical parts and assemblies' ) ;
#306 = CARTESIAN_POINT ( 'NONE',  ( 0.000000000000000000, 0.000000000000000000, 1.700000000000007061 ) ) ;
#307 = CYLINDRICAL_SURFACE ( 'NONE', #125, 1.500000000000000222 ) ;
ENDSEC;
END-ISO-10303-21;
