ISO-10303-21;
HEADER;
FILE_DESCRIPTION (( 'STEP AP203' ),
    '1' );
FILE_NAME ('1f3e.STEP',
    '2022-06-20T10:25:19',
    ( '' ),
    ( '' ),
    'SwSTEP 2.0',
    'SolidWorks 2019',
    '' );
FILE_SCHEMA (( 'CONFIG_CONTROL_DESIGN' ));
ENDSEC;

DATA;
#1 = EDGE_LOOP ( 'NONE', ( #191, #307, #172, #139 ) ) ;
#2 = MANIFOLD_SOLID_BREP ( 'Zaoblit1', #219 ) ;
#3 = AXIS2_PLACEMENT_3D ( 'NONE', #261, #23, #216 ) ;
#4 = DIRECTION ( 'NONE',  ( 1.000000000000000000, 0.000000000000000000, 0.000000000000000000 ) ) ;
#5 = APPROVAL_PERSON_ORGANIZATION ( #38, #158, #92 ) ;
#6 = PLANE ( 'NONE',  #212 ) ;
#7 = DIRECTION ( 'NONE',  ( -1.000000000000000000, 1.224646799147353454E-16, 0.000000000000000000 ) ) ;
#8 = CARTESIAN_POINT ( 'NONE',  ( -0.5500000000000000444, 0.000000000000000000, 1.399999999999998579 ) ) ;
#9 = EDGE_CURVE ( 'NONE', #194, #279, #19, .T. ) ;
#10 = EDGE_LOOP ( 'NONE', ( #48, #116 ) ) ;
#11 = APPLICATION_PROTOCOL_DEFINITION ( 'international standard', 'config_control_design', 1994, #241 ) ;
#12 = PRODUCT_DEFINITION ( 'NEZNÁMÝ', '', #133, #148 ) ;
#13 = APPROVAL_STATUS ( 'not_yet_approved' ) ;
#14 = ORIENTED_EDGE ( 'NONE', *, *, #9, .T. ) ;
#15 = MECHANICAL_CONTEXT ( 'NONE', #241, 'mechanical' ) ;
#16 = CALENDAR_DATE ( 2022, 20, 6 ) ;
#17 = ORIENTED_EDGE ( 'NONE', *, *, #287, .T. ) ;
#18 = ORIENTED_EDGE ( 'NONE', *, *, #126, .T. ) ;
#19 = CIRCLE ( 'NONE', #103, 1.250000000000000000 ) ;
#20 = FACE_OUTER_BOUND ( 'NONE', #96, .T. ) ;
#21 = ORIENTED_EDGE ( 'NONE', *, *, #306, .F. ) ;
#22 = EDGE_CURVE ( 'NONE', #63, #166, #240, .T. ) ;
#23 = DIRECTION ( 'NONE',  ( -0.000000000000000000, -0.000000000000000000, -1.000000000000000000 ) ) ;
#24 = CIRCLE ( 'NONE', #3, 0.7500000000000000000 ) ;
#25 = ORIENTED_EDGE ( 'NONE', *, *, #173, .F. ) ;
#26 = DATE_TIME_ROLE ( 'classification_date' ) ;
#27 = FACE_OUTER_BOUND ( 'NONE', #61, .T. ) ;
#28 = DIRECTION ( 'NONE',  ( -0.000000000000000000, -0.000000000000000000, -1.000000000000000000 ) ) ;
#29 = DIRECTION ( 'NONE',  ( 0.000000000000000000, 0.000000000000000000, -1.000000000000000000 ) ) ;
#30 = CC_DESIGN_APPROVAL ( #158, ( #133 ) ) ;
#31 = DIRECTION ( 'NONE',  ( 1.000000000000000000, 0.000000000000000000, -0.000000000000000000 ) ) ;
#32 = ADVANCED_FACE ( 'NONE', ( #100 ), #238, .T. ) ;
#33 = CARTESIAN_POINT ( 'NONE',  ( 0.000000000000000000, 0.000000000000000000, 1.199999999999999956 ) ) ;
#34 = DIRECTION ( 'NONE',  ( 0.000000000000000000, 0.000000000000000000, 1.000000000000000000 ) ) ;
#35 = ORIENTED_EDGE ( 'NONE', *, *, #22, .T. ) ;
#36 = CIRCLE ( 'NONE', #146, 1.250000000000000000 ) ;
#37 = EDGE_CURVE ( 'NONE', #183, #283, #24, .T. ) ;
#38 = PERSON_AND_ORGANIZATION ( #205, #91 ) ;
#39 = SHAPE_DEFINITION_REPRESENTATION ( #285, #225 ) ;
#40 =( NAMED_UNIT ( * ) SI_UNIT ( $, .STERADIAN. ) SOLID_ANGLE_UNIT ( ) );
#41 = DIRECTION ( 'NONE',  ( -0.000000000000000000, -0.000000000000000000, -1.000000000000000000 ) ) ;
#42 = DIRECTION ( 'NONE',  ( 0.000000000000000000, 0.000000000000000000, 1.000000000000000000 ) ) ;
#43 = AXIS2_PLACEMENT_3D ( 'NONE', #144, #211, #235 ) ;
#44 = APPLICATION_CONTEXT ( 'configuration controlled 3d designs of mechanical parts and assemblies' ) ;
#45 = APPROVAL_PERSON_ORGANIZATION ( #82, #236, #246 ) ;
#46 = CARTESIAN_POINT ( 'NONE',  ( 0.000000000000000000, 0.000000000000000000, 1.399999999999998579 ) ) ;
#47 = EDGE_CURVE ( 'NONE', #151, #279, #266, .T. ) ;
#48 = ORIENTED_EDGE ( 'NONE', *, *, #267, .T. ) ;
#49 = CARTESIAN_POINT ( 'NONE',  ( -1.250000000000000000, 0.000000000000000000, 1.199999999999999956 ) ) ;
#50 = DIRECTION ( 'NONE',  ( 1.000000000000000000, 0.000000000000000000, 0.000000000000000000 ) ) ;
#51 = CIRCLE ( 'NONE', #98, 0.5500000000000000444 ) ;
#52 = DIRECTION ( 'NONE',  ( -0.000000000000000000, -0.000000000000000000, -1.000000000000000000 ) ) ;
#53 = COORDINATED_UNIVERSAL_TIME_OFFSET ( 1, 0, .AHEAD. ) ;
#54 = CARTESIAN_POINT ( 'NONE',  ( -0.7500000000000000000, 9.184850993605149670E-17, 1.399999999999998579 ) ) ;
#55 = ADVANCED_FACE ( 'NONE', ( #121 ), #188, .T. ) ;
#56 = LINE ( 'NONE', #129, #202 ) ;
#57 = CALENDAR_DATE ( 2022, 20, 6 ) ;
#58 = APPROVAL_STATUS ( 'not_yet_approved' ) ;
#59 = PERSON_AND_ORGANIZATION_ROLE ( 'design_owner' ) ;
#60 = APPROVAL_DATE_TIME ( #204, #111 ) ;
#61 = EDGE_LOOP ( 'NONE', ( #145, #35, #206, #25 ) ) ;
#62 = DIRECTION ( 'NONE',  ( 1.000000000000000000, 0.000000000000000000, 0.000000000000000000 ) ) ;
#63 = VERTEX_POINT ( 'NONE', #99 ) ;
#64 = TOROIDAL_SURFACE ( 'NONE', #242, 0.7500000000000000000, 0.2000000000000000111 ) ;
#65 = ADVANCED_FACE ( 'NONE', ( #20 ), #200, .F. ) ;
#66 = EDGE_LOOP ( 'NONE', ( #124, #18 ) ) ;
#67 = FACE_OUTER_BOUND ( 'NONE', #160, .T. ) ;
#68 = PERSON_AND_ORGANIZATION_ROLE ( 'classification_officer' ) ;
#69 = ADVANCED_FACE ( 'NONE', ( #67 ), #64, .F. ) ;
#70 = ORIENTED_EDGE ( 'NONE', *, *, #180, .F. ) ;
#71 = LOCAL_TIME ( 12, 25, 19.00000000000000000, #53 ) ;
#72 = AXIS2_PLACEMENT_3D ( 'NONE', #296, #165, #255 ) ;
#73 = CARTESIAN_POINT ( 'NONE',  ( 0.000000000000000000, 0.000000000000000000, 0.000000000000000000 ) ) ;
#74 = VERTEX_POINT ( 'NONE', #302 ) ;
#75 = CARTESIAN_POINT ( 'NONE',  ( 0.000000000000000000, 0.000000000000000000, 1.199999999999999956 ) ) ;
#76 = APPROVAL_STATUS ( 'not_yet_approved' ) ;
#77 = DIRECTION ( 'NONE',  ( 1.000000000000000000, 0.000000000000000000, -0.000000000000000000 ) ) ;
#78 = LOCAL_TIME ( 12, 25, 19.00000000000000000, #298 ) ;
#79 = DIRECTION ( 'NONE',  ( 0.000000000000000000, 0.000000000000000000, 1.000000000000000000 ) ) ;
#80 = DIRECTION ( 'NONE',  ( 1.000000000000000000, 0.000000000000000000, 0.000000000000000000 ) ) ;
#81 = EDGE_CURVE ( 'NONE', #166, #183, #137, .T. ) ;
#82 = PERSON_AND_ORGANIZATION ( #205, #91 ) ;
#83 = VECTOR ( 'NONE', #174, 1000.000000000000000 ) ;
#84 = CARTESIAN_POINT ( 'NONE',  ( 0.000000000000000000, 0.000000000000000000, 1.199999999999999956 ) ) ;
#85 = AXIS2_PLACEMENT_3D ( 'NONE', #84, #52, #293 ) ;
#86 = COORDINATED_UNIVERSAL_TIME_OFFSET ( 1, 0, .AHEAD. ) ;
#87 = AXIS2_PLACEMENT_3D ( 'NONE', #262, #42, #215 ) ;
#88 = AXIS2_PLACEMENT_3D ( 'NONE', #245, #179, #29 ) ;
#89 = DATE_TIME_ROLE ( 'creation_date' ) ;
#90 = VERTEX_POINT ( 'NONE', #8 ) ;
#91 = ORGANIZATION ( 'NEURÈENÝ', 'NEURÈENÝ', '' ) ;
#92 = APPROVAL_ROLE ( '' ) ;
#93 = EDGE_LOOP ( 'NONE', ( #123, #21, #265, #17 ) ) ;
#94 = DIRECTION ( 'NONE',  ( 1.000000000000000000, 0.000000000000000000, 0.000000000000000000 ) ) ;
#95 = ADVANCED_FACE ( 'NONE', ( #27 ), #156, .T. ) ;
#96 = EDGE_LOOP ( 'NONE', ( #234, #193, #228, #102 ) ) ;
#97 = CIRCLE ( 'NONE', #269, 0.1999999999999999833 ) ;
#98 = AXIS2_PLACEMENT_3D ( 'NONE', #195, #222, #153 ) ;
#99 = CARTESIAN_POINT ( 'NONE',  ( 0.5500000000000000444, 6.735557395310442516E-17, 101.2000000000000171 ) ) ;
#100 = FACE_OUTER_BOUND ( 'NONE', #93, .T. ) ;
#101 = PERSON_AND_ORGANIZATION ( #205, #91 ) ;
#102 = ORIENTED_EDGE ( 'NONE', *, *, #81, .F. ) ;
#103 = AXIS2_PLACEMENT_3D ( 'NONE', #73, #149, #170 ) ;
#104 = CIRCLE ( 'NONE', #231, 1.250000000000000000 ) ;
#105 = CARTESIAN_POINT ( 'NONE',  ( 0.000000000000000000, 0.000000000000000000, 101.2000000000000171 ) ) ;
#106 = VERTEX_POINT ( 'NONE', #220 ) ;
#107 = CC_DESIGN_PERSON_AND_ORGANIZATION_ASSIGNMENT ( #210, #282, ( #133 ) ) ;
#108 = DIRECTION ( 'NONE',  ( -0.000000000000000000, -0.000000000000000000, -1.000000000000000000 ) ) ;
#109 = DIRECTION ( 'NONE',  ( -1.000000000000000000, 0.000000000000000000, 0.000000000000000000 ) ) ;
#110 = AXIS2_PLACEMENT_3D ( 'NONE', #163, #34, #94 ) ;
#111 = APPROVAL ( #13, 'NEURÈENÝ' ) ;
#112 = DIRECTION ( 'NONE',  ( 1.000000000000000000, 0.000000000000000000, 0.000000000000000000 ) ) ;
#113 = DIRECTION ( 'NONE',  ( 1.000000000000000000, 0.000000000000000000, 0.000000000000000000 ) ) ;
#114 = CARTESIAN_POINT ( 'NONE',  ( 0.000000000000000000, 0.000000000000000000, 1.199999999999999956 ) ) ;
#115 = AXIS2_PLACEMENT_3D ( 'NONE', #218, #154, #109 ) ;
#116 = ORIENTED_EDGE ( 'NONE', *, *, #258, .T. ) ;
#117 = APPROVAL_PERSON_ORGANIZATION ( #275, #111, #208 ) ;
#118 = ADVANCED_FACE ( 'NONE', ( #197 ), #294, .T. ) ;
#119 = PERSON_AND_ORGANIZATION_ROLE ( 'creator' ) ;
#120 = ORIENTED_EDGE ( 'NONE', *, *, #150, .T. ) ;
#121 = FACE_OUTER_BOUND ( 'NONE', #141, .T. ) ;
#122 = LOCAL_TIME ( 12, 25, 19.00000000000000000, #86 ) ;
#123 = ORIENTED_EDGE ( 'NONE', *, *, #22, .F. ) ;
#124 = ORIENTED_EDGE ( 'NONE', *, *, #37, .T. ) ;
#125 = VECTOR ( 'NONE', #28, 1000.000000000000000 ) ;
#126 = EDGE_CURVE ( 'NONE', #283, #183, #131, .T. ) ;
#127 = ORIENTED_EDGE ( 'NONE', *, *, #81, .T. ) ;
#128 = FACE_BOUND ( 'NONE', #66, .T. ) ;
#129 = CARTESIAN_POINT ( 'NONE',  ( -0.5500000000000000444, 0.000000000000000000, 101.2000000000000171 ) ) ;
#130 = CC_DESIGN_PERSON_AND_ORGANIZATION_ASSIGNMENT ( #181, #295, ( #12 ) ) ;
#131 = CIRCLE ( 'NONE', #85, 0.7500000000000000000 ) ;
#132 = LINE ( 'NONE', #251, #125 ) ;
#133 = PRODUCT_DEFINITION_FORMATION_WITH_SPECIFIED_SOURCE ( 'LIBOVOLNÝ', '', #169, .NOT_KNOWN. ) ;
#134 = CARTESIAN_POINT ( 'NONE',  ( 0.000000000000000000, 0.000000000000000000, 0.000000000000000000 ) ) ;
#135 = DIRECTION ( 'NONE',  ( -0.000000000000000000, -0.000000000000000000, -1.000000000000000000 ) ) ;
#136 = VECTOR ( 'NONE', #41, 1000.000000000000000 ) ;
#137 = CIRCLE ( 'NONE', #88, 0.2000000000000000944 ) ;
#138 = CARTESIAN_POINT ( 'NONE',  ( -0.7500000000000000000, 9.184850993605149670E-17, 1.199999999999999289 ) ) ;
#139 = ORIENTED_EDGE ( 'NONE', *, *, #180, .T. ) ;
#140 = AXIS2_PLACEMENT_3D ( 'NONE', #155, #253, #159 ) ;
#141 = EDGE_LOOP ( 'NONE', ( #286, #230 ) ) ;
#142 = EDGE_CURVE ( 'NONE', #166, #90, #186, .T. ) ;
#143 = SECURITY_CLASSIFICATION ( '', '', #305 ) ;
#144 = CARTESIAN_POINT ( 'NONE',  ( 0.000000000000000000, 0.000000000000000000, 101.2000000000000171 ) ) ;
#145 = ORIENTED_EDGE ( 'NONE', *, *, #190, .F. ) ;
#146 = AXIS2_PLACEMENT_3D ( 'NONE', #33, #79, #113 ) ;
#147 = CARTESIAN_POINT ( 'NONE',  ( 0.5500000000000000444, 6.735557395310442516E-17, 101.2000000000000171 ) ) ;
#148 = DESIGN_CONTEXT ( 'detailed design', #44, 'design' ) ;
#149 = DIRECTION ( 'NONE',  ( 0.000000000000000000, 0.000000000000000000, 1.000000000000000000 ) ) ;
#150 = EDGE_CURVE ( 'NONE', #106, #194, #132, .T. ) ;
#151 = VERTEX_POINT ( 'NONE', #252 ) ;
#152 = AXIS2_PLACEMENT_3D ( 'NONE', #134, #288, #4 ) ;
#153 = DIRECTION ( 'NONE',  ( 1.000000000000000000, 0.000000000000000000, 0.000000000000000000 ) ) ;
#154 = DIRECTION ( 'NONE',  ( -0.000000000000000000, -0.000000000000000000, -1.000000000000000000 ) ) ;
#155 = CARTESIAN_POINT ( 'NONE',  ( 0.000000000000000000, 0.000000000000000000, 1.199999999999999956 ) ) ;
#156 = CYLINDRICAL_SURFACE ( 'NONE', #284, 0.5500000000000000444 ) ;
#157 = FACE_OUTER_BOUND ( 'NONE', #244, .T. ) ;
#158 = APPROVAL ( #58, 'NEURÈENÝ' ) ;
#159 = DIRECTION ( 'NONE',  ( -1.000000000000000000, 0.000000000000000000, 0.000000000000000000 ) ) ;
#160 = EDGE_LOOP ( 'NONE', ( #171, #187, #127, #217 ) ) ;
#161 = DIRECTION ( 'NONE',  ( 0.000000000000000000, 0.000000000000000000, 1.000000000000000000 ) ) ;
#162 = LOCAL_TIME ( 12, 25, 19.00000000000000000, #303 ) ;
#163 = CARTESIAN_POINT ( 'NONE',  ( 0.000000000000000000, 0.000000000000000000, 0.000000000000000000 ) ) ;
#164 = ADVANCED_FACE ( 'NONE', ( #128, #178 ), #226, .T. ) ;
#165 = DIRECTION ( 'NONE',  ( 0.000000000000000000, 0.000000000000000000, 1.000000000000000000 ) ) ;
#166 = VERTEX_POINT ( 'NONE', #270 ) ;
#167 = AXIS2_PLACEMENT_3D ( 'NONE', #114, #292, #31 ) ;
#168 = DIRECTION ( 'NONE',  ( -0.000000000000000000, -0.000000000000000000, -1.000000000000000000 ) ) ;
#169 = PRODUCT ( '1f3e', '1f3e', '', ( #15 ) ) ;
#170 = DIRECTION ( 'NONE',  ( 1.000000000000000000, 0.000000000000000000, 0.000000000000000000 ) ) ;
#171 = ORIENTED_EDGE ( 'NONE', *, *, #232, .F. ) ;
#172 = ORIENTED_EDGE ( 'NONE', *, *, #47, .T. ) ;
#173 = EDGE_CURVE ( 'NONE', #74, #90, #56, .T. ) ;
#174 = DIRECTION ( 'NONE',  ( -0.000000000000000000, -0.000000000000000000, -1.000000000000000000 ) ) ;
#175 = DIRECTION ( 'NONE',  ( 0.000000000000000000, 0.000000000000000000, 1.000000000000000000 ) ) ;
#176 = CARTESIAN_POINT ( 'NONE',  ( -1.250000000000000000, 0.000000000000000000, 0.000000000000000000 ) ) ;
#177 = FACE_OUTER_BOUND ( 'NONE', #301, .T. ) ;
#178 = FACE_OUTER_BOUND ( 'NONE', #10, .T. ) ;
#179 = DIRECTION ( 'NONE',  ( 0.000000000000000000, -1.000000000000000000, 0.000000000000000000 ) ) ;
#180 = EDGE_CURVE ( 'NONE', #279, #194, #281, .T. ) ;
#181 = PERSON_AND_ORGANIZATION ( #205, #91 ) ;
#182 = APPROVAL_DATE_TIME ( #203, #236 ) ;
#183 = VERTEX_POINT ( 'NONE', #198 ) ;
#184 = CC_DESIGN_APPROVAL ( #111, ( #12 ) ) ;
#185 = CALENDAR_DATE ( 2022, 20, 6 ) ;
#186 = CIRCLE ( 'NONE', #259, 0.5500000000000000444 ) ;
#187 = ORIENTED_EDGE ( 'NONE', *, *, #142, .F. ) ;
#188 = PLANE ( 'NONE',  #43 ) ;
#189 = CALENDAR_DATE ( 2022, 20, 6 ) ;
#190 = EDGE_CURVE ( 'NONE', #63, #74, #51, .T. ) ;
#191 = ORIENTED_EDGE ( 'NONE', *, *, #150, .F. ) ;
#192 = PERSON_AND_ORGANIZATION ( #205, #91 ) ;
#193 = ORIENTED_EDGE ( 'NONE', *, *, #232, .T. ) ;
#194 = VERTEX_POINT ( 'NONE', #272 ) ;
#195 = CARTESIAN_POINT ( 'NONE',  ( 0.000000000000000000, 0.000000000000000000, 101.2000000000000171 ) ) ;
#196 = CARTESIAN_POINT ( 'NONE',  ( 0.000000000000000000, 0.000000000000000000, 0.000000000000000000 ) ) ;
#197 = FACE_OUTER_BOUND ( 'NONE', #1, .T. ) ;
#198 = CARTESIAN_POINT ( 'NONE',  ( 0.7500000000000000000, 0.000000000000000000, 1.199999999999999289 ) ) ;
#199 = CC_DESIGN_DATE_AND_TIME_ASSIGNMENT ( #239, #26, ( #143 ) ) ;
#200 = TOROIDAL_SURFACE ( 'NONE', #87, 0.7500000000000000000, 0.2000000000000000111 ) ;
#201 = CALENDAR_DATE ( 2022, 20, 6 ) ;
#202 = VECTOR ( 'NONE', #135, 1000.000000000000000 ) ;
#203 = DATE_AND_TIME ( #57, #71 ) ;
#204 = DATE_AND_TIME ( #16, #249 ) ;
#205 = PERSON ( 'NEURÈENÝ', 'NEURÈENÝ', 'NEURÈENÝ', ('NEURÈENÝ'), ('NEURÈENÝ'), ('NEURÈENÝ') ) ;
#206 = ORIENTED_EDGE ( 'NONE', *, *, #142, .T. ) ;
#207 = CC_DESIGN_APPROVAL ( #236, ( #143 ) ) ;
#208 = APPROVAL_ROLE ( '' ) ;
#209 = CC_DESIGN_PERSON_AND_ORGANIZATION_ASSIGNMENT ( #229, #59, ( #169 ) ) ;
#210 = PERSON_AND_ORGANIZATION ( #205, #91 ) ;
#211 = DIRECTION ( 'NONE',  ( 0.000000000000000000, 0.000000000000000000, 1.000000000000000000 ) ) ;
#212 = AXIS2_PLACEMENT_3D ( 'NONE', #196, #289, #77 ) ;
#213 = ADVANCED_FACE ( 'NONE', ( #157 ), #6, .F. ) ;
#214 = APPROVAL_DATE_TIME ( #243, #158 ) ;
#215 = DIRECTION ( 'NONE',  ( 1.000000000000000000, 0.000000000000000000, 0.000000000000000000 ) ) ;
#216 = DIRECTION ( 'NONE',  ( 1.000000000000000000, 0.000000000000000000, 0.000000000000000000 ) ) ;
#217 = ORIENTED_EDGE ( 'NONE', *, *, #126, .F. ) ;
#218 = CARTESIAN_POINT ( 'NONE',  ( 0.000000000000000000, 0.000000000000000000, 1.199999999999999956 ) ) ;
#219 = CLOSED_SHELL ( 'NONE', ( #65, #95, #280, #118, #164, #213, #32, #55, #69 ) ) ;
#220 = CARTESIAN_POINT ( 'NONE',  ( 1.250000000000000000, 1.530808498934191571E-16, 1.199999999999999956 ) ) ;
#221 = CIRCLE ( 'NONE', #72, 0.5500000000000000444 ) ;
#222 = DIRECTION ( 'NONE',  ( 0.000000000000000000, 0.000000000000000000, 1.000000000000000000 ) ) ;
#223 = CC_DESIGN_PERSON_AND_ORGANIZATION_ASSIGNMENT ( #101, #119, ( #133 ) ) ;
#224 = DIRECTION ( 'NONE',  ( 1.224646799147353207E-16, 1.000000000000000000, -0.000000000000000000 ) ) ;
#225 = ADVANCED_BREP_SHAPE_REPRESENTATION ( '1f3e', ( #2, #110 ), #299 ) ;
#226 = PLANE ( 'NONE',  #167 ) ;
#227 = APPLICATION_PROTOCOL_DEFINITION ( 'international standard', 'config_control_design', 1994, #44 ) ;
#228 = ORIENTED_EDGE ( 'NONE', *, *, #37, .F. ) ;
#229 = PERSON_AND_ORGANIZATION ( #205, #91 ) ;
#230 = ORIENTED_EDGE ( 'NONE', *, *, #190, .T. ) ;
#231 = AXIS2_PLACEMENT_3D ( 'NONE', #75, #175, #50 ) ;
#232 = EDGE_CURVE ( 'NONE', #90, #283, #97, .T. ) ;
#233 = COORDINATED_UNIVERSAL_TIME_OFFSET ( 1, 0, .AHEAD. ) ;
#234 = ORIENTED_EDGE ( 'NONE', *, *, #287, .F. ) ;
#235 = DIRECTION ( 'NONE',  ( 1.000000000000000000, 0.000000000000000000, -0.000000000000000000 ) ) ;
#236 = APPROVAL ( #76, 'NEURÈENÝ' ) ;
#237 = AXIS2_PLACEMENT_3D ( 'NONE', #277, #161, #62 ) ;
#238 = CYLINDRICAL_SURFACE ( 'NONE', #276, 0.5500000000000000444 ) ;
#239 = DATE_AND_TIME ( #189, #162 ) ;
#240 = LINE ( 'NONE', #147, #83 ) ;
#241 = APPLICATION_CONTEXT ( 'configuration controlled 3d designs of mechanical parts and assemblies' ) ;
#242 = AXIS2_PLACEMENT_3D ( 'NONE', #46, #304, #112 ) ;
#243 = DATE_AND_TIME ( #185, #78 ) ;
#244 = EDGE_LOOP ( 'NONE', ( #70, #260 ) ) ;
#245 = CARTESIAN_POINT ( 'NONE',  ( 0.7500000000000000000, 0.000000000000000000, 1.399999999999998579 ) ) ;
#246 = APPROVAL_ROLE ( '' ) ;
#247 = CARTESIAN_POINT ( 'NONE',  ( 0.000000000000000000, 0.000000000000000000, 1.399999999999998579 ) ) ;
#248 = DIRECTION ( 'NONE',  ( -1.000000000000000000, 0.000000000000000000, 0.000000000000000000 ) ) ;
#249 = LOCAL_TIME ( 12, 25, 19.00000000000000000, #233 ) ;
#250 = PRODUCT_RELATED_PRODUCT_CATEGORY ( 'detail', '', ( #169 ) ) ;
#251 = CARTESIAN_POINT ( 'NONE',  ( 1.250000000000000000, 1.530808498934191571E-16, 1.199999999999999956 ) ) ;
#252 = CARTESIAN_POINT ( 'NONE',  ( -1.250000000000000000, 0.000000000000000000, 1.199999999999999956 ) ) ;
#253 = DIRECTION ( 'NONE',  ( -0.000000000000000000, -0.000000000000000000, -1.000000000000000000 ) ) ;
#254 = ORIENTED_EDGE ( 'NONE', *, *, #258, .F. ) ;
#255 = DIRECTION ( 'NONE',  ( 1.000000000000000000, 0.000000000000000000, 0.000000000000000000 ) ) ;
#256 =( LENGTH_UNIT ( ) NAMED_UNIT ( * ) SI_UNIT ( .MILLI., .METRE. ) );
#257 =( NAMED_UNIT ( * ) PLANE_ANGLE_UNIT ( ) SI_UNIT ( $, .RADIAN. ) );
#258 = EDGE_CURVE ( 'NONE', #106, #151, #36, .T. ) ;
#259 = AXIS2_PLACEMENT_3D ( 'NONE', #247, #273, #80 ) ;
#260 = ORIENTED_EDGE ( 'NONE', *, *, #9, .F. ) ;
#261 = CARTESIAN_POINT ( 'NONE',  ( 0.000000000000000000, 0.000000000000000000, 1.199999999999999956 ) ) ;
#262 = CARTESIAN_POINT ( 'NONE',  ( 0.000000000000000000, 0.000000000000000000, 1.399999999999998579 ) ) ;
#263 = DIRECTION ( 'NONE',  ( -1.000000000000000000, 0.000000000000000000, 0.000000000000000000 ) ) ;
#264 = UNCERTAINTY_MEASURE_WITH_UNIT (LENGTH_MEASURE( 1.000000000000000082E-05 ), #256, 'distance_accuracy_value', 'NONE');
#265 = ORIENTED_EDGE ( 'NONE', *, *, #173, .T. ) ;
#266 = LINE ( 'NONE', #49, #136 ) ;
#267 = EDGE_CURVE ( 'NONE', #151, #106, #104, .T. ) ;
#268 = CARTESIAN_POINT ( 'NONE',  ( 0.000000000000000000, 0.000000000000000000, 101.2000000000000171 ) ) ;
#269 = AXIS2_PLACEMENT_3D ( 'NONE', #54, #224, #7 ) ;
#270 = CARTESIAN_POINT ( 'NONE',  ( 0.5500000000000000444, 6.735557395310442516E-17, 1.399999999999998579 ) ) ;
#271 = CYLINDRICAL_SURFACE ( 'NONE', #140, 1.250000000000000000 ) ;
#272 = CARTESIAN_POINT ( 'NONE',  ( 1.250000000000000000, 1.530808498934191571E-16, 0.000000000000000000 ) ) ;
#273 = DIRECTION ( 'NONE',  ( 0.000000000000000000, 0.000000000000000000, 1.000000000000000000 ) ) ;
#274 = DATE_AND_TIME ( #201, #122 ) ;
#275 = PERSON_AND_ORGANIZATION ( #205, #91 ) ;
#276 = AXIS2_PLACEMENT_3D ( 'NONE', #105, #168, #263 ) ;
#277 = CARTESIAN_POINT ( 'NONE',  ( 0.000000000000000000, 0.000000000000000000, 1.399999999999998579 ) ) ;
#278 = CIRCLE ( 'NONE', #237, 0.5500000000000000444 ) ;
#279 = VERTEX_POINT ( 'NONE', #176 ) ;
#280 = ADVANCED_FACE ( 'NONE', ( #177 ), #271, .T. ) ;
#281 = CIRCLE ( 'NONE', #152, 1.250000000000000000 ) ;
#282 = PERSON_AND_ORGANIZATION_ROLE ( 'design_supplier' ) ;
#283 = VERTEX_POINT ( 'NONE', #138 ) ;
#284 = AXIS2_PLACEMENT_3D ( 'NONE', #268, #108, #248 ) ;
#285 = PRODUCT_DEFINITION_SHAPE ( 'NONE', 'NONE',  #12 ) ;
#286 = ORIENTED_EDGE ( 'NONE', *, *, #306, .T. ) ;
#287 = EDGE_CURVE ( 'NONE', #90, #166, #278, .T. ) ;
#288 = DIRECTION ( 'NONE',  ( 0.000000000000000000, 0.000000000000000000, 1.000000000000000000 ) ) ;
#289 = DIRECTION ( 'NONE',  ( 0.000000000000000000, 0.000000000000000000, 1.000000000000000000 ) ) ;
#290 = CC_DESIGN_SECURITY_CLASSIFICATION ( #143, ( #133 ) ) ;
#291 = CC_DESIGN_PERSON_AND_ORGANIZATION_ASSIGNMENT ( #192, #68, ( #143 ) ) ;
#292 = DIRECTION ( 'NONE',  ( 0.000000000000000000, 0.000000000000000000, 1.000000000000000000 ) ) ;
#293 = DIRECTION ( 'NONE',  ( 1.000000000000000000, 0.000000000000000000, 0.000000000000000000 ) ) ;
#294 = CYLINDRICAL_SURFACE ( 'NONE', #115, 1.250000000000000000 ) ;
#295 = PERSON_AND_ORGANIZATION_ROLE ( 'creator' ) ;
#296 = CARTESIAN_POINT ( 'NONE',  ( 0.000000000000000000, 0.000000000000000000, 101.2000000000000171 ) ) ;
#297 = CC_DESIGN_DATE_AND_TIME_ASSIGNMENT ( #274, #89, ( #12 ) ) ;
#298 = COORDINATED_UNIVERSAL_TIME_OFFSET ( 1, 0, .AHEAD. ) ;
#299 =( GEOMETRIC_REPRESENTATION_CONTEXT ( 3 ) GLOBAL_UNCERTAINTY_ASSIGNED_CONTEXT ( ( #264 ) ) GLOBAL_UNIT_ASSIGNED_CONTEXT ( ( #256, #257, #40 ) ) REPRESENTATION_CONTEXT ( 'NONE', 'WORKASPACE' ) );
#300 = ORIENTED_EDGE ( 'NONE', *, *, #47, .F. ) ;
#301 = EDGE_LOOP ( 'NONE', ( #254, #120, #14, #300 ) ) ;
#302 = CARTESIAN_POINT ( 'NONE',  ( -0.5500000000000000444, 0.000000000000000000, 101.2000000000000171 ) ) ;
#303 = COORDINATED_UNIVERSAL_TIME_OFFSET ( 1, 0, .AHEAD. ) ;
#304 = DIRECTION ( 'NONE',  ( 0.000000000000000000, 0.000000000000000000, 1.000000000000000000 ) ) ;
#305 = SECURITY_CLASSIFICATION_LEVEL ( 'unclassified' ) ;
#306 = EDGE_CURVE ( 'NONE', #74, #63, #221, .T. ) ;
#307 = ORIENTED_EDGE ( 'NONE', *, *, #267, .F. ) ;
ENDSEC;
END-ISO-10303-21;
