ISO-10303-21;
HEADER;
FILE_DESCRIPTION (( 'STEP AP203' ),
    '1' );
FILE_NAME ('5751.STEP',
    '2022-06-20T09:47:00',
    ( '' ),
    ( '' ),
    'SwSTEP 2.0',
    'SolidWorks 2019',
    '' );
FILE_SCHEMA (( 'CONFIG_CONTROL_DESIGN' ));
ENDSEC;

DATA;
#1 = ORIENTED_EDGE ( 'NONE', *, *, #266, .T. ) ;
#2 = AXIS2_PLACEMENT_3D ( 'NONE', #209, #259, #75 ) ;
#3 = EDGE_LOOP ( 'NONE', ( #20, #203, #283, #45 ) ) ;
#4 = DIRECTION ( 'NONE',  ( 0.000000000000000000, -1.000000000000000000, 0.000000000000000000 ) ) ;
#5 = EDGE_CURVE ( 'NONE', #279, #89, #199, .T. ) ;
#6 = CARTESIAN_POINT ( 'NONE',  ( 0.000000000000000000, 0.000000000000000000, 5.000000000000000000 ) ) ;
#7 = DIRECTION ( 'NONE',  ( 1.000000000000000000, 0.000000000000000000, 0.000000000000000000 ) ) ;
#8 = EDGE_CURVE ( 'NONE', #177, #39, #158, .T. ) ;
#9 = AXIS2_PLACEMENT_3D ( 'NONE', #124, #289, #84 ) ;
#10 = CARTESIAN_POINT ( 'NONE',  ( 0.000000000000000000, 0.000000000000000000, 255.0000000000000000 ) ) ;
#11 = FACE_OUTER_BOUND ( 'NONE', #3, .T. ) ;
#12 = ADVANCED_FACE ( 'NONE', ( #165, #232 ), #143, .T. ) ;
#13 = CARTESIAN_POINT ( 'NONE',  ( 7.000000000000000000, 8.572527594031473190E-16, 5.000000000000000000 ) ) ;
#14 = EDGE_CURVE ( 'NONE', #279, #177, #135, .T. ) ;
#15 = ORIENTED_EDGE ( 'NONE', *, *, #64, .F. ) ;
#16 = CALENDAR_DATE ( 2022, 20, 6 ) ;
#17 = DIRECTION ( 'NONE',  ( -0.000000000000000000, -0.000000000000000000, -1.000000000000000000 ) ) ;
#18 = ORIENTED_EDGE ( 'NONE', *, *, #72, .F. ) ;
#19 = COORDINATED_UNIVERSAL_TIME_OFFSET ( 1, 0, .AHEAD. ) ;
#20 = ORIENTED_EDGE ( 'NONE', *, *, #5, .F. ) ;
#21 = DATE_AND_TIME ( #16, #56 ) ;
#22 = DIRECTION ( 'NONE',  ( 0.000000000000000000, 0.000000000000000000, 1.000000000000000000 ) ) ;
#23 = PERSON_AND_ORGANIZATION ( #160, #295 ) ;
#24 = DIRECTION ( 'NONE',  ( 0.000000000000000000, 0.000000000000000000, 1.000000000000000000 ) ) ;
#25 = DATE_AND_TIME ( #145, #235 ) ;
#26 = CARTESIAN_POINT ( 'NONE',  ( 0.000000000000000000, 0.000000000000000000, 0.000000000000000000 ) ) ;
#27 = PLANE ( 'NONE',  #102 ) ;
#28 = ADVANCED_FACE ( 'NONE', ( #71 ), #78, .T. ) ;
#29 = APPROVAL_STATUS ( 'not_yet_approved' ) ;
#30 = LINE ( 'NONE', #216, #234 ) ;
#31 = CARTESIAN_POINT ( 'NONE',  ( -4.099999999999999645, 0.000000000000000000, 255.0000000000000000 ) ) ;
#32 = CARTESIAN_POINT ( 'NONE',  ( 0.000000000000000000, 0.000000000000000000, 5.200000000000009948 ) ) ;
#33 = EDGE_LOOP ( 'NONE', ( #15, #157, #247, #214 ) ) ;
#34 = EDGE_CURVE ( 'NONE', #201, #181, #142, .T. ) ;
#35 = DIRECTION ( 'NONE',  ( -0.000000000000000000, -0.000000000000000000, -1.000000000000000000 ) ) ;
#36 = ORIENTED_EDGE ( 'NONE', *, *, #126, .T. ) ;
#37 =( GEOMETRIC_REPRESENTATION_CONTEXT ( 3 ) GLOBAL_UNCERTAINTY_ASSIGNED_CONTEXT ( ( #63 ) ) GLOBAL_UNIT_ASSIGNED_CONTEXT ( ( #134, #95, #278 ) ) REPRESENTATION_CONTEXT ( 'NONE', 'WORKASPACE' ) );
#38 = PRODUCT_RELATED_PRODUCT_CATEGORY ( 'detail', '', ( #49 ) ) ;
#39 = VERTEX_POINT ( 'NONE', #231 ) ;
#40 = AXIS2_PLACEMENT_3D ( 'NONE', #159, #207, #215 ) ;
#41 = APPLICATION_PROTOCOL_DEFINITION ( 'international standard', 'config_control_design', 1994, #55 ) ;
#42 = DESIGN_CONTEXT ( 'detailed design', #74, 'design' ) ;
#43 = DIRECTION ( 'NONE',  ( 1.000000000000000000, 0.000000000000000000, -0.000000000000000000 ) ) ;
#44 = AXIS2_PLACEMENT_3D ( 'NONE', #206, #113, #280 ) ;
#45 = ORIENTED_EDGE ( 'NONE', *, *, #266, .F. ) ;
#46 = APPROVAL ( #182, 'NEURÈENÝ' ) ;
#47 = APPROVAL_ROLE ( '' ) ;
#48 = EDGE_LOOP ( 'NONE', ( #211, #18, #58, #197 ) ) ;
#49 = PRODUCT ( '5751', '5751', '', ( #302 ) ) ;
#50 = ORIENTED_EDGE ( 'NONE', *, *, #152, .F. ) ;
#51 = COORDINATED_UNIVERSAL_TIME_OFFSET ( 1, 0, .AHEAD. ) ;
#52 = ADVANCED_FACE ( 'NONE', ( #121 ), #115, .F. ) ;
#53 = DIRECTION ( 'NONE',  ( -0.000000000000000000, -0.000000000000000000, -1.000000000000000000 ) ) ;
#54 = DIRECTION ( 'NONE',  ( 0.000000000000000000, 0.000000000000000000, 1.000000000000000000 ) ) ;
#55 = APPLICATION_CONTEXT ( 'configuration controlled 3d designs of mechanical parts and assemblies' ) ;
#56 = LOCAL_TIME ( 11, 47, 0.000000000000000000, #19 ) ;
#57 = PRODUCT_DEFINITION_SHAPE ( 'NONE', 'NONE',  #304 ) ;
#58 = ORIENTED_EDGE ( 'NONE', *, *, #107, .T. ) ;
#59 = AXIS2_PLACEMENT_3D ( 'NONE', #284, #22, #43 ) ;
#60 = DIRECTION ( 'NONE',  ( 1.000000000000000000, 0.000000000000000000, -0.000000000000000000 ) ) ;
#61 = EDGE_LOOP ( 'NONE', ( #258, #110 ) ) ;
#62 = AXIS2_PLACEMENT_3D ( 'NONE', #128, #108, #86 ) ;
#63 = UNCERTAINTY_MEASURE_WITH_UNIT (LENGTH_MEASURE( 1.000000000000000082E-05 ), #134, 'distance_accuracy_value', 'NONE');
#64 = EDGE_CURVE ( 'NONE', #171, #243, #219, .T. ) ;
#65 = CARTESIAN_POINT ( 'NONE',  ( 0.000000000000000000, 0.000000000000000000, 255.0000000000000000 ) ) ;
#66 = FACE_OUTER_BOUND ( 'NONE', #99, .T. ) ;
#67 = APPROVAL_ROLE ( '' ) ;
#68 = CARTESIAN_POINT ( 'NONE',  ( 0.000000000000000000, 0.000000000000000000, 5.200000000000009948 ) ) ;
#69 = APPROVAL_DATE_TIME ( #21, #153 ) ;
#70 = ADVANCED_FACE ( 'NONE', ( #66 ), #252, .T. ) ;
#71 = FACE_OUTER_BOUND ( 'NONE', #33, .T. ) ;
#72 = EDGE_CURVE ( 'NONE', #243, #171, #271, .T. ) ;
#73 = AXIS2_PLACEMENT_3D ( 'NONE', #172, #298, #248 ) ;
#74 = APPLICATION_CONTEXT ( 'configuration controlled 3d designs of mechanical parts and assemblies' ) ;
#75 = DIRECTION ( 'NONE',  ( -1.000000000000000000, 1.224646799147353454E-16, 0.000000000000000000 ) ) ;
#76 = CC_DESIGN_DATE_AND_TIME_ASSIGNMENT ( #25, #261, ( #296 ) ) ;
#77 = PERSON_AND_ORGANIZATION ( #160, #295 ) ;
#78 = CYLINDRICAL_SURFACE ( 'NONE', #294, 7.000000000000000000 ) ;
#79 = AXIS2_PLACEMENT_3D ( 'NONE', #32, #275, #168 ) ;
#80 = CYLINDRICAL_SURFACE ( 'NONE', #282, 4.099999999999999645 ) ;
#81 = ADVANCED_FACE ( 'NONE', ( #170 ), #27, .T. ) ;
#82 = VECTOR ( 'NONE', #238, 1000.000000000000000 ) ;
#83 = CC_DESIGN_APPROVAL ( #155, ( #296 ) ) ;
#84 = DIRECTION ( 'NONE',  ( 1.000000000000000000, 0.000000000000000000, 0.000000000000000000 ) ) ;
#85 = EDGE_LOOP ( 'NONE', ( #50, #260, #87, #230 ) ) ;
#86 = DIRECTION ( 'NONE',  ( 1.000000000000000000, 0.000000000000000000, 0.000000000000000000 ) ) ;
#87 = ORIENTED_EDGE ( 'NONE', *, *, #241, .T. ) ;
#88 = DIRECTION ( 'NONE',  ( -0.000000000000000000, -0.000000000000000000, -1.000000000000000000 ) ) ;
#89 = VERTEX_POINT ( 'NONE', #222 ) ;
#90 = PERSON_AND_ORGANIZATION ( #160, #295 ) ;
#91 = EDGE_LOOP ( 'NONE', ( #136, #273 ) ) ;
#92 = COORDINATED_UNIVERSAL_TIME_OFFSET ( 1, 0, .AHEAD. ) ;
#93 = PERSON_AND_ORGANIZATION_ROLE ( 'design_owner' ) ;
#94 = DIRECTION ( 'NONE',  ( -0.000000000000000000, -0.000000000000000000, -1.000000000000000000 ) ) ;
#95 =( NAMED_UNIT ( * ) PLANE_ANGLE_UNIT ( ) SI_UNIT ( $, .RADIAN. ) );
#96 = CARTESIAN_POINT ( 'NONE',  ( 4.299999999999998934, 0.000000000000000000, 5.200000000000009948 ) ) ;
#97 = ORIENTED_EDGE ( 'NONE', *, *, #175, .T. ) ;
#98 = PRODUCT_DEFINITION_FORMATION_WITH_SPECIFIED_SOURCE ( 'LIBOVOLNÝ', '', #49, .NOT_KNOWN. ) ;
#99 = EDGE_LOOP ( 'NONE', ( #112, #119, #97, #141 ) ) ;
#100 = DIRECTION ( 'NONE',  ( 0.000000000000000000, 0.000000000000000000, 1.000000000000000000 ) ) ;
#101 = DIRECTION ( 'NONE',  ( 1.000000000000000000, 0.000000000000000000, 0.000000000000000000 ) ) ;
#102 = AXIS2_PLACEMENT_3D ( 'NONE', #10, #109, #60 ) ;
#103 = VECTOR ( 'NONE', #286, 1000.000000000000000 ) ;
#104 = CALENDAR_DATE ( 2022, 20, 6 ) ;
#105 = CARTESIAN_POINT ( 'NONE',  ( 0.000000000000000000, 0.000000000000000000, 5.000000000000000000 ) ) ;
#106 = CC_DESIGN_DATE_AND_TIME_ASSIGNMENT ( #116, #277, ( #304 ) ) ;
#107 = EDGE_CURVE ( 'NONE', #243, #201, #123, .T. ) ;
#108 = DIRECTION ( 'NONE',  ( 0.000000000000000000, 0.000000000000000000, 1.000000000000000000 ) ) ;
#109 = DIRECTION ( 'NONE',  ( 0.000000000000000000, 0.000000000000000000, 1.000000000000000000 ) ) ;
#110 = ORIENTED_EDGE ( 'NONE', *, *, #64, .T. ) ;
#111 = CARTESIAN_POINT ( 'NONE',  ( 0.000000000000000000, 0.000000000000000000, 5.000000000000000000 ) ) ;
#112 = ORIENTED_EDGE ( 'NONE', *, *, #256, .F. ) ;
#113 = DIRECTION ( 'NONE',  ( 0.000000000000000000, 0.000000000000000000, 1.000000000000000000 ) ) ;
#114 = CIRCLE ( 'NONE', #288, 4.299999999999998934 ) ;
#115 = PLANE ( 'NONE',  #40 ) ;
#116 = DATE_AND_TIME ( #179, #225 ) ;
#117 = EDGE_LOOP ( 'NONE', ( #185, #255 ) ) ;
#118 = ORIENTED_EDGE ( 'NONE', *, *, #126, .F. ) ;
#119 = ORIENTED_EDGE ( 'NONE', *, *, #152, .T. ) ;
#120 = DATE_AND_TIME ( #104, #240 ) ;
#121 = FACE_OUTER_BOUND ( 'NONE', #91, .T. ) ;
#122 = CC_DESIGN_PERSON_AND_ORGANIZATION_ASSIGNMENT ( #23, #212, ( #98 ) ) ;
#123 = LINE ( 'NONE', #150, #82 ) ;
#124 = CARTESIAN_POINT ( 'NONE',  ( 0.000000000000000000, 0.000000000000000000, 0.000000000000000000 ) ) ;
#125 = APPROVAL_PERSON_ORGANIZATION ( #229, #153, #67 ) ;
#126 = EDGE_CURVE ( 'NONE', #39, #89, #189, .T. ) ;
#127 = CARTESIAN_POINT ( 'NONE',  ( -7.000000000000000000, 0.000000000000000000, 5.000000000000000000 ) ) ;
#128 = CARTESIAN_POINT ( 'NONE',  ( 0.000000000000000000, 0.000000000000000000, 255.0000000000000000 ) ) ;
#129 = ORIENTED_EDGE ( 'NONE', *, *, #8, .F. ) ;
#130 = CARTESIAN_POINT ( 'NONE',  ( -4.099999999999999645, 0.000000000000000000, 5.200000000000009948 ) ) ;
#131 = CLOSED_SHELL ( 'NONE', ( #193, #70, #28, #292, #12, #52, #198, #81, #132 ) ) ;
#132 = ADVANCED_FACE ( 'NONE', ( #11 ), #274, .F. ) ;
#133 = APPROVAL_PERSON_ORGANIZATION ( #251, #46, #208 ) ;
#134 =( LENGTH_UNIT ( ) NAMED_UNIT ( * ) SI_UNIT ( .MILLI., .METRE. ) );
#135 = CIRCLE ( 'NONE', #217, 4.099999999999999645 ) ;
#136 = ORIENTED_EDGE ( 'NONE', *, *, #34, .F. ) ;
#137 = CIRCLE ( 'NONE', #144, 4.099999999999999645 ) ;
#138 = ORIENTED_EDGE ( 'NONE', *, *, #14, .F. ) ;
#139 = DIRECTION ( 'NONE',  ( -1.000000000000000000, 0.000000000000000000, 0.000000000000000000 ) ) ;
#140 = DIRECTION ( 'NONE',  ( -1.000000000000000000, 0.000000000000000000, 0.000000000000000000 ) ) ;
#141 = ORIENTED_EDGE ( 'NONE', *, *, #241, .F. ) ;
#142 = CIRCLE ( 'NONE', #204, 7.000000000000000000 ) ;
#143 = PLANE ( 'NONE',  #59 ) ;
#144 = AXIS2_PLACEMENT_3D ( 'NONE', #220, #262, #7 ) ;
#145 = CALENDAR_DATE ( 2022, 20, 6 ) ;
#146 = DIRECTION ( 'NONE',  ( -1.000000000000000000, 0.000000000000000000, 0.000000000000000000 ) ) ;
#147 = PERSON_AND_ORGANIZATION_ROLE ( 'classification_officer' ) ;
#148 = DIRECTION ( 'NONE',  ( 1.000000000000000000, 0.000000000000000000, 0.000000000000000000 ) ) ;
#149 = CARTESIAN_POINT ( 'NONE',  ( 4.099999999999999645, 5.021051876504147385E-16, 5.200000000000009948 ) ) ;
#150 = CARTESIAN_POINT ( 'NONE',  ( -7.000000000000000000, 0.000000000000000000, 5.000000000000000000 ) ) ;
#151 = DIRECTION ( 'NONE',  ( 1.000000000000000000, 0.000000000000000000, 0.000000000000000000 ) ) ;
#152 = EDGE_CURVE ( 'NONE', #297, #177, #30, .T. ) ;
#153 = APPROVAL ( #154, 'NEURÈENÝ' ) ;
#154 = APPROVAL_STATUS ( 'not_yet_approved' ) ;
#155 = APPROVAL ( #29, 'NEURÈENÝ' ) ;
#156 = PERSON_AND_ORGANIZATION_ROLE ( 'creator' ) ;
#157 = ORIENTED_EDGE ( 'NONE', *, *, #291, .T. ) ;
#158 = CIRCLE ( 'NONE', #249, 0.1999999999999996503 ) ;
#159 = CARTESIAN_POINT ( 'NONE',  ( 0.000000000000000000, 0.000000000000000000, 0.000000000000000000 ) ) ;
#160 = PERSON ( 'NEURÈENÝ', 'NEURÈENÝ', 'NEURÈENÝ', ('NEURÈENÝ'), ('NEURÈENÝ'), ('NEURÈENÝ') ) ;
#161 = CALENDAR_DATE ( 2022, 20, 6 ) ;
#162 = CIRCLE ( 'NONE', #62, 4.099999999999999645 ) ;
#163 = CARTESIAN_POINT ( 'NONE',  ( 0.000000000000000000, 0.000000000000000000, 5.000000000000000000 ) ) ;
#164 = SHAPE_DEFINITION_REPRESENTATION ( #57, #290 ) ;
#165 = FACE_BOUND ( 'NONE', #224, .T. ) ;
#166 = DIRECTION ( 'NONE',  ( 1.000000000000000000, 0.000000000000000000, 0.000000000000000000 ) ) ;
#167 = AXIS2_PLACEMENT_3D ( 'NONE', #246, #190, #148 ) ;
#168 = DIRECTION ( 'NONE',  ( 1.000000000000000000, 0.000000000000000000, 0.000000000000000000 ) ) ;
#169 = DIRECTION ( 'NONE',  ( -1.000000000000000000, 0.000000000000000000, 0.000000000000000000 ) ) ;
#170 = FACE_OUTER_BOUND ( 'NONE', #117, .T. ) ;
#171 = VERTEX_POINT ( 'NONE', #192 ) ;
#172 = CARTESIAN_POINT ( 'NONE',  ( 0.000000000000000000, 0.000000000000000000, 255.0000000000000000 ) ) ;
#173 = VECTOR ( 'NONE', #200, 1000.000000000000000 ) ;
#174 = FACE_OUTER_BOUND ( 'NONE', #85, .T. ) ;
#175 = EDGE_CURVE ( 'NONE', #177, #279, #137, .T. ) ;
#176 = PERSON_AND_ORGANIZATION ( #160, #295 ) ;
#177 = VERTEX_POINT ( 'NONE', #149 ) ;
#178 = CYLINDRICAL_SURFACE ( 'NONE', #276, 7.000000000000000000 ) ;
#179 = CALENDAR_DATE ( 2022, 20, 6 ) ;
#180 = PERSON_AND_ORGANIZATION ( #160, #295 ) ;
#181 = VERTEX_POINT ( 'NONE', #293 ) ;
#182 = APPROVAL_STATUS ( 'not_yet_approved' ) ;
#183 = DIRECTION ( 'NONE',  ( 0.000000000000000000, 0.000000000000000000, 1.000000000000000000 ) ) ;
#184 = APPROVAL_PERSON_ORGANIZATION ( #77, #155, #47 ) ;
#185 = ORIENTED_EDGE ( 'NONE', *, *, #265, .T. ) ;
#186 = EDGE_CURVE ( 'NONE', #181, #201, #205, .T. ) ;
#187 = DIRECTION ( 'NONE',  ( 1.000000000000000000, 0.000000000000000000, 0.000000000000000000 ) ) ;
#188 = DIRECTION ( 'NONE',  ( 1.000000000000000000, 0.000000000000000000, 0.000000000000000000 ) ) ;
#189 = CIRCLE ( 'NONE', #167, 4.299999999999998934 ) ;
#190 = DIRECTION ( 'NONE',  ( -0.000000000000000000, -0.000000000000000000, -1.000000000000000000 ) ) ;
#191 = CC_DESIGN_SECURITY_CLASSIFICATION ( #296, ( #98 ) ) ;
#192 = CARTESIAN_POINT ( 'NONE',  ( 7.000000000000000000, 8.572527594031473190E-16, 5.000000000000000000 ) ) ;
#193 = ADVANCED_FACE ( 'NONE', ( #272 ), #268, .F. ) ;
#194 = CIRCLE ( 'NONE', #73, 4.099999999999999645 ) ;
#195 = CC_DESIGN_PERSON_AND_ORGANIZATION_ASSIGNMENT ( #233, #147, ( #296 ) ) ;
#196 = DIRECTION ( 'NONE',  ( 0.000000000000000000, 0.000000000000000000, 1.000000000000000000 ) ) ;
#197 = ORIENTED_EDGE ( 'NONE', *, *, #34, .T. ) ;
#198 = ADVANCED_FACE ( 'NONE', ( #174 ), #80, .T. ) ;
#199 = CIRCLE ( 'NONE', #2, 0.1999999999999996503 ) ;
#200 = DIRECTION ( 'NONE',  ( -0.000000000000000000, -0.000000000000000000, -1.000000000000000000 ) ) ;
#201 = VERTEX_POINT ( 'NONE', #239 ) ;
#202 = DATE_AND_TIME ( #161, #213 ) ;
#203 = ORIENTED_EDGE ( 'NONE', *, *, #175, .F. ) ;
#204 = AXIS2_PLACEMENT_3D ( 'NONE', #26, #24, #166 ) ;
#205 = CIRCLE ( 'NONE', #9, 7.000000000000000000 ) ;
#206 = CARTESIAN_POINT ( 'NONE',  ( 0.000000000000000000, 0.000000000000000000, 0.000000000000000000 ) ) ;
#207 = DIRECTION ( 'NONE',  ( 0.000000000000000000, 0.000000000000000000, 1.000000000000000000 ) ) ;
#208 = APPROVAL_ROLE ( '' ) ;
#209 = CARTESIAN_POINT ( 'NONE',  ( -4.299999999999998934, 5.265981236333617484E-16, 5.200000000000009948 ) ) ;
#210 = CC_DESIGN_PERSON_AND_ORGANIZATION_ASSIGNMENT ( #180, #93, ( #49 ) ) ;
#211 = ORIENTED_EDGE ( 'NONE', *, *, #291, .F. ) ;
#212 = PERSON_AND_ORGANIZATION_ROLE ( 'design_supplier' ) ;
#213 = LOCAL_TIME ( 11, 47, 0.000000000000000000, #307 ) ;
#214 = ORIENTED_EDGE ( 'NONE', *, *, #107, .F. ) ;
#215 = DIRECTION ( 'NONE',  ( 1.000000000000000000, 0.000000000000000000, -0.000000000000000000 ) ) ;
#216 = CARTESIAN_POINT ( 'NONE',  ( 4.099999999999999645, 5.021051876504147385E-16, 255.0000000000000000 ) ) ;
#217 = AXIS2_PLACEMENT_3D ( 'NONE', #68, #183, #187 ) ;
#218 = DIRECTION ( 'NONE',  ( 1.000000000000000000, 0.000000000000000000, 0.000000000000000000 ) ) ;
#219 = CIRCLE ( 'NONE', #303, 7.000000000000000000 ) ;
#220 = CARTESIAN_POINT ( 'NONE',  ( 0.000000000000000000, 0.000000000000000000, 5.200000000000009948 ) ) ;
#221 = VERTEX_POINT ( 'NONE', #264 ) ;
#222 = CARTESIAN_POINT ( 'NONE',  ( -4.299999999999998934, 5.265981236333617484E-16, 5.000000000000005329 ) ) ;
#223 = LINE ( 'NONE', #13, #103 ) ;
#224 = EDGE_LOOP ( 'NONE', ( #36, #1 ) ) ;
#225 = LOCAL_TIME ( 11, 47, 0.000000000000000000, #92 ) ;
#226 = APPLICATION_PROTOCOL_DEFINITION ( 'international standard', 'config_control_design', 1994, #74 ) ;
#227 = MANIFOLD_SOLID_BREP ( 'Zaoblit1', #131 ) ;
#228 = DIRECTION ( 'NONE',  ( 0.000000000000000000, 0.000000000000000000, -1.000000000000000000 ) ) ;
#229 = PERSON_AND_ORGANIZATION ( #160, #295 ) ;
#230 = ORIENTED_EDGE ( 'NONE', *, *, #14, .T. ) ;
#231 = CARTESIAN_POINT ( 'NONE',  ( 4.299999999999998934, 0.000000000000000000, 5.000000000000005329 ) ) ;
#232 = FACE_OUTER_BOUND ( 'NONE', #61, .T. ) ;
#233 = PERSON_AND_ORGANIZATION ( #160, #295 ) ;
#234 = VECTOR ( 'NONE', #35, 1000.000000000000000 ) ;
#235 = LOCAL_TIME ( 11, 47, 0.000000000000000000, #285 ) ;
#236 = DIRECTION ( 'NONE',  ( -0.000000000000000000, -0.000000000000000000, -1.000000000000000000 ) ) ;
#237 = PERSON_AND_ORGANIZATION_ROLE ( 'creator' ) ;
#238 = DIRECTION ( 'NONE',  ( -0.000000000000000000, -0.000000000000000000, -1.000000000000000000 ) ) ;
#239 = CARTESIAN_POINT ( 'NONE',  ( -7.000000000000000000, 0.000000000000000000, 0.000000000000000000 ) ) ;
#240 = LOCAL_TIME ( 11, 47, 0.000000000000000000, #51 ) ;
#241 = EDGE_CURVE ( 'NONE', #221, #279, #242, .T. ) ;
#242 = LINE ( 'NONE', #31, #173 ) ;
#243 = VERTEX_POINT ( 'NONE', #127 ) ;
#244 = CC_DESIGN_PERSON_AND_ORGANIZATION_ASSIGNMENT ( #90, #156, ( #304 ) ) ;
#245 = AXIS2_PLACEMENT_3D ( 'NONE', #269, #196, #218 ) ;
#246 = CARTESIAN_POINT ( 'NONE',  ( 0.000000000000000000, 0.000000000000000000, 5.000000000000000000 ) ) ;
#247 = ORIENTED_EDGE ( 'NONE', *, *, #186, .T. ) ;
#248 = DIRECTION ( 'NONE',  ( 1.000000000000000000, 0.000000000000000000, 0.000000000000000000 ) ) ;
#249 = AXIS2_PLACEMENT_3D ( 'NONE', #96, #4, #228 ) ;
#250 = CC_DESIGN_APPROVAL ( #46, ( #98 ) ) ;
#251 = PERSON_AND_ORGANIZATION ( #160, #295 ) ;
#252 = CYLINDRICAL_SURFACE ( 'NONE', #254, 4.099999999999999645 ) ;
#253 = FACE_OUTER_BOUND ( 'NONE', #48, .T. ) ;
#254 = AXIS2_PLACEMENT_3D ( 'NONE', #306, #94, #146 ) ;
#255 = ORIENTED_EDGE ( 'NONE', *, *, #256, .T. ) ;
#256 = EDGE_CURVE ( 'NONE', #297, #221, #162, .T. ) ;
#257 = CARTESIAN_POINT ( 'NONE',  ( 0.000000000000000000, 0.000000000000000000, 5.000000000000000000 ) ) ;
#258 = ORIENTED_EDGE ( 'NONE', *, *, #72, .T. ) ;
#259 = DIRECTION ( 'NONE',  ( 1.224646799147353207E-16, 1.000000000000000000, -0.000000000000000000 ) ) ;
#260 = ORIENTED_EDGE ( 'NONE', *, *, #265, .F. ) ;
#261 = DATE_TIME_ROLE ( 'classification_date' ) ;
#262 = DIRECTION ( 'NONE',  ( 0.000000000000000000, 0.000000000000000000, 1.000000000000000000 ) ) ;
#263 = SECURITY_CLASSIFICATION_LEVEL ( 'unclassified' ) ;
#264 = CARTESIAN_POINT ( 'NONE',  ( -4.099999999999999645, 0.000000000000000000, 255.0000000000000000 ) ) ;
#265 = EDGE_CURVE ( 'NONE', #221, #297, #194, .T. ) ;
#266 = EDGE_CURVE ( 'NONE', #89, #39, #114, .T. ) ;
#267 = AXIS2_PLACEMENT_3D ( 'NONE', #105, #54, #101 ) ;
#268 = TOROIDAL_SURFACE ( 'NONE', #245, 4.299999999999998934, 0.2000000000000000111 ) ;
#269 = CARTESIAN_POINT ( 'NONE',  ( 0.000000000000000000, 0.000000000000000000, 5.200000000000009948 ) ) ;
#270 = EDGE_LOOP ( 'NONE', ( #138, #281, #118, #129 ) ) ;
#271 = CIRCLE ( 'NONE', #267, 7.000000000000000000 ) ;
#272 = FACE_OUTER_BOUND ( 'NONE', #270, .T. ) ;
#273 = ORIENTED_EDGE ( 'NONE', *, *, #186, .F. ) ;
#274 = TOROIDAL_SURFACE ( 'NONE', #79, 4.299999999999998934, 0.2000000000000000111 ) ;
#275 = DIRECTION ( 'NONE',  ( 0.000000000000000000, 0.000000000000000000, 1.000000000000000000 ) ) ;
#276 = AXIS2_PLACEMENT_3D ( 'NONE', #257, #17, #139 ) ;
#277 = DATE_TIME_ROLE ( 'creation_date' ) ;
#278 =( NAMED_UNIT ( * ) SI_UNIT ( $, .STERADIAN. ) SOLID_ANGLE_UNIT ( ) );
#279 = VERTEX_POINT ( 'NONE', #130 ) ;
#280 = DIRECTION ( 'NONE',  ( 1.000000000000000000, 0.000000000000000000, 0.000000000000000000 ) ) ;
#281 = ORIENTED_EDGE ( 'NONE', *, *, #5, .T. ) ;
#282 = AXIS2_PLACEMENT_3D ( 'NONE', #65, #53, #169 ) ;
#283 = ORIENTED_EDGE ( 'NONE', *, *, #8, .T. ) ;
#284 = CARTESIAN_POINT ( 'NONE',  ( 0.000000000000000000, 0.000000000000000000, 5.000000000000000000 ) ) ;
#285 = COORDINATED_UNIVERSAL_TIME_OFFSET ( 1, 0, .AHEAD. ) ;
#286 = DIRECTION ( 'NONE',  ( -0.000000000000000000, -0.000000000000000000, -1.000000000000000000 ) ) ;
#287 = APPROVAL_DATE_TIME ( #120, #155 ) ;
#288 = AXIS2_PLACEMENT_3D ( 'NONE', #111, #88, #151 ) ;
#289 = DIRECTION ( 'NONE',  ( 0.000000000000000000, 0.000000000000000000, 1.000000000000000000 ) ) ;
#290 = ADVANCED_BREP_SHAPE_REPRESENTATION ( '5751', ( #227, #44 ), #37 ) ;
#291 = EDGE_CURVE ( 'NONE', #171, #181, #223, .T. ) ;
#292 = ADVANCED_FACE ( 'NONE', ( #253 ), #178, .T. ) ;
#293 = CARTESIAN_POINT ( 'NONE',  ( 7.000000000000000000, 8.572527594031473190E-16, 0.000000000000000000 ) ) ;
#294 = AXIS2_PLACEMENT_3D ( 'NONE', #163, #236, #140 ) ;
#295 = ORGANIZATION ( 'NEURÈENÝ', 'NEURÈENÝ', '' ) ;
#296 = SECURITY_CLASSIFICATION ( '', '', #263 ) ;
#297 = VERTEX_POINT ( 'NONE', #305 ) ;
#298 = DIRECTION ( 'NONE',  ( 0.000000000000000000, 0.000000000000000000, 1.000000000000000000 ) ) ;
#299 = CC_DESIGN_APPROVAL ( #153, ( #304 ) ) ;
#300 = APPROVAL_DATE_TIME ( #202, #46 ) ;
#301 = CC_DESIGN_PERSON_AND_ORGANIZATION_ASSIGNMENT ( #176, #237, ( #98 ) ) ;
#302 = MECHANICAL_CONTEXT ( 'NONE', #55, 'mechanical' ) ;
#303 = AXIS2_PLACEMENT_3D ( 'NONE', #6, #100, #188 ) ;
#304 = PRODUCT_DEFINITION ( 'NEZNÁMÝ', '', #98, #42 ) ;
#305 = CARTESIAN_POINT ( 'NONE',  ( 4.099999999999999645, 5.021051876504147385E-16, 255.0000000000000000 ) ) ;
#306 = CARTESIAN_POINT ( 'NONE',  ( 0.000000000000000000, 0.000000000000000000, 255.0000000000000000 ) ) ;
#307 = COORDINATED_UNIVERSAL_TIME_OFFSET ( 1, 0, .AHEAD. ) ;
ENDSEC;
END-ISO-10303-21;
