ISO-10303-21;
HEADER;
FILE_DESCRIPTION (( 'STEP AP203' ),
    '1' );
FILE_NAME ('eb60.STEP',
    '2022-06-20T10:07:46',
    ( '' ),
    ( '' ),
    'SwSTEP 2.0',
    'SolidWorks 2019',
    '' );
FILE_SCHEMA (( 'CONFIG_CONTROL_DESIGN' ));
ENDSEC;

DATA;
#1 = DIRECTION ( 'NONE',  ( -0.000000000000000000, -0.000000000000000000, -1.000000000000000000 ) ) ;
#2 = FACE_OUTER_BOUND ( 'NONE', #94, .T. ) ;
#3 = CIRCLE ( 'NONE', #43, 2.100000000000000089 ) ;
#4 = COORDINATED_UNIVERSAL_TIME_OFFSET ( 1, 0, .AHEAD. ) ;
#5 = FACE_OUTER_BOUND ( 'NONE', #20, .T. ) ;
#6 = DIRECTION ( 'NONE',  ( 0.000000000000000000, 0.000000000000000000, 1.000000000000000000 ) ) ;
#7 = DIRECTION ( 'NONE',  ( -0.000000000000000000, -0.000000000000000000, -1.000000000000000000 ) ) ;
#8 = CIRCLE ( 'NONE', #184, 4.000000000000000000 ) ;
#9 = DIRECTION ( 'NONE',  ( 0.000000000000000000, 0.000000000000000000, 1.000000000000000000 ) ) ;
#10 = DIRECTION ( 'NONE',  ( 0.000000000000000000, 0.000000000000000000, 1.000000000000000000 ) ) ;
#11 = DIRECTION ( 'NONE',  ( -0.000000000000000000, -0.000000000000000000, -1.000000000000000000 ) ) ;
#12 = DIRECTION ( 'NONE',  ( 0.000000000000000000, 0.000000000000000000, 1.000000000000000000 ) ) ;
#13 = AXIS2_PLACEMENT_3D ( 'NONE', #258, #42, #55 ) ;
#14 = DIRECTION ( 'NONE',  ( 0.000000000000000000, 0.000000000000000000, 1.000000000000000000 ) ) ;
#15 = ADVANCED_FACE ( 'NONE', ( #291 ), #159, .F. ) ;
#16 = FACE_OUTER_BOUND ( 'NONE', #187, .T. ) ;
#17 = ORIENTED_EDGE ( 'NONE', *, *, #240, .F. ) ;
#18 = VERTEX_POINT ( 'NONE', #170 ) ;
#19 = VERTEX_POINT ( 'NONE', #120 ) ;
#20 = EDGE_LOOP ( 'NONE', ( #230, #26 ) ) ;
#21 = LOCAL_TIME ( 12, 7, 46.00000000000000000, #4 ) ;
#22 = CIRCLE ( 'NONE', #199, 0.2000000000000000944 ) ;
#23 = DIRECTION ( 'NONE',  ( 1.000000000000000000, 0.000000000000000000, 0.000000000000000000 ) ) ;
#24 = PERSON_AND_ORGANIZATION_ROLE ( 'creator' ) ;
#25 = CYLINDRICAL_SURFACE ( 'NONE', #273, 2.100000000000000089 ) ;
#26 = ORIENTED_EDGE ( 'NONE', *, *, #46, .F. ) ;
#27 = APPROVAL_ROLE ( '' ) ;
#28 = EDGE_LOOP ( 'NONE', ( #44, #283, #74, #139 ) ) ;
#29 = PRODUCT_DEFINITION_SHAPE ( 'NONE', 'NONE',  #125 ) ;
#30 = PERSON_AND_ORGANIZATION ( #45, #54 ) ;
#31 = ADVANCED_FACE ( 'NONE', ( #2 ), #25, .T. ) ;
#32 = DIRECTION ( 'NONE',  ( 0.000000000000000000, 0.000000000000000000, 1.000000000000000000 ) ) ;
#33 = PERSON_AND_ORGANIZATION_ROLE ( 'design_supplier' ) ;
#34 = CALENDAR_DATE ( 2022, 20, 6 ) ;
#35 = CARTESIAN_POINT ( 'NONE',  ( -2.100000000000000089, 0.000000000000000000, 318.0000000000000000 ) ) ;
#36 = DATE_AND_TIME ( #52, #58 ) ;
#37 = CARTESIAN_POINT ( 'NONE',  ( 0.000000000000000000, 0.000000000000000000, 3.000000000000000000 ) ) ;
#38 = CIRCLE ( 'NONE', #189, 2.300000000000000266 ) ;
#39 = TOROIDAL_SURFACE ( 'NONE', #140, 2.300000000000000266, 0.2000000000000000111 ) ;
#40 = ORIENTED_EDGE ( 'NONE', *, *, #205, .F. ) ;
#41 = CC_DESIGN_DATE_AND_TIME_ASSIGNMENT ( #245, #83, ( #125 ) ) ;
#42 = DIRECTION ( 'NONE',  ( -0.000000000000000000, -0.000000000000000000, -1.000000000000000000 ) ) ;
#43 = AXIS2_PLACEMENT_3D ( 'NONE', #101, #288, #241 ) ;
#44 = ORIENTED_EDGE ( 'NONE', *, *, #177, .F. ) ;
#45 = PERSON ( 'NEURÈENÝ', 'NEURÈENÝ', 'NEURÈENÝ', ('NEURÈENÝ'), ('NEURÈENÝ'), ('NEURÈENÝ') ) ;
#46 = EDGE_CURVE ( 'NONE', #235, #301, #117, .T. ) ;
#47 = CYLINDRICAL_SURFACE ( 'NONE', #239, 2.100000000000000089 ) ;
#48 = CIRCLE ( 'NONE', #144, 4.000000000000000000 ) ;
#49 = DIRECTION ( 'NONE',  ( 0.000000000000000000, 0.000000000000000000, 1.000000000000000000 ) ) ;
#50 = ADVANCED_FACE ( 'NONE', ( #246 ), #39, .F. ) ;
#51 = CARTESIAN_POINT ( 'NONE',  ( 0.000000000000000000, 0.000000000000000000, 3.199999999999980638 ) ) ;
#52 = CALENDAR_DATE ( 2022, 20, 6 ) ;
#53 = CARTESIAN_POINT ( 'NONE',  ( 0.000000000000000000, 0.000000000000000000, 0.000000000000000000 ) ) ;
#54 = ORGANIZATION ( 'NEURÈENÝ', 'NEURÈENÝ', '' ) ;
#55 = DIRECTION ( 'NONE',  ( -1.000000000000000000, 0.000000000000000000, 0.000000000000000000 ) ) ;
#56 = DIRECTION ( 'NONE',  ( 1.000000000000000000, 0.000000000000000000, 0.000000000000000000 ) ) ;
#57 = VECTOR ( 'NONE', #198, 1000.000000000000000 ) ;
#58 = LOCAL_TIME ( 12, 7, 46.00000000000000000, #287 ) ;
#59 = APPROVAL_STATUS ( 'not_yet_approved' ) ;
#60 = CARTESIAN_POINT ( 'NONE',  ( 0.000000000000000000, 0.000000000000000000, 3.000000000000000000 ) ) ;
#61 = AXIS2_PLACEMENT_3D ( 'NONE', #37, #7, #248 ) ;
#62 = CARTESIAN_POINT ( 'NONE',  ( 0.000000000000000000, 0.000000000000000000, 3.199999999999980638 ) ) ;
#63 = DIRECTION ( 'NONE',  ( -1.000000000000000000, 0.000000000000000000, 0.000000000000000000 ) ) ;
#64 = MANIFOLD_SOLID_BREP ( 'Zaoblit1', #100 ) ;
#65 = CIRCLE ( 'NONE', #279, 2.100000000000000089 ) ;
#66 = ORIENTED_EDGE ( 'NONE', *, *, #71, .F. ) ;
#67 = CC_DESIGN_APPROVAL ( #148, ( #102 ) ) ;
#68 = VERTEX_POINT ( 'NONE', #192 ) ;
#69 = ORIENTED_EDGE ( 'NONE', *, *, #119, .F. ) ;
#70 = VECTOR ( 'NONE', #289, 1000.000000000000000 ) ;
#71 = EDGE_CURVE ( 'NONE', #19, #301, #146, .T. ) ;
#72 = VERTEX_POINT ( 'NONE', #97 ) ;
#73 = CC_DESIGN_PERSON_AND_ORGANIZATION_ASSIGNMENT ( #272, #84, ( #224 ) ) ;
#74 = ORIENTED_EDGE ( 'NONE', *, *, #286, .T. ) ;
#75 = DIRECTION ( 'NONE',  ( 0.000000000000000000, -1.000000000000000000, 0.000000000000000000 ) ) ;
#76 = VECTOR ( 'NONE', #134, 1000.000000000000000 ) ;
#77 = CARTESIAN_POINT ( 'NONE',  ( 0.000000000000000000, 0.000000000000000000, 3.199999999999980638 ) ) ;
#78 = DIRECTION ( 'NONE',  ( 1.000000000000000000, 0.000000000000000000, -0.000000000000000000 ) ) ;
#79 = VERTEX_POINT ( 'NONE', #149 ) ;
#80 = CIRCLE ( 'NONE', #150, 4.000000000000000000 ) ;
#81 = DIRECTION ( 'NONE',  ( 1.000000000000000000, 0.000000000000000000, 0.000000000000000000 ) ) ;
#82 = CIRCLE ( 'NONE', #163, 2.100000000000000089 ) ;
#83 = DATE_TIME_ROLE ( 'creation_date' ) ;
#84 = PERSON_AND_ORGANIZATION_ROLE ( 'creator' ) ;
#85 = FACE_OUTER_BOUND ( 'NONE', #165, .T. ) ;
#86 = DATE_AND_TIME ( #34, #228 ) ;
#87 = DIRECTION ( 'NONE',  ( -1.000000000000000000, 1.224646799147353207E-16, 0.000000000000000000 ) ) ;
#88 = APPROVAL_STATUS ( 'not_yet_approved' ) ;
#89 = EDGE_CURVE ( 'NONE', #18, #259, #65, .T. ) ;
#90 = ORIENTED_EDGE ( 'NONE', *, *, #93, .T. ) ;
#91 = ORIENTED_EDGE ( 'NONE', *, *, #93, .F. ) ;
#92 = EDGE_LOOP ( 'NONE', ( #40, #303, #167, #66 ) ) ;
#93 = EDGE_CURVE ( 'NONE', #79, #210, #3, .T. ) ;
#94 = EDGE_LOOP ( 'NONE', ( #185, #173, #211, #90 ) ) ;
#95 = EDGE_LOOP ( 'NONE', ( #229, #298 ) ) ;
#96 = CC_DESIGN_SECURITY_CLASSIFICATION ( #102, ( #224 ) ) ;
#97 = CARTESIAN_POINT ( 'NONE',  ( 2.300000000000000266, 0.000000000000000000, 2.999999999999990674 ) ) ;
#98 = APPROVAL ( #195, 'NEURÈENÝ' ) ;
#99 = DIRECTION ( 'NONE',  ( -1.000000000000000000, 0.000000000000000000, 0.000000000000000000 ) ) ;
#100 = CLOSED_SHELL ( 'NONE', ( #50, #157, #278, #233, #225, #180, #31, #110, #15 ) ) ;
#101 = CARTESIAN_POINT ( 'NONE',  ( 0.000000000000000000, 0.000000000000000000, 3.199999999999980638 ) ) ;
#102 = SECURITY_CLASSIFICATION ( '', '', #131 ) ;
#103 = PLANE ( 'NONE',  #200 ) ;
#104 = CARTESIAN_POINT ( 'NONE',  ( 0.000000000000000000, 0.000000000000000000, 0.000000000000000000 ) ) ;
#105 = LINE ( 'NONE', #151, #57 ) ;
#106 = PRODUCT ( 'eb60', 'eb60', '', ( #295 ) ) ;
#107 = PERSON_AND_ORGANIZATION ( #45, #54 ) ;
#108 = AXIS2_PLACEMENT_3D ( 'NONE', #243, #75, #220 ) ;
#109 = APPROVAL_ROLE ( '' ) ;
#110 = ADVANCED_FACE ( 'NONE', ( #222 ), #263, .T. ) ;
#111 = DIRECTION ( 'NONE',  ( 1.000000000000000000, 0.000000000000000000, 0.000000000000000000 ) ) ;
#112 = DATE_TIME_ROLE ( 'classification_date' ) ;
#113 = CARTESIAN_POINT ( 'NONE',  ( 4.000000000000000000, 4.898587196589412829E-16, 3.000000000000000000 ) ) ;
#114 = ORIENTED_EDGE ( 'NONE', *, *, #177, .T. ) ;
#115 = APPROVAL_DATE_TIME ( #86, #148 ) ;
#116 = VECTOR ( 'NONE', #275, 1000.000000000000000 ) ;
#117 = CIRCLE ( 'NONE', #179, 4.000000000000000000 ) ;
#118 = CARTESIAN_POINT ( 'NONE',  ( -4.000000000000000000, 0.000000000000000000, 3.000000000000000000 ) ) ;
#119 = EDGE_CURVE ( 'NONE', #68, #72, #38, .T. ) ;
#120 = CARTESIAN_POINT ( 'NONE',  ( -4.000000000000000000, 0.000000000000000000, 3.000000000000000000 ) ) ;
#121 = DESIGN_CONTEXT ( 'detailed design', #290, 'design' ) ;
#122 = PERSON_AND_ORGANIZATION ( #45, #54 ) ;
#123 = DIRECTION ( 'NONE',  ( -1.000000000000000000, 0.000000000000000000, 0.000000000000000000 ) ) ;
#124 = DIRECTION ( 'NONE',  ( 1.000000000000000000, 0.000000000000000000, 0.000000000000000000 ) ) ;
#125 = PRODUCT_DEFINITION ( 'NEZNÁMÝ', '', #224, #121 ) ;
#126 = CALENDAR_DATE ( 2022, 20, 6 ) ;
#127 = DIRECTION ( 'NONE',  ( 1.000000000000000000, 0.000000000000000000, 0.000000000000000000 ) ) ;
#128 = APPLICATION_PROTOCOL_DEFINITION ( 'international standard', 'config_control_design', 1994, #290 ) ;
#129 = CARTESIAN_POINT ( 'NONE',  ( 2.100000000000000089, 2.571758278209441957E-16, 3.199999999999980638 ) ) ;
#130 = EDGE_CURVE ( 'NONE', #259, #210, #105, .T. ) ;
#131 = SECURITY_CLASSIFICATION_LEVEL ( 'unclassified' ) ;
#132 = CARTESIAN_POINT ( 'NONE',  ( 4.000000000000000000, 4.898587196589412829E-16, 0.000000000000000000 ) ) ;
#133 = AXIS2_PLACEMENT_3D ( 'NONE', #77, #168, #127 ) ;
#134 = DIRECTION ( 'NONE',  ( -0.000000000000000000, -0.000000000000000000, -1.000000000000000000 ) ) ;
#135 = ADVANCED_BREP_SHAPE_REPRESENTATION ( 'eb60', ( #64, #162 ), #255 ) ;
#136 = COORDINATED_UNIVERSAL_TIME_OFFSET ( 1, 0, .AHEAD. ) ;
#137 = DIRECTION ( 'NONE',  ( 1.000000000000000000, 0.000000000000000000, 0.000000000000000000 ) ) ;
#138 = ORIENTED_EDGE ( 'NONE', *, *, #186, .T. ) ;
#139 = ORIENTED_EDGE ( 'NONE', *, *, #202, .F. ) ;
#140 = AXIS2_PLACEMENT_3D ( 'NONE', #51, #171, #262 ) ;
#141 = ORIENTED_EDGE ( 'NONE', *, *, #169, .T. ) ;
#142 = ORIENTED_EDGE ( 'NONE', *, *, #306, .F. ) ;
#143 = FACE_OUTER_BOUND ( 'NONE', #28, .T. ) ;
#144 = AXIS2_PLACEMENT_3D ( 'NONE', #254, #251, #206 ) ;
#145 = CC_DESIGN_PERSON_AND_ORGANIZATION_ASSIGNMENT ( #265, #219, ( #106 ) ) ;
#146 = LINE ( 'NONE', #118, #70 ) ;
#147 = APPROVAL_PERSON_ORGANIZATION ( #155, #294, #27 ) ;
#148 = APPROVAL ( #88, 'NEURÈENÝ' ) ;
#149 = CARTESIAN_POINT ( 'NONE',  ( -2.100000000000000089, 0.000000000000000000, 3.199999999999980638 ) ) ;
#150 = AXIS2_PLACEMENT_3D ( 'NONE', #250, #9, #274 ) ;
#151 = CARTESIAN_POINT ( 'NONE',  ( 2.100000000000000089, 2.571758278209441957E-16, 318.0000000000000000 ) ) ;
#152 = DIRECTION ( 'NONE',  ( 0.000000000000000000, 0.000000000000000000, 1.000000000000000000 ) ) ;
#153 = LOCAL_TIME ( 12, 7, 46.00000000000000000, #247 ) ;
#154 = CARTESIAN_POINT ( 'NONE',  ( -4.000000000000000000, 0.000000000000000000, 0.000000000000000000 ) ) ;
#155 = PERSON_AND_ORGANIZATION ( #45, #54 ) ;
#156 = LINE ( 'NONE', #113, #116 ) ;
#157 = ADVANCED_FACE ( 'NONE', ( #143 ), #47, .T. ) ;
#158 = CARTESIAN_POINT ( 'NONE',  ( 0.000000000000000000, 0.000000000000000000, 3.000000000000000000 ) ) ;
#159 = TOROIDAL_SURFACE ( 'NONE', #133, 2.300000000000000266, 0.2000000000000000111 ) ;
#160 = CARTESIAN_POINT ( 'NONE',  ( -2.300000000000000266, 2.816687638038912549E-16, 3.199999999999980638 ) ) ;
#161 =( NAMED_UNIT ( * ) PLANE_ANGLE_UNIT ( ) SI_UNIT ( $, .RADIAN. ) );
#162 = AXIS2_PLACEMENT_3D ( 'NONE', #104, #10, #81 ) ;
#163 = AXIS2_PLACEMENT_3D ( 'NONE', #267, #49, #56 ) ;
#164 = CYLINDRICAL_SURFACE ( 'NONE', #13, 4.000000000000000000 ) ;
#165 = EDGE_LOOP ( 'NONE', ( #281, #256 ) ) ;
#166 = EDGE_LOOP ( 'NONE', ( #280, #209, #141, #69 ) ) ;
#167 = ORIENTED_EDGE ( 'NONE', *, *, #46, .T. ) ;
#168 = DIRECTION ( 'NONE',  ( 0.000000000000000000, 0.000000000000000000, 1.000000000000000000 ) ) ;
#169 = EDGE_CURVE ( 'NONE', #210, #72, #293, .T. ) ;
#170 = CARTESIAN_POINT ( 'NONE',  ( -2.100000000000000089, 0.000000000000000000, 318.0000000000000000 ) ) ;
#171 = DIRECTION ( 'NONE',  ( 0.000000000000000000, 0.000000000000000000, 1.000000000000000000 ) ) ;
#172 = EDGE_LOOP ( 'NONE', ( #190, #114 ) ) ;
#173 = ORIENTED_EDGE ( 'NONE', *, *, #89, .F. ) ;
#174 = CARTESIAN_POINT ( 'NONE',  ( 4.000000000000000000, 4.898587196589412829E-16, 3.000000000000000000 ) ) ;
#175 = COORDINATED_UNIVERSAL_TIME_OFFSET ( 1, 0, .AHEAD. ) ;
#176 = CARTESIAN_POINT ( 'NONE',  ( 0.000000000000000000, 0.000000000000000000, 3.000000000000000000 ) ) ;
#177 = EDGE_CURVE ( 'NONE', #259, #18, #82, .T. ) ;
#178 = PLANE ( 'NONE',  #183 ) ;
#179 = AXIS2_PLACEMENT_3D ( 'NONE', #53, #217, #23 ) ;
#180 = ADVANCED_FACE ( 'NONE', ( #5 ), #103, .F. ) ;
#181 = CARTESIAN_POINT ( 'NONE',  ( 2.100000000000000089, 2.571758278209441957E-16, 318.0000000000000000 ) ) ;
#182 = SHAPE_DEFINITION_REPRESENTATION ( #29, #135 ) ;
#183 = AXIS2_PLACEMENT_3D ( 'NONE', #176, #14, #226 ) ;
#184 = AXIS2_PLACEMENT_3D ( 'NONE', #60, #12, #137 ) ;
#185 = ORIENTED_EDGE ( 'NONE', *, *, #130, .F. ) ;
#186 = EDGE_CURVE ( 'NONE', #301, #235, #48, .T. ) ;
#187 = EDGE_LOOP ( 'NONE', ( #17, #142, #188, #138 ) ) ;
#188 = ORIENTED_EDGE ( 'NONE', *, *, #71, .T. ) ;
#189 = AXIS2_PLACEMENT_3D ( 'NONE', #214, #307, #191 ) ;
#190 = ORIENTED_EDGE ( 'NONE', *, *, #89, .T. ) ;
#191 = DIRECTION ( 'NONE',  ( 1.000000000000000000, 0.000000000000000000, 0.000000000000000000 ) ) ;
#192 = CARTESIAN_POINT ( 'NONE',  ( -2.300000000000000266, 2.816687638038912549E-16, 2.999999999999990674 ) ) ;
#193 = APPROVAL_DATE_TIME ( #221, #294 ) ;
#194 = DIRECTION ( 'NONE',  ( 0.000000000000000000, 0.000000000000000000, 1.000000000000000000 ) ) ;
#195 = APPROVAL_STATUS ( 'not_yet_approved' ) ;
#196 = CARTESIAN_POINT ( 'NONE',  ( 0.000000000000000000, 0.000000000000000000, 0.000000000000000000 ) ) ;
#197 = APPROVAL_DATE_TIME ( #269, #98 ) ;
#198 = DIRECTION ( 'NONE',  ( -0.000000000000000000, -0.000000000000000000, -1.000000000000000000 ) ) ;
#199 = AXIS2_PLACEMENT_3D ( 'NONE', #160, #296, #87 ) ;
#200 = AXIS2_PLACEMENT_3D ( 'NONE', #196, #152, #252 ) ;
#201 = CALENDAR_DATE ( 2022, 20, 6 ) ;
#202 = EDGE_CURVE ( 'NONE', #18, #79, #204, .T. ) ;
#203 = CALENDAR_DATE ( 2022, 20, 6 ) ;
#204 = LINE ( 'NONE', #35, #76 ) ;
#205 = EDGE_CURVE ( 'NONE', #284, #19, #8, .T. ) ;
#206 = DIRECTION ( 'NONE',  ( 1.000000000000000000, 0.000000000000000000, 0.000000000000000000 ) ) ;
#207 =( NAMED_UNIT ( * ) SI_UNIT ( $, .STERADIAN. ) SOLID_ANGLE_UNIT ( ) );
#208 = FACE_BOUND ( 'NONE', #95, .T. ) ;
#209 = ORIENTED_EDGE ( 'NONE', *, *, #286, .F. ) ;
#210 = VERTEX_POINT ( 'NONE', #129 ) ;
#211 = ORIENTED_EDGE ( 'NONE', *, *, #202, .T. ) ;
#212 = EDGE_CURVE ( 'NONE', #72, #68, #223, .T. ) ;
#213 = AXIS2_PLACEMENT_3D ( 'NONE', #62, #32, #111 ) ;
#214 = CARTESIAN_POINT ( 'NONE',  ( 0.000000000000000000, 0.000000000000000000, 3.000000000000000000 ) ) ;
#215 = CARTESIAN_POINT ( 'NONE',  ( 0.000000000000000000, 0.000000000000000000, 318.0000000000000000 ) ) ;
#216 = PERSON_AND_ORGANIZATION_ROLE ( 'classification_officer' ) ;
#217 = DIRECTION ( 'NONE',  ( 0.000000000000000000, 0.000000000000000000, 1.000000000000000000 ) ) ;
#218 = AXIS2_PLACEMENT_3D ( 'NONE', #158, #11, #63 ) ;
#219 = PERSON_AND_ORGANIZATION_ROLE ( 'design_owner' ) ;
#220 = DIRECTION ( 'NONE',  ( 0.000000000000000000, 0.000000000000000000, -1.000000000000000000 ) ) ;
#221 = DATE_AND_TIME ( #126, #153 ) ;
#222 = FACE_OUTER_BOUND ( 'NONE', #172, .T. ) ;
#223 = CIRCLE ( 'NONE', #61, 2.300000000000000266 ) ;
#224 = PRODUCT_DEFINITION_FORMATION_WITH_SPECIFIED_SOURCE ( 'LIBOVOLNÝ', '', #106, .NOT_KNOWN. ) ;
#225 = ADVANCED_FACE ( 'NONE', ( #208, #85 ), #178, .T. ) ;
#226 = DIRECTION ( 'NONE',  ( 1.000000000000000000, 0.000000000000000000, -0.000000000000000000 ) ) ;
#227 = PERSON_AND_ORGANIZATION ( #45, #54 ) ;
#228 = LOCAL_TIME ( 12, 7, 46.00000000000000000, #136 ) ;
#229 = ORIENTED_EDGE ( 'NONE', *, *, #212, .T. ) ;
#230 = ORIENTED_EDGE ( 'NONE', *, *, #186, .F. ) ;
#231 = ORIENTED_EDGE ( 'NONE', *, *, #257, .T. ) ;
#232 = ORIENTED_EDGE ( 'NONE', *, *, #169, .F. ) ;
#233 = ADVANCED_FACE ( 'NONE', ( #16 ), #270, .T. ) ;
#234 = APPLICATION_PROTOCOL_DEFINITION ( 'international standard', 'config_control_design', 1994, #277 ) ;
#235 = VERTEX_POINT ( 'NONE', #132 ) ;
#236 = CC_DESIGN_PERSON_AND_ORGANIZATION_ASSIGNMENT ( #249, #33, ( #224 ) ) ;
#237 = LOCAL_TIME ( 12, 7, 46.00000000000000000, #175 ) ;
#238 = CARTESIAN_POINT ( 'NONE',  ( 0.000000000000000000, 0.000000000000000000, 318.0000000000000000 ) ) ;
#239 = AXIS2_PLACEMENT_3D ( 'NONE', #238, #285, #99 ) ;
#240 = EDGE_CURVE ( 'NONE', #284, #235, #156, .T. ) ;
#241 = DIRECTION ( 'NONE',  ( 1.000000000000000000, 0.000000000000000000, 0.000000000000000000 ) ) ;
#242 = ORIENTED_EDGE ( 'NONE', *, *, #212, .F. ) ;
#243 = CARTESIAN_POINT ( 'NONE',  ( 2.300000000000000266, 0.000000000000000000, 3.199999999999980638 ) ) ;
#244 = AXIS2_PLACEMENT_3D ( 'NONE', #215, #6, #78 ) ;
#245 = DATE_AND_TIME ( #201, #21 ) ;
#246 = FACE_OUTER_BOUND ( 'NONE', #299, .T. ) ;
#247 = COORDINATED_UNIVERSAL_TIME_OFFSET ( 1, 0, .AHEAD. ) ;
#248 = DIRECTION ( 'NONE',  ( 1.000000000000000000, 0.000000000000000000, 0.000000000000000000 ) ) ;
#249 = PERSON_AND_ORGANIZATION ( #45, #54 ) ;
#250 = CARTESIAN_POINT ( 'NONE',  ( 0.000000000000000000, 0.000000000000000000, 3.000000000000000000 ) ) ;
#251 = DIRECTION ( 'NONE',  ( 0.000000000000000000, 0.000000000000000000, 1.000000000000000000 ) ) ;
#252 = DIRECTION ( 'NONE',  ( 1.000000000000000000, 0.000000000000000000, -0.000000000000000000 ) ) ;
#253 = CC_DESIGN_PERSON_AND_ORGANIZATION_ASSIGNMENT ( #122, #216, ( #102 ) ) ;
#254 = CARTESIAN_POINT ( 'NONE',  ( 0.000000000000000000, 0.000000000000000000, 0.000000000000000000 ) ) ;
#255 =( GEOMETRIC_REPRESENTATION_CONTEXT ( 3 ) GLOBAL_UNCERTAINTY_ASSIGNED_CONTEXT ( ( #304 ) ) GLOBAL_UNIT_ASSIGNED_CONTEXT ( ( #271, #161, #207 ) ) REPRESENTATION_CONTEXT ( 'NONE', 'WORKASPACE' ) );
#256 = ORIENTED_EDGE ( 'NONE', *, *, #205, .T. ) ;
#257 = EDGE_CURVE ( 'NONE', #79, #68, #22, .T. ) ;
#258 = CARTESIAN_POINT ( 'NONE',  ( 0.000000000000000000, 0.000000000000000000, 3.000000000000000000 ) ) ;
#259 = VERTEX_POINT ( 'NONE', #181 ) ;
#260 = CIRCLE ( 'NONE', #213, 2.100000000000000089 ) ;
#261 = CC_DESIGN_APPROVAL ( #98, ( #125 ) ) ;
#262 = DIRECTION ( 'NONE',  ( 1.000000000000000000, 0.000000000000000000, 0.000000000000000000 ) ) ;
#263 = PLANE ( 'NONE',  #244 ) ;
#264 = CARTESIAN_POINT ( 'NONE',  ( 0.000000000000000000, 0.000000000000000000, 318.0000000000000000 ) ) ;
#265 = PERSON_AND_ORGANIZATION ( #45, #54 ) ;
#266 = CARTESIAN_POINT ( 'NONE',  ( 0.000000000000000000, 0.000000000000000000, 318.0000000000000000 ) ) ;
#267 = CARTESIAN_POINT ( 'NONE',  ( 0.000000000000000000, 0.000000000000000000, 318.0000000000000000 ) ) ;
#268 = CC_DESIGN_PERSON_AND_ORGANIZATION_ASSIGNMENT ( #30, #24, ( #125 ) ) ;
#269 = DATE_AND_TIME ( #203, #237 ) ;
#270 = CYLINDRICAL_SURFACE ( 'NONE', #218, 4.000000000000000000 ) ;
#271 =( LENGTH_UNIT ( ) NAMED_UNIT ( * ) SI_UNIT ( .MILLI., .METRE. ) );
#272 = PERSON_AND_ORGANIZATION ( #45, #54 ) ;
#273 = AXIS2_PLACEMENT_3D ( 'NONE', #266, #1, #123 ) ;
#274 = DIRECTION ( 'NONE',  ( 1.000000000000000000, 0.000000000000000000, 0.000000000000000000 ) ) ;
#275 = DIRECTION ( 'NONE',  ( -0.000000000000000000, -0.000000000000000000, -1.000000000000000000 ) ) ;
#276 = FACE_OUTER_BOUND ( 'NONE', #92, .T. ) ;
#277 = APPLICATION_CONTEXT ( 'configuration controlled 3d designs of mechanical parts and assemblies' ) ;
#278 = ADVANCED_FACE ( 'NONE', ( #276 ), #164, .T. ) ;
#279 = AXIS2_PLACEMENT_3D ( 'NONE', #264, #194, #124 ) ;
#280 = ORIENTED_EDGE ( 'NONE', *, *, #257, .F. ) ;
#281 = ORIENTED_EDGE ( 'NONE', *, *, #306, .T. ) ;
#282 = PRODUCT_RELATED_PRODUCT_CATEGORY ( 'detail', '', ( #106 ) ) ;
#283 = ORIENTED_EDGE ( 'NONE', *, *, #130, .T. ) ;
#284 = VERTEX_POINT ( 'NONE', #174 ) ;
#285 = DIRECTION ( 'NONE',  ( -0.000000000000000000, -0.000000000000000000, -1.000000000000000000 ) ) ;
#286 = EDGE_CURVE ( 'NONE', #210, #79, #260, .T. ) ;
#287 = COORDINATED_UNIVERSAL_TIME_OFFSET ( 1, 0, .AHEAD. ) ;
#288 = DIRECTION ( 'NONE',  ( 0.000000000000000000, 0.000000000000000000, 1.000000000000000000 ) ) ;
#289 = DIRECTION ( 'NONE',  ( -0.000000000000000000, -0.000000000000000000, -1.000000000000000000 ) ) ;
#290 = APPLICATION_CONTEXT ( 'configuration controlled 3d designs of mechanical parts and assemblies' ) ;
#291 = FACE_OUTER_BOUND ( 'NONE', #166, .T. ) ;
#292 = APPROVAL_PERSON_ORGANIZATION ( #107, #98, #109 ) ;
#293 = CIRCLE ( 'NONE', #108, 0.2000000000000000944 ) ;
#294 = APPROVAL ( #59, 'NEURÈENÝ' ) ;
#295 = MECHANICAL_CONTEXT ( 'NONE', #277, 'mechanical' ) ;
#296 = DIRECTION ( 'NONE',  ( 1.224646799147353207E-16, 1.000000000000000000, -0.000000000000000000 ) ) ;
#297 = APPROVAL_ROLE ( '' ) ;
#298 = ORIENTED_EDGE ( 'NONE', *, *, #119, .T. ) ;
#299 = EDGE_LOOP ( 'NONE', ( #91, #231, #242, #232 ) ) ;
#300 = CC_DESIGN_APPROVAL ( #294, ( #224 ) ) ;
#301 = VERTEX_POINT ( 'NONE', #154 ) ;
#302 = CC_DESIGN_DATE_AND_TIME_ASSIGNMENT ( #36, #112, ( #102 ) ) ;
#303 = ORIENTED_EDGE ( 'NONE', *, *, #240, .T. ) ;
#304 = UNCERTAINTY_MEASURE_WITH_UNIT (LENGTH_MEASURE( 1.000000000000000082E-05 ), #271, 'distance_accuracy_value', 'NONE');
#305 = APPROVAL_PERSON_ORGANIZATION ( #227, #148, #297 ) ;
#306 = EDGE_CURVE ( 'NONE', #19, #284, #80, .T. ) ;
#307 = DIRECTION ( 'NONE',  ( -0.000000000000000000, -0.000000000000000000, -1.000000000000000000 ) ) ;
ENDSEC;
END-ISO-10303-21;
