ISO-10303-21;
HEADER;
FILE_DESCRIPTION (( 'STEP AP203' ),
    '1' );
FILE_NAME ('0d09.STEP',
    '2022-06-20T10:02:30',
    ( '' ),
    ( '' ),
    'SwSTEP 2.0',
    'SolidWorks 2019',
    '' );
FILE_SCHEMA (( 'CONFIG_CONTROL_DESIGN' ));
ENDSEC;

DATA;
#1 = DIRECTION ( 'NONE',  ( 0.000000000000000000, 0.000000000000000000, 1.000000000000000000 ) ) ;
#2 = LOCAL_TIME ( 12, 2, 30.00000000000000000, #116 ) ;
#3 = CARTESIAN_POINT ( 'NONE',  ( -2.799999999999999822, 3.429011037612589276E-16, 2.999999999999997335 ) ) ;
#4 = CARTESIAN_POINT ( 'NONE',  ( -2.600000000000000089, 0.000000000000000000, 3.199999999999994404 ) ) ;
#5 = ORIENTED_EDGE ( 'NONE', *, *, #197, .F. ) ;
#6 = DIRECTION ( 'NONE',  ( -0.000000000000000000, -0.000000000000000000, -1.000000000000000000 ) ) ;
#7 = DIRECTION ( 'NONE',  ( 1.000000000000000000, 0.000000000000000000, 0.000000000000000000 ) ) ;
#8 = CC_DESIGN_SECURITY_CLASSIFICATION ( #170, ( #214 ) ) ;
#9 = AXIS2_PLACEMENT_3D ( 'NONE', #92, #260, #142 ) ;
#10 = ORIENTED_EDGE ( 'NONE', *, *, #273, .F. ) ;
#11 = ORIENTED_EDGE ( 'NONE', *, *, #148, .F. ) ;
#12 = ORIENTED_EDGE ( 'NONE', *, *, #283, .T. ) ;
#13 = DIRECTION ( 'NONE',  ( 1.000000000000000000, 0.000000000000000000, 0.000000000000000000 ) ) ;
#14 = ORIENTED_EDGE ( 'NONE', *, *, #306, .F. ) ;
#15 = COORDINATED_UNIVERSAL_TIME_OFFSET ( 1, 0, .AHEAD. ) ;
#16 = CALENDAR_DATE ( 2022, 20, 6 ) ;
#17 = CIRCLE ( 'NONE', #183, 5.000000000000000000 ) ;
#18 = DATE_AND_TIME ( #90, #143 ) ;
#19 = DIRECTION ( 'NONE',  ( -0.000000000000000000, -0.000000000000000000, -1.000000000000000000 ) ) ;
#20 = DATE_TIME_ROLE ( 'classification_date' ) ;
#21 = APPLICATION_CONTEXT ( 'configuration controlled 3d designs of mechanical parts and assemblies' ) ;
#22 = DIRECTION ( 'NONE',  ( 1.000000000000000000, 0.000000000000000000, 0.000000000000000000 ) ) ;
#23 = CALENDAR_DATE ( 2022, 20, 6 ) ;
#24 = TOROIDAL_SURFACE ( 'NONE', #184, 2.799999999999999822, 0.2000000000000000111 ) ;
#25 = DIRECTION ( 'NONE',  ( 0.000000000000000000, 0.000000000000000000, 1.000000000000000000 ) ) ;
#26 = CIRCLE ( 'NONE', #191, 0.2000000000000000944 ) ;
#27 = LINE ( 'NONE', #141, #144 ) ;
#28 = CLOSED_SHELL ( 'NONE', ( #230, #187, #118, #250, #98, #206, #242, #44, #83 ) ) ;
#29 = DIRECTION ( 'NONE',  ( -0.000000000000000000, -0.000000000000000000, -1.000000000000000000 ) ) ;
#30 = DIRECTION ( 'NONE',  ( -0.000000000000000000, -0.000000000000000000, -1.000000000000000000 ) ) ;
#31 = EDGE_CURVE ( 'NONE', #85, #150, #27, .T. ) ;
#32 = DIRECTION ( 'NONE',  ( 0.000000000000000000, 0.000000000000000000, 1.000000000000000000 ) ) ;
#33 = AXIS2_PLACEMENT_3D ( 'NONE', #213, #1, #94 ) ;
#34 = DIRECTION ( 'NONE',  ( 1.000000000000000000, 0.000000000000000000, 0.000000000000000000 ) ) ;
#35 = ORIENTED_EDGE ( 'NONE', *, *, #295, .T. ) ;
#36 =( NAMED_UNIT ( * ) SI_UNIT ( $, .STERADIAN. ) SOLID_ANGLE_UNIT ( ) );
#37 = EDGE_LOOP ( 'NONE', ( #176, #205, #82, #181 ) ) ;
#38 = APPROVAL ( #46, 'NEURÈENÝ' ) ;
#39 = LOCAL_TIME ( 12, 2, 30.00000000000000000, #15 ) ;
#40 = DIRECTION ( 'NONE',  ( 0.000000000000000000, 0.000000000000000000, 1.000000000000000000 ) ) ;
#41 = EDGE_LOOP ( 'NONE', ( #182, #77, #80, #275 ) ) ;
#42 = CC_DESIGN_APPROVAL ( #88, ( #115 ) ) ;
#43 = APPROVAL_DATE_TIME ( #301, #38 ) ;
#44 = ADVANCED_FACE ( 'NONE', ( #236 ), #52, .T. ) ;
#45 = DIRECTION ( 'NONE',  ( 1.000000000000000000, 0.000000000000000000, 0.000000000000000000 ) ) ;
#46 = APPROVAL_STATUS ( 'not_yet_approved' ) ;
#47 = AXIS2_PLACEMENT_3D ( 'NONE', #266, #241, #195 ) ;
#48 = CYLINDRICAL_SURFACE ( 'NONE', #113, 2.600000000000000089 ) ;
#49 = DIRECTION ( 'NONE',  ( 1.000000000000000000, 0.000000000000000000, 0.000000000000000000 ) ) ;
#50 = CC_DESIGN_DATE_AND_TIME_ASSIGNMENT ( #18, #232, ( #115 ) ) ;
#51 = CIRCLE ( 'NONE', #56, 5.000000000000000000 ) ;
#52 = PLANE ( 'NONE',  #240 ) ;
#53 = DIRECTION ( 'NONE',  ( 0.000000000000000000, 0.000000000000000000, 1.000000000000000000 ) ) ;
#54 = AXIS2_PLACEMENT_3D ( 'NONE', #211, #137, #49 ) ;
#55 = DIRECTION ( 'NONE',  ( 1.000000000000000000, 0.000000000000000000, 0.000000000000000000 ) ) ;
#56 = AXIS2_PLACEMENT_3D ( 'NONE', #126, #276, #13 ) ;
#57 = VERTEX_POINT ( 'NONE', #3 ) ;
#58 = LINE ( 'NONE', #100, #128 ) ;
#59 = EDGE_LOOP ( 'NONE', ( #5, #132, #106, #112 ) ) ;
#60 = CC_DESIGN_PERSON_AND_ORGANIZATION_ASSIGNMENT ( #303, #234, ( #115 ) ) ;
#61 = EDGE_CURVE ( 'NONE', #165, #277, #285, .T. ) ;
#62 = ORIENTED_EDGE ( 'NONE', *, *, #75, .F. ) ;
#63 = CC_DESIGN_APPROVAL ( #159, ( #214 ) ) ;
#64 = MECHANICAL_CONTEXT ( 'NONE', #297, 'mechanical' ) ;
#65 = PERSON_AND_ORGANIZATION ( #102, #95 ) ;
#66 = ORIENTED_EDGE ( 'NONE', *, *, #75, .T. ) ;
#67 = APPROVAL_DATE_TIME ( #157, #159 ) ;
#68 = DIRECTION ( 'NONE',  ( -1.000000000000000000, 0.000000000000000000, 0.000000000000000000 ) ) ;
#69 = DATE_AND_TIME ( #23, #39 ) ;
#70 = FACE_BOUND ( 'NONE', #145, .T. ) ;
#71 = EDGE_LOOP ( 'NONE', ( #103, #253, #153, #178 ) ) ;
#72 = AXIS2_PLACEMENT_3D ( 'NONE', #79, #40, #199 ) ;
#73 = DIRECTION ( 'NONE',  ( -0.000000000000000000, -0.000000000000000000, -1.000000000000000000 ) ) ;
#74 = DIRECTION ( 'NONE',  ( -0.000000000000000000, -0.000000000000000000, -1.000000000000000000 ) ) ;
#75 = EDGE_CURVE ( 'NONE', #57, #248, #135, .T. ) ;
#76 = CARTESIAN_POINT ( 'NONE',  ( 5.000000000000000000, 6.123233995736766282E-16, 0.000000000000000000 ) ) ;
#77 = ORIENTED_EDGE ( 'NONE', *, *, #107, .T. ) ;
#78 = CIRCLE ( 'NONE', #47, 0.2000000000000000944 ) ;
#79 = CARTESIAN_POINT ( 'NONE',  ( 0.000000000000000000, 0.000000000000000000, 0.000000000000000000 ) ) ;
#80 = ORIENTED_EDGE ( 'NONE', *, *, #138, .F. ) ;
#81 = CARTESIAN_POINT ( 'NONE',  ( 0.000000000000000000, 0.000000000000000000, 0.000000000000000000 ) ) ;
#82 = ORIENTED_EDGE ( 'NONE', *, *, #273, .T. ) ;
#83 = ADVANCED_FACE ( 'NONE', ( #264 ), #173, .F. ) ;
#84 = DIRECTION ( 'NONE',  ( 0.000000000000000000, 0.000000000000000000, 1.000000000000000000 ) ) ;
#85 = VERTEX_POINT ( 'NONE', #96 ) ;
#86 = SHAPE_DEFINITION_REPRESENTATION ( #147, #229 ) ;
#87 = EDGE_LOOP ( 'NONE', ( #251, #228 ) ) ;
#88 = APPROVAL ( #231, 'NEURÈENÝ' ) ;
#89 = CIRCLE ( 'NONE', #269, 2.600000000000000089 ) ;
#90 = CALENDAR_DATE ( 2022, 20, 6 ) ;
#91 = SECURITY_CLASSIFICATION_LEVEL ( 'unclassified' ) ;
#92 = CARTESIAN_POINT ( 'NONE',  ( 0.000000000000000000, 0.000000000000000000, 3.199999999999994404 ) ) ;
#93 = CALENDAR_DATE ( 2022, 20, 6 ) ;
#94 = DIRECTION ( 'NONE',  ( 1.000000000000000000, 0.000000000000000000, 0.000000000000000000 ) ) ;
#95 = ORGANIZATION ( 'NEURÈENÝ', 'NEURÈENÝ', '' ) ;
#96 = CARTESIAN_POINT ( 'NONE',  ( -2.600000000000000089, 0.000000000000000000, 103.0000000000000142 ) ) ;
#97 = CARTESIAN_POINT ( 'NONE',  ( 0.000000000000000000, 0.000000000000000000, 103.0000000000000142 ) ) ;
#98 = ADVANCED_FACE ( 'NONE', ( #70, #117 ), #194, .T. ) ;
#99 = CARTESIAN_POINT ( 'NONE',  ( 0.000000000000000000, 0.000000000000000000, 3.199999999999994404 ) ) ;
#100 = CARTESIAN_POINT ( 'NONE',  ( 2.600000000000000089, 3.184081677783118191E-16, 103.0000000000000142 ) ) ;
#101 = CIRCLE ( 'NONE', #33, 2.600000000000000089 ) ;
#102 = PERSON ( 'NEURÈENÝ', 'NEURÈENÝ', 'NEURÈENÝ', ('NEURÈENÝ'), ('NEURÈENÝ'), ('NEURÈENÝ') ) ;
#103 = ORIENTED_EDGE ( 'NONE', *, *, #225, .F. ) ;
#104 = PRODUCT_RELATED_PRODUCT_CATEGORY ( 'detail', '', ( #198 ) ) ;
#105 = MANIFOLD_SOLID_BREP ( 'Zaoblit1', #28 ) ;
#106 = ORIENTED_EDGE ( 'NONE', *, *, #219, .T. ) ;
#107 = EDGE_CURVE ( 'NONE', #150, #57, #78, .T. ) ;
#108 = FACE_OUTER_BOUND ( 'NONE', #41, .T. ) ;
#109 = ORIENTED_EDGE ( 'NONE', *, *, #219, .F. ) ;
#110 = CIRCLE ( 'NONE', #222, 5.000000000000000000 ) ;
#111 = CARTESIAN_POINT ( 'NONE',  ( 5.000000000000000000, 6.123233995736766282E-16, 3.000000000000000000 ) ) ;
#112 = ORIENTED_EDGE ( 'NONE', *, *, #31, .F. ) ;
#113 = AXIS2_PLACEMENT_3D ( 'NONE', #97, #189, #68 ) ;
#114 = APPROVAL_DATE_TIME ( #212, #88 ) ;
#115 = PRODUCT_DEFINITION ( 'NEZNÁMÝ', '', #214, #127 ) ;
#116 = COORDINATED_UNIVERSAL_TIME_OFFSET ( 1, 0, .AHEAD. ) ;
#117 = FACE_OUTER_BOUND ( 'NONE', #154, .T. ) ;
#118 = ADVANCED_FACE ( 'NONE', ( #263 ), #120, .T. ) ;
#119 = AXIS2_PLACEMENT_3D ( 'NONE', #167, #298, #244 ) ;
#120 = CYLINDRICAL_SURFACE ( 'NONE', #245, 5.000000000000000000 ) ;
#121 = CC_DESIGN_APPROVAL ( #38, ( #170 ) ) ;
#122 = CIRCLE ( 'NONE', #9, 2.600000000000000089 ) ;
#123 = CARTESIAN_POINT ( 'NONE',  ( 0.000000000000000000, 0.000000000000000000, 0.000000000000000000 ) ) ;
#124 = DIRECTION ( 'NONE',  ( -1.000000000000000000, 0.000000000000000000, 0.000000000000000000 ) ) ;
#125 = CARTESIAN_POINT ( 'NONE',  ( 0.000000000000000000, 0.000000000000000000, 103.0000000000000142 ) ) ;
#126 = CARTESIAN_POINT ( 'NONE',  ( 0.000000000000000000, 0.000000000000000000, 3.000000000000000000 ) ) ;
#127 = DESIGN_CONTEXT ( 'detailed design', #21, 'design' ) ;
#128 = VECTOR ( 'NONE', #6, 1000.000000000000000 ) ;
#129 = DIRECTION ( 'NONE',  ( 0.000000000000000000, 0.000000000000000000, 1.000000000000000000 ) ) ;
#130 = EDGE_CURVE ( 'NONE', #150, #203, #122, .T. ) ;
#131 = ORIENTED_EDGE ( 'NONE', *, *, #295, .F. ) ;
#132 = ORIENTED_EDGE ( 'NONE', *, *, #225, .T. ) ;
#133 = CARTESIAN_POINT ( 'NONE',  ( 2.799999999999999822, 0.000000000000000000, 2.999999999999997335 ) ) ;
#134 = ORIENTED_EDGE ( 'NONE', *, *, #262, .T. ) ;
#135 = CIRCLE ( 'NONE', #179, 2.799999999999999822 ) ;
#136 = DIRECTION ( 'NONE',  ( 1.000000000000000000, 0.000000000000000000, 0.000000000000000000 ) ) ;
#137 = DIRECTION ( 'NONE',  ( -0.000000000000000000, -0.000000000000000000, -1.000000000000000000 ) ) ;
#138 = EDGE_CURVE ( 'NONE', #248, #57, #300, .T. ) ;
#139 = CARTESIAN_POINT ( 'NONE',  ( 0.000000000000000000, 0.000000000000000000, 3.000000000000000000 ) ) ;
#140 = COORDINATED_UNIVERSAL_TIME_OFFSET ( 1, 0, .AHEAD. ) ;
#141 = CARTESIAN_POINT ( 'NONE',  ( -2.600000000000000089, 0.000000000000000000, 103.0000000000000142 ) ) ;
#142 = DIRECTION ( 'NONE',  ( 1.000000000000000000, 0.000000000000000000, 0.000000000000000000 ) ) ;
#143 = LOCAL_TIME ( 12, 2, 30.00000000000000000, #304 ) ;
#144 = VECTOR ( 'NONE', #19, 1000.000000000000000 ) ;
#145 = EDGE_LOOP ( 'NONE', ( #208, #66 ) ) ;
#146 = DIRECTION ( 'NONE',  ( 1.000000000000000000, 0.000000000000000000, 0.000000000000000000 ) ) ;
#147 = PRODUCT_DEFINITION_SHAPE ( 'NONE', 'NONE',  #115 ) ;
#148 = EDGE_CURVE ( 'NONE', #277, #272, #110, .T. ) ;
#149 = CYLINDRICAL_SURFACE ( 'NONE', #294, 2.600000000000000089 ) ;
#150 = VERTEX_POINT ( 'NONE', #4 ) ;
#151 = VECTOR ( 'NONE', #73, 1000.000000000000000 ) ;
#152 =( LENGTH_UNIT ( ) NAMED_UNIT ( * ) SI_UNIT ( .MILLI., .METRE. ) );
#153 = ORIENTED_EDGE ( 'NONE', *, *, #31, .T. ) ;
#154 = EDGE_LOOP ( 'NONE', ( #35, #12 ) ) ;
#155 = CC_DESIGN_PERSON_AND_ORGANIZATION_ASSIGNMENT ( #307, #185, ( #198 ) ) ;
#156 = APPROVAL_PERSON_ORGANIZATION ( #280, #159, #186 ) ;
#157 = DATE_AND_TIME ( #93, #200 ) ;
#158 = APPLICATION_PROTOCOL_DEFINITION ( 'international standard', 'config_control_design', 1994, #21 ) ;
#159 = APPROVAL ( #209, 'NEURÈENÝ' ) ;
#160 = ORIENTED_EDGE ( 'NONE', *, *, #61, .T. ) ;
#161 = PERSON_AND_ORGANIZATION ( #102, #95 ) ;
#162 = CARTESIAN_POINT ( 'NONE',  ( 2.600000000000000089, 3.184081677783118191E-16, 3.199999999999994404 ) ) ;
#163 = APPROVAL_ROLE ( '' ) ;
#164 = CARTESIAN_POINT ( 'NONE',  ( 0.000000000000000000, 0.000000000000000000, 3.000000000000000000 ) ) ;
#165 = VERTEX_POINT ( 'NONE', #282 ) ;
#166 = CARTESIAN_POINT ( 'NONE',  ( 0.000000000000000000, 0.000000000000000000, 3.000000000000000000 ) ) ;
#167 = CARTESIAN_POINT ( 'NONE',  ( 0.000000000000000000, 0.000000000000000000, 3.000000000000000000 ) ) ;
#168 =( NAMED_UNIT ( * ) PLANE_ANGLE_UNIT ( ) SI_UNIT ( $, .RADIAN. ) );
#169 = EDGE_CURVE ( 'NONE', #85, #224, #89, .T. ) ;
#170 = SECURITY_CLASSIFICATION ( '', '', #91 ) ;
#171 = AXIS2_PLACEMENT_3D ( 'NONE', #227, #129, #7 ) ;
#172 = EDGE_LOOP ( 'NONE', ( #11, #10 ) ) ;
#173 = TOROIDAL_SURFACE ( 'NONE', #279, 2.799999999999999822, 0.2000000000000000111 ) ;
#174 = CC_DESIGN_PERSON_AND_ORGANIZATION_ASSIGNMENT ( #65, #210, ( #214 ) ) ;
#175 = DIRECTION ( 'NONE',  ( -1.000000000000000000, 0.000000000000000000, 0.000000000000000000 ) ) ;
#176 = ORIENTED_EDGE ( 'NONE', *, *, #283, .F. ) ;
#177 = DIRECTION ( 'NONE',  ( 0.000000000000000000, -1.000000000000000000, 0.000000000000000000 ) ) ;
#178 = ORIENTED_EDGE ( 'NONE', *, *, #130, .T. ) ;
#179 = AXIS2_PLACEMENT_3D ( 'NONE', #166, #235, #45 ) ;
#180 = DIRECTION ( 'NONE',  ( 0.000000000000000000, 0.000000000000000000, -1.000000000000000000 ) ) ;
#181 = ORIENTED_EDGE ( 'NONE', *, *, #61, .F. ) ;
#182 = ORIENTED_EDGE ( 'NONE', *, *, #130, .F. ) ;
#183 = AXIS2_PLACEMENT_3D ( 'NONE', #81, #84, #34 ) ;
#184 = AXIS2_PLACEMENT_3D ( 'NONE', #220, #32, #146 ) ;
#185 = PERSON_AND_ORGANIZATION_ROLE ( 'design_owner' ) ;
#186 = APPROVAL_ROLE ( '' ) ;
#187 = ADVANCED_FACE ( 'NONE', ( #305 ), #48, .T. ) ;
#188 = CARTESIAN_POINT ( 'NONE',  ( 0.000000000000000000, 0.000000000000000000, 0.000000000000000000 ) ) ;
#189 = DIRECTION ( 'NONE',  ( -0.000000000000000000, -0.000000000000000000, -1.000000000000000000 ) ) ;
#190 = PERSON_AND_ORGANIZATION ( #102, #95 ) ;
#191 = AXIS2_PLACEMENT_3D ( 'NONE', #247, #177, #180 ) ;
#192 = DIRECTION ( 'NONE',  ( 0.000000000000000000, 0.000000000000000000, 1.000000000000000000 ) ) ;
#193 = DIRECTION ( 'NONE',  ( 1.000000000000000000, 0.000000000000000000, 0.000000000000000000 ) ) ;
#194 = PLANE ( 'NONE',  #216 ) ;
#195 = DIRECTION ( 'NONE',  ( -1.000000000000000000, 1.224646799147353207E-16, 0.000000000000000000 ) ) ;
#196 = LINE ( 'NONE', #289, #254 ) ;
#197 = EDGE_CURVE ( 'NONE', #224, #85, #101, .T. ) ;
#198 = PRODUCT ( '0d09', '0d09', '', ( #64 ) ) ;
#199 = DIRECTION ( 'NONE',  ( 1.000000000000000000, 0.000000000000000000, -0.000000000000000000 ) ) ;
#200 = LOCAL_TIME ( 12, 2, 30.00000000000000000, #256 ) ;
#201 = LOCAL_TIME ( 12, 2, 30.00000000000000000, #140 ) ;
#202 = FACE_OUTER_BOUND ( 'NONE', #71, .T. ) ;
#203 = VERTEX_POINT ( 'NONE', #162 ) ;
#204 = DIRECTION ( 'NONE',  ( 0.000000000000000000, 0.000000000000000000, 1.000000000000000000 ) ) ;
#205 = ORIENTED_EDGE ( 'NONE', *, *, #306, .T. ) ;
#206 = ADVANCED_FACE ( 'NONE', ( #292 ), #268, .F. ) ;
#207 = CALENDAR_DATE ( 2022, 20, 6 ) ;
#208 = ORIENTED_EDGE ( 'NONE', *, *, #138, .T. ) ;
#209 = APPROVAL_STATUS ( 'not_yet_approved' ) ;
#210 = PERSON_AND_ORGANIZATION_ROLE ( 'creator' ) ;
#211 = CARTESIAN_POINT ( 'NONE',  ( 0.000000000000000000, 0.000000000000000000, 3.000000000000000000 ) ) ;
#212 = DATE_AND_TIME ( #16, #2 ) ;
#213 = CARTESIAN_POINT ( 'NONE',  ( 0.000000000000000000, 0.000000000000000000, 103.0000000000000142 ) ) ;
#214 = PRODUCT_DEFINITION_FORMATION_WITH_SPECIFIED_SOURCE ( 'LIBOVOLNÝ', '', #198, .NOT_KNOWN. ) ;
#215 = DIRECTION ( 'NONE',  ( 1.000000000000000000, 0.000000000000000000, -0.000000000000000000 ) ) ;
#216 = AXIS2_PLACEMENT_3D ( 'NONE', #164, #53, #215 ) ;
#217 = DIRECTION ( 'NONE',  ( 1.000000000000000000, 0.000000000000000000, 0.000000000000000000 ) ) ;
#218 = DIRECTION ( 'NONE',  ( 0.000000000000000000, 0.000000000000000000, 1.000000000000000000 ) ) ;
#219 = EDGE_CURVE ( 'NONE', #203, #150, #221, .T. ) ;
#220 = CARTESIAN_POINT ( 'NONE',  ( 0.000000000000000000, 0.000000000000000000, 3.199999999999994404 ) ) ;
#221 = CIRCLE ( 'NONE', #288, 2.600000000000000089 ) ;
#222 = AXIS2_PLACEMENT_3D ( 'NONE', #123, #218, #193 ) ;
#223 = EDGE_LOOP ( 'NONE', ( #14, #131, #160, #296 ) ) ;
#224 = VERTEX_POINT ( 'NONE', #274 ) ;
#225 = EDGE_CURVE ( 'NONE', #224, #203, #58, .T. ) ;
#226 =( GEOMETRIC_REPRESENTATION_CONTEXT ( 3 ) GLOBAL_UNCERTAINTY_ASSIGNED_CONTEXT ( ( #291 ) ) GLOBAL_UNIT_ASSIGNED_CONTEXT ( ( #152, #168, #36 ) ) REPRESENTATION_CONTEXT ( 'NONE', 'WORKASPACE' ) );
#227 = CARTESIAN_POINT ( 'NONE',  ( 0.000000000000000000, 0.000000000000000000, 3.000000000000000000 ) ) ;
#228 = ORIENTED_EDGE ( 'NONE', *, *, #197, .T. ) ;
#229 = ADVANCED_BREP_SHAPE_REPRESENTATION ( '0d09', ( #105, #278 ), #226 ) ;
#230 = ADVANCED_FACE ( 'NONE', ( #108 ), #24, .F. ) ;
#231 = APPROVAL_STATUS ( 'not_yet_approved' ) ;
#232 = DATE_TIME_ROLE ( 'creation_date' ) ;
#233 = CARTESIAN_POINT ( 'NONE',  ( 0.000000000000000000, 0.000000000000000000, 103.0000000000000142 ) ) ;
#234 = PERSON_AND_ORGANIZATION_ROLE ( 'creator' ) ;
#235 = DIRECTION ( 'NONE',  ( -0.000000000000000000, -0.000000000000000000, -1.000000000000000000 ) ) ;
#236 = FACE_OUTER_BOUND ( 'NONE', #87, .T. ) ;
#237 = APPROVAL_PERSON_ORGANIZATION ( #161, #38, #163 ) ;
#238 = APPROVAL_PERSON_ORGANIZATION ( #259, #88, #281 ) ;
#239 = DIRECTION ( 'NONE',  ( 0.000000000000000000, 0.000000000000000000, 1.000000000000000000 ) ) ;
#240 = AXIS2_PLACEMENT_3D ( 'NONE', #287, #192, #286 ) ;
#241 = DIRECTION ( 'NONE',  ( 1.224646799147353207E-16, 1.000000000000000000, -0.000000000000000000 ) ) ;
#242 = ADVANCED_FACE ( 'NONE', ( #202 ), #149, .T. ) ;
#243 = CARTESIAN_POINT ( 'NONE',  ( 0.000000000000000000, 0.000000000000000000, 3.199999999999994404 ) ) ;
#244 = DIRECTION ( 'NONE',  ( -1.000000000000000000, 0.000000000000000000, 0.000000000000000000 ) ) ;
#245 = AXIS2_PLACEMENT_3D ( 'NONE', #139, #29, #124 ) ;
#246 = CC_DESIGN_PERSON_AND_ORGANIZATION_ASSIGNMENT ( #190, #284, ( #170 ) ) ;
#247 = CARTESIAN_POINT ( 'NONE',  ( 2.799999999999999822, 0.000000000000000000, 3.199999999999994404 ) ) ;
#248 = VERTEX_POINT ( 'NONE', #133 ) ;
#249 = CC_DESIGN_PERSON_AND_ORGANIZATION_ASSIGNMENT ( #255, #261, ( #214 ) ) ;
#250 = ADVANCED_FACE ( 'NONE', ( #271 ), #290, .T. ) ;
#251 = ORIENTED_EDGE ( 'NONE', *, *, #169, .T. ) ;
#252 = APPLICATION_PROTOCOL_DEFINITION ( 'international standard', 'config_control_design', 1994, #297 ) ;
#253 = ORIENTED_EDGE ( 'NONE', *, *, #169, .F. ) ;
#254 = VECTOR ( 'NONE', #30, 1000.000000000000000 ) ;
#255 = PERSON_AND_ORGANIZATION ( #102, #95 ) ;
#256 = COORDINATED_UNIVERSAL_TIME_OFFSET ( 1, 0, .AHEAD. ) ;
#257 = DIRECTION ( 'NONE',  ( 0.000000000000000000, 0.000000000000000000, 1.000000000000000000 ) ) ;
#258 = CARTESIAN_POINT ( 'NONE',  ( -5.000000000000000000, 0.000000000000000000, 3.000000000000000000 ) ) ;
#259 = PERSON_AND_ORGANIZATION ( #102, #95 ) ;
#260 = DIRECTION ( 'NONE',  ( 0.000000000000000000, 0.000000000000000000, 1.000000000000000000 ) ) ;
#261 = PERSON_AND_ORGANIZATION_ROLE ( 'design_supplier' ) ;
#262 = EDGE_CURVE ( 'NONE', #203, #248, #26, .T. ) ;
#263 = FACE_OUTER_BOUND ( 'NONE', #37, .T. ) ;
#264 = FACE_OUTER_BOUND ( 'NONE', #293, .T. ) ;
#265 = CIRCLE ( 'NONE', #171, 5.000000000000000000 ) ;
#266 = CARTESIAN_POINT ( 'NONE',  ( -2.799999999999999822, 3.429011037612588783E-16, 3.199999999999994404 ) ) ;
#267 = CARTESIAN_POINT ( 'NONE',  ( -5.000000000000000000, 0.000000000000000000, 0.000000000000000000 ) ) ;
#268 = PLANE ( 'NONE',  #72 ) ;
#269 = AXIS2_PLACEMENT_3D ( 'NONE', #233, #239, #217 ) ;
#270 = CC_DESIGN_DATE_AND_TIME_ASSIGNMENT ( #69, #20, ( #170 ) ) ;
#271 = FACE_OUTER_BOUND ( 'NONE', #223, .T. ) ;
#272 = VERTEX_POINT ( 'NONE', #76 ) ;
#273 = EDGE_CURVE ( 'NONE', #272, #277, #17, .T. ) ;
#274 = CARTESIAN_POINT ( 'NONE',  ( 2.600000000000000089, 3.184081677783118191E-16, 103.0000000000000142 ) ) ;
#275 = ORIENTED_EDGE ( 'NONE', *, *, #262, .F. ) ;
#276 = DIRECTION ( 'NONE',  ( 0.000000000000000000, 0.000000000000000000, 1.000000000000000000 ) ) ;
#277 = VERTEX_POINT ( 'NONE', #267 ) ;
#278 = AXIS2_PLACEMENT_3D ( 'NONE', #188, #257, #136 ) ;
#279 = AXIS2_PLACEMENT_3D ( 'NONE', #99, #25, #22 ) ;
#280 = PERSON_AND_ORGANIZATION ( #102, #95 ) ;
#281 = APPROVAL_ROLE ( '' ) ;
#282 = CARTESIAN_POINT ( 'NONE',  ( -5.000000000000000000, 0.000000000000000000, 3.000000000000000000 ) ) ;
#283 = EDGE_CURVE ( 'NONE', #302, #165, #265, .T. ) ;
#284 = PERSON_AND_ORGANIZATION_ROLE ( 'classification_officer' ) ;
#285 = LINE ( 'NONE', #258, #151 ) ;
#286 = DIRECTION ( 'NONE',  ( 1.000000000000000000, 0.000000000000000000, -0.000000000000000000 ) ) ;
#287 = CARTESIAN_POINT ( 'NONE',  ( 0.000000000000000000, 0.000000000000000000, 103.0000000000000142 ) ) ;
#288 = AXIS2_PLACEMENT_3D ( 'NONE', #243, #204, #55 ) ;
#289 = CARTESIAN_POINT ( 'NONE',  ( 5.000000000000000000, 6.123233995736766282E-16, 3.000000000000000000 ) ) ;
#290 = CYLINDRICAL_SURFACE ( 'NONE', #119, 5.000000000000000000 ) ;
#291 = UNCERTAINTY_MEASURE_WITH_UNIT (LENGTH_MEASURE( 1.000000000000000082E-05 ), #152, 'distance_accuracy_value', 'NONE');
#292 = FACE_OUTER_BOUND ( 'NONE', #172, .T. ) ;
#293 = EDGE_LOOP ( 'NONE', ( #299, #109, #134, #62 ) ) ;
#294 = AXIS2_PLACEMENT_3D ( 'NONE', #125, #74, #175 ) ;
#295 = EDGE_CURVE ( 'NONE', #165, #302, #51, .T. ) ;
#296 = ORIENTED_EDGE ( 'NONE', *, *, #148, .T. ) ;
#297 = APPLICATION_CONTEXT ( 'configuration controlled 3d designs of mechanical parts and assemblies' ) ;
#298 = DIRECTION ( 'NONE',  ( -0.000000000000000000, -0.000000000000000000, -1.000000000000000000 ) ) ;
#299 = ORIENTED_EDGE ( 'NONE', *, *, #107, .F. ) ;
#300 = CIRCLE ( 'NONE', #54, 2.799999999999999822 ) ;
#301 = DATE_AND_TIME ( #207, #201 ) ;
#302 = VERTEX_POINT ( 'NONE', #111 ) ;
#303 = PERSON_AND_ORGANIZATION ( #102, #95 ) ;
#304 = COORDINATED_UNIVERSAL_TIME_OFFSET ( 1, 0, .AHEAD. ) ;
#305 = FACE_OUTER_BOUND ( 'NONE', #59, .T. ) ;
#306 = EDGE_CURVE ( 'NONE', #302, #272, #196, .T. ) ;
#307 = PERSON_AND_ORGANIZATION ( #102, #95 ) ;
ENDSEC;
END-ISO-10303-21;
