ISO-10303-21;
HEADER;
FILE_DESCRIPTION (( 'STEP AP203' ),
    '1' );
FILE_NAME ('edfb.STEP',
    '2022-06-20T09:40:19',
    ( '' ),
    ( '' ),
    'SwSTEP 2.0',
    'SolidWorks 2019',
    '' );
FILE_SCHEMA (( 'CONFIG_CONTROL_DESIGN' ));
ENDSEC;

DATA;
#1 = AXIS2_PLACEMENT_3D ( 'NONE', #306, #156, #182 ) ;
#2 = LINE ( 'NONE', #76, #191 ) ;
#3 = DIRECTION ( 'NONE',  ( 0.000000000000000000, 0.000000000000000000, 1.000000000000000000 ) ) ;
#4 = CYLINDRICAL_SURFACE ( 'NONE', #31, 8.000000000000000000 ) ;
#5 = ADVANCED_FACE ( 'NONE', ( #119 ), #270, .F. ) ;
#6 = CARTESIAN_POINT ( 'NONE',  ( -8.000000000000000000, 0.000000000000000000, 5.000000000000000000 ) ) ;
#7 = CIRCLE ( 'NONE', #176, 0.1999999999999996503 ) ;
#8 = CARTESIAN_POINT ( 'NONE',  ( 0.000000000000000000, 0.000000000000000000, 5.199999999999982414 ) ) ;
#9 = PLANE ( 'NONE',  #50 ) ;
#10 = APPROVAL_ROLE ( '' ) ;
#11 = ORIENTED_EDGE ( 'NONE', *, *, #174, .T. ) ;
#12 = AXIS2_PLACEMENT_3D ( 'NONE', #104, #141, #201 ) ;
#13 = SECURITY_CLASSIFICATION ( '', '', #73 ) ;
#14 = PERSON_AND_ORGANIZATION ( #189, #116 ) ;
#15 = VERTEX_POINT ( 'NONE', #173 ) ;
#16 = ORIENTED_EDGE ( 'NONE', *, *, #49, .T. ) ;
#17 = PERSON_AND_ORGANIZATION ( #189, #116 ) ;
#18 = EDGE_CURVE ( 'NONE', #136, #100, #255, .T. ) ;
#19 = APPROVAL_DATE_TIME ( #197, #217 ) ;
#20 = AXIS2_PLACEMENT_3D ( 'NONE', #251, #162, #82 ) ;
#21 = ORIENTED_EDGE ( 'NONE', *, *, #277, .T. ) ;
#22 = PRODUCT_RELATED_PRODUCT_CATEGORY ( 'detail', '', ( #227 ) ) ;
#23 = DIRECTION ( 'NONE',  ( 1.000000000000000000, 0.000000000000000000, 0.000000000000000000 ) ) ;
#24 = CARTESIAN_POINT ( 'NONE',  ( 0.000000000000000000, 0.000000000000000000, 805.0000000000000000 ) ) ;
#25 = AXIS2_PLACEMENT_3D ( 'NONE', #24, #278, #26 ) ;
#26 = DIRECTION ( 'NONE',  ( 1.000000000000000000, 0.000000000000000000, 0.000000000000000000 ) ) ;
#27 = CC_DESIGN_PERSON_AND_ORGANIZATION_ASSIGNMENT ( #70, #67, ( #78 ) ) ;
#28 = CARTESIAN_POINT ( 'NONE',  ( 0.000000000000000000, 0.000000000000000000, 5.199999999999982414 ) ) ;
#29 = CARTESIAN_POINT ( 'NONE',  ( 0.000000000000000000, 0.000000000000000000, 5.199999999999982414 ) ) ;
#30 = AXIS2_PLACEMENT_3D ( 'NONE', #157, #53, #253 ) ;
#31 = AXIS2_PLACEMENT_3D ( 'NONE', #187, #39, #282 ) ;
#32 = APPLICATION_PROTOCOL_DEFINITION ( 'international standard', 'config_control_design', 1994, #188 ) ;
#33 = CC_DESIGN_DATE_AND_TIME_ASSIGNMENT ( #221, #195, ( #13 ) ) ;
#34 = UNCERTAINTY_MEASURE_WITH_UNIT (LENGTH_MEASURE( 1.000000000000000082E-05 ), #149, 'distance_accuracy_value', 'NONE');
#35 = FACE_BOUND ( 'NONE', #101, .T. ) ;
#36 = CIRCLE ( 'NONE', #94, 5.200000000000001066 ) ;
#37 = CC_DESIGN_DATE_AND_TIME_ASSIGNMENT ( #215, #114, ( #165 ) ) ;
#38 = APPLICATION_CONTEXT ( 'configuration controlled 3d designs of mechanical parts and assemblies' ) ;
#39 = DIRECTION ( 'NONE',  ( -0.000000000000000000, -0.000000000000000000, -1.000000000000000000 ) ) ;
#40 = PERSON_AND_ORGANIZATION_ROLE ( 'design_owner' ) ;
#41 = ORIENTED_EDGE ( 'NONE', *, *, #69, .T. ) ;
#42 = DATE_AND_TIME ( #263, #238 ) ;
#43 = EDGE_LOOP ( 'NONE', ( #245, #11, #123, #175 ) ) ;
#44 = CALENDAR_DATE ( 2022, 20, 6 ) ;
#45 = ORIENTED_EDGE ( 'NONE', *, *, #109, .F. ) ;
#46 = APPROVAL_ROLE ( '' ) ;
#47 = ORIENTED_EDGE ( 'NONE', *, *, #178, .T. ) ;
#48 = VECTOR ( 'NONE', #226, 1000.000000000000000 ) ;
#49 = EDGE_CURVE ( 'NONE', #265, #220, #248, .T. ) ;
#50 = AXIS2_PLACEMENT_3D ( 'NONE', #146, #129, #184 ) ;
#51 = CARTESIAN_POINT ( 'NONE',  ( 8.000000000000000000, 9.797174393178825657E-16, 5.000000000000000000 ) ) ;
#52 = DIRECTION ( 'NONE',  ( 0.000000000000000000, 0.000000000000000000, 1.000000000000000000 ) ) ;
#53 = DIRECTION ( 'NONE',  ( 0.000000000000000000, 0.000000000000000000, 1.000000000000000000 ) ) ;
#54 = AXIS2_PLACEMENT_3D ( 'NONE', #286, #85, #92 ) ;
#55 = ORIENTED_EDGE ( 'NONE', *, *, #81, .F. ) ;
#56 = DIRECTION ( 'NONE',  ( 0.000000000000000000, 0.000000000000000000, 1.000000000000000000 ) ) ;
#57 = EDGE_CURVE ( 'NONE', #241, #265, #2, .T. ) ;
#58 = DIRECTION ( 'NONE',  ( 1.000000000000000000, 0.000000000000000000, -0.000000000000000000 ) ) ;
#59 = DIRECTION ( 'NONE',  ( 1.000000000000000000, 0.000000000000000000, -0.000000000000000000 ) ) ;
#60 = EDGE_CURVE ( 'NONE', #294, #15, #77, .T. ) ;
#61 = APPROVAL_PERSON_ORGANIZATION ( #17, #217, #10 ) ;
#62 =( NAMED_UNIT ( * ) PLANE_ANGLE_UNIT ( ) SI_UNIT ( $, .RADIAN. ) );
#63 = CARTESIAN_POINT ( 'NONE',  ( 0.000000000000000000, 0.000000000000000000, 805.0000000000000000 ) ) ;
#64 = APPROVAL ( #134, 'NEURÈENÝ' ) ;
#65 = ADVANCED_BREP_SHAPE_REPRESENTATION ( 'edfb', ( #260, #192 ), #83 ) ;
#66 = CIRCLE ( 'NONE', #234, 5.000000000000000888 ) ;
#67 = PERSON_AND_ORGANIZATION_ROLE ( 'design_supplier' ) ;
#68 = EDGE_LOOP ( 'NONE', ( #139, #292, #41, #304 ) ) ;
#69 = EDGE_CURVE ( 'NONE', #220, #265, #302, .T. ) ;
#70 = PERSON_AND_ORGANIZATION ( #189, #116 ) ;
#71 = EDGE_LOOP ( 'NONE', ( #96, #155, #122, #224 ) ) ;
#72 = CC_DESIGN_SECURITY_CLASSIFICATION ( #13, ( #78 ) ) ;
#73 = SECURITY_CLASSIFICATION_LEVEL ( 'unclassified' ) ;
#74 = VERTEX_POINT ( 'NONE', #106 ) ;
#75 = ADVANCED_FACE ( 'NONE', ( #232 ), #88, .F. ) ;
#76 = CARTESIAN_POINT ( 'NONE',  ( -8.000000000000000000, 0.000000000000000000, 5.000000000000000000 ) ) ;
#77 = CIRCLE ( 'NONE', #12, 5.200000000000001066 ) ;
#78 = PRODUCT_DEFINITION_FORMATION_WITH_SPECIFIED_SOURCE ( 'LIBOVOLNÝ', '', #227, .NOT_KNOWN. ) ;
#79 = CARTESIAN_POINT ( 'NONE',  ( 8.000000000000000000, 9.797174393178825657E-16, 5.000000000000000000 ) ) ;
#80 = DIRECTION ( 'NONE',  ( -1.000000000000000000, 0.000000000000000000, 0.000000000000000000 ) ) ;
#81 = EDGE_CURVE ( 'NONE', #243, #136, #153, .T. ) ;
#82 = DIRECTION ( 'NONE',  ( 1.000000000000000000, 0.000000000000000000, 0.000000000000000000 ) ) ;
#83 =( GEOMETRIC_REPRESENTATION_CONTEXT ( 3 ) GLOBAL_UNCERTAINTY_ASSIGNED_CONTEXT ( ( #34 ) ) GLOBAL_UNIT_ASSIGNED_CONTEXT ( ( #149, #62, #163 ) ) REPRESENTATION_CONTEXT ( 'NONE', 'WORKASPACE' ) );
#84 = DIRECTION ( 'NONE',  ( 1.224646799147353207E-16, 1.000000000000000000, -0.000000000000000000 ) ) ;
#85 = DIRECTION ( 'NONE',  ( -0.000000000000000000, -0.000000000000000000, -1.000000000000000000 ) ) ;
#86 = CC_DESIGN_PERSON_AND_ORGANIZATION_ASSIGNMENT ( #266, #40, ( #227 ) ) ;
#87 = CYLINDRICAL_SURFACE ( 'NONE', #275, 5.000000000000000888 ) ;
#88 = TOROIDAL_SURFACE ( 'NONE', #143, 5.200000000000001066, 0.2000000000000000111 ) ;
#89 = DIRECTION ( 'NONE',  ( 0.000000000000000000, 0.000000000000000000, 1.000000000000000000 ) ) ;
#90 = EDGE_CURVE ( 'NONE', #136, #243, #249, .T. ) ;
#91 = DIRECTION ( 'NONE',  ( 0.000000000000000000, 0.000000000000000000, 1.000000000000000000 ) ) ;
#92 = DIRECTION ( 'NONE',  ( -1.000000000000000000, 0.000000000000000000, 0.000000000000000000 ) ) ;
#93 = DATE_AND_TIME ( #223, #166 ) ;
#94 = AXIS2_PLACEMENT_3D ( 'NONE', #257, #145, #150 ) ;
#95 = COORDINATED_UNIVERSAL_TIME_OFFSET ( 1, 0, .AHEAD. ) ;
#96 = ORIENTED_EDGE ( 'NONE', *, *, #174, .F. ) ;
#97 = CC_DESIGN_APPROVAL ( #204, ( #78 ) ) ;
#98 = ADVANCED_FACE ( 'NONE', ( #183 ), #279, .T. ) ;
#99 = ORIENTED_EDGE ( 'NONE', *, *, #90, .T. ) ;
#100 = VERTEX_POINT ( 'NONE', #276 ) ;
#101 = EDGE_LOOP ( 'NONE', ( #47, #264 ) ) ;
#102 = CARTESIAN_POINT ( 'NONE',  ( 0.000000000000000000, 0.000000000000000000, 5.199999999999982414 ) ) ;
#103 = VERTEX_POINT ( 'NONE', #79 ) ;
#104 = CARTESIAN_POINT ( 'NONE',  ( 0.000000000000000000, 0.000000000000000000, 5.000000000000000000 ) ) ;
#105 = PLANE ( 'NONE',  #144 ) ;
#106 = CARTESIAN_POINT ( 'NONE',  ( -5.000000000000000888, 0.000000000000000000, 5.199999999999982414 ) ) ;
#107 = DIRECTION ( 'NONE',  ( 0.000000000000000000, 0.000000000000000000, 1.000000000000000000 ) ) ;
#108 = VECTOR ( 'NONE', #274, 1000.000000000000000 ) ;
#109 = EDGE_CURVE ( 'NONE', #103, #220, #125, .T. ) ;
#110 = CARTESIAN_POINT ( 'NONE',  ( -5.000000000000000888, 0.000000000000000000, 805.0000000000000000 ) ) ;
#111 = FACE_OUTER_BOUND ( 'NONE', #298, .T. ) ;
#112 = AXIS2_PLACEMENT_3D ( 'NONE', #167, #89, #211 ) ;
#113 = CYLINDRICAL_SURFACE ( 'NONE', #54, 5.000000000000000888 ) ;
#114 = DATE_TIME_ROLE ( 'creation_date' ) ;
#115 = ORIENTED_EDGE ( 'NONE', *, *, #252, .T. ) ;
#116 = ORGANIZATION ( 'NEURÈENÝ', 'NEURÈENÝ', '' ) ;
#117 = COORDINATED_UNIVERSAL_TIME_OFFSET ( 1, 0, .AHEAD. ) ;
#118 = ORIENTED_EDGE ( 'NONE', *, *, #57, .T. ) ;
#119 = FACE_OUTER_BOUND ( 'NONE', #43, .T. ) ;
#120 = PERSON_AND_ORGANIZATION ( #189, #116 ) ;
#121 = ORIENTED_EDGE ( 'NONE', *, *, #168, .F. ) ;
#122 = ORIENTED_EDGE ( 'NONE', *, *, #130, .T. ) ;
#123 = ORIENTED_EDGE ( 'NONE', *, *, #178, .F. ) ;
#124 = FACE_OUTER_BOUND ( 'NONE', #199, .T. ) ;
#125 = LINE ( 'NONE', #51, #271 ) ;
#126 = DIRECTION ( 'NONE',  ( 0.000000000000000000, 0.000000000000000000, 1.000000000000000000 ) ) ;
#127 = DIRECTION ( 'NONE',  ( -0.000000000000000000, -0.000000000000000000, -1.000000000000000000 ) ) ;
#128 = CARTESIAN_POINT ( 'NONE',  ( 0.000000000000000000, 0.000000000000000000, 0.000000000000000000 ) ) ;
#129 = DIRECTION ( 'NONE',  ( 0.000000000000000000, 0.000000000000000000, 1.000000000000000000 ) ) ;
#130 = EDGE_CURVE ( 'NONE', #100, #15, #198, .T. ) ;
#131 = CARTESIAN_POINT ( 'NONE',  ( -8.000000000000000000, 0.000000000000000000, 0.000000000000000000 ) ) ;
#132 = CARTESIAN_POINT ( 'NONE',  ( 8.000000000000000000, 9.797174393178825657E-16, 0.000000000000000000 ) ) ;
#133 = EDGE_CURVE ( 'NONE', #241, #103, #303, .T. ) ;
#134 = APPROVAL_STATUS ( 'not_yet_approved' ) ;
#135 = PERSON_AND_ORGANIZATION ( #189, #116 ) ;
#136 = VERTEX_POINT ( 'NONE', #160 ) ;
#137 = PERSON_AND_ORGANIZATION_ROLE ( 'classification_officer' ) ;
#138 = ADVANCED_FACE ( 'NONE', ( #124 ), #105, .F. ) ;
#139 = ORIENTED_EDGE ( 'NONE', *, *, #277, .F. ) ;
#140 = CARTESIAN_POINT ( 'NONE',  ( -5.000000000000000888, 0.000000000000000000, 805.0000000000000000 ) ) ;
#141 = DIRECTION ( 'NONE',  ( -0.000000000000000000, -0.000000000000000000, -1.000000000000000000 ) ) ;
#142 = DIRECTION ( 'NONE',  ( -0.000000000000000000, -0.000000000000000000, -1.000000000000000000 ) ) ;
#143 = AXIS2_PLACEMENT_3D ( 'NONE', #29, #107, #205 ) ;
#144 = AXIS2_PLACEMENT_3D ( 'NONE', #181, #56, #58 ) ;
#145 = DIRECTION ( 'NONE',  ( -0.000000000000000000, -0.000000000000000000, -1.000000000000000000 ) ) ;
#146 = CARTESIAN_POINT ( 'NONE',  ( 0.000000000000000000, 0.000000000000000000, 5.000000000000000000 ) ) ;
#147 = CIRCLE ( 'NONE', #112, 8.000000000000000000 ) ;
#148 = CARTESIAN_POINT ( 'NONE',  ( -5.200000000000001066, 6.368163355566237368E-16, 4.999999999999991118 ) ) ;
#149 =( LENGTH_UNIT ( ) NAMED_UNIT ( * ) SI_UNIT ( .MILLI., .METRE. ) );
#150 = DIRECTION ( 'NONE',  ( 1.000000000000000000, 0.000000000000000000, 0.000000000000000000 ) ) ;
#151 = APPROVAL_STATUS ( 'not_yet_approved' ) ;
#152 = ORIENTED_EDGE ( 'NONE', *, *, #49, .F. ) ;
#153 = CIRCLE ( 'NONE', #25, 5.000000000000000888 ) ;
#154 = CALENDAR_DATE ( 2022, 20, 6 ) ;
#155 = ORIENTED_EDGE ( 'NONE', *, *, #252, .F. ) ;
#156 = DIRECTION ( 'NONE',  ( 0.000000000000000000, 0.000000000000000000, 1.000000000000000000 ) ) ;
#157 = CARTESIAN_POINT ( 'NONE',  ( 0.000000000000000000, 0.000000000000000000, 0.000000000000000000 ) ) ;
#158 = CARTESIAN_POINT ( 'NONE',  ( 5.000000000000000888, 6.123233995736767268E-16, 805.0000000000000000 ) ) ;
#159 = EDGE_CURVE ( 'NONE', #74, #100, #66, .T. ) ;
#160 = CARTESIAN_POINT ( 'NONE',  ( 5.000000000000000888, 6.123233995736767268E-16, 805.0000000000000000 ) ) ;
#161 = CC_DESIGN_APPROVAL ( #217, ( #13 ) ) ;
#162 = DIRECTION ( 'NONE',  ( 0.000000000000000000, 0.000000000000000000, 1.000000000000000000 ) ) ;
#163 =( NAMED_UNIT ( * ) SI_UNIT ( $, .STERADIAN. ) SOLID_ANGLE_UNIT ( ) );
#164 = AXIS2_PLACEMENT_3D ( 'NONE', #231, #52, #203 ) ;
#165 = PRODUCT_DEFINITION ( 'NEZNÁMÝ', '', #78, #239 ) ;
#166 = LOCAL_TIME ( 11, 40, 19.00000000000000000, #247 ) ;
#167 = CARTESIAN_POINT ( 'NONE',  ( 0.000000000000000000, 0.000000000000000000, 5.000000000000000000 ) ) ;
#168 = EDGE_CURVE ( 'NONE', #243, #74, #307, .T. ) ;
#169 = PERSON_AND_ORGANIZATION_ROLE ( 'creator' ) ;
#170 = CALENDAR_DATE ( 2022, 20, 6 ) ;
#171 = EDGE_LOOP ( 'NONE', ( #225, #55, #299, #200 ) ) ;
#172 = EDGE_LOOP ( 'NONE', ( #267, #21 ) ) ;
#173 = CARTESIAN_POINT ( 'NONE',  ( 5.200000000000001066, 0.000000000000000000, 4.999999999999991118 ) ) ;
#174 = EDGE_CURVE ( 'NONE', #74, #294, #7, .T. ) ;
#175 = ORIENTED_EDGE ( 'NONE', *, *, #130, .F. ) ;
#176 = AXIS2_PLACEMENT_3D ( 'NONE', #280, #84, #250 ) ;
#177 = ORIENTED_EDGE ( 'NONE', *, *, #90, .F. ) ;
#178 = EDGE_CURVE ( 'NONE', #15, #294, #36, .T. ) ;
#179 = DIRECTION ( 'NONE',  ( -0.000000000000000000, -0.000000000000000000, -1.000000000000000000 ) ) ;
#180 = LOCAL_TIME ( 11, 40, 19.00000000000000000, #95 ) ;
#181 = CARTESIAN_POINT ( 'NONE',  ( 0.000000000000000000, 0.000000000000000000, 0.000000000000000000 ) ) ;
#182 = DIRECTION ( 'NONE',  ( 1.000000000000000000, 0.000000000000000000, 0.000000000000000000 ) ) ;
#183 = FACE_OUTER_BOUND ( 'NONE', #297, .T. ) ;
#184 = DIRECTION ( 'NONE',  ( 1.000000000000000000, 0.000000000000000000, -0.000000000000000000 ) ) ;
#185 = DIRECTION ( 'NONE',  ( 1.000000000000000000, 0.000000000000000000, 0.000000000000000000 ) ) ;
#186 = PLANE ( 'NONE',  #290 ) ;
#187 = CARTESIAN_POINT ( 'NONE',  ( 0.000000000000000000, 0.000000000000000000, 5.000000000000000000 ) ) ;
#188 = APPLICATION_CONTEXT ( 'configuration controlled 3d designs of mechanical parts and assemblies' ) ;
#189 = PERSON ( 'NEURÈENÝ', 'NEURÈENÝ', 'NEURÈENÝ', ('NEURÈENÝ'), ('NEURÈENÝ'), ('NEURÈENÝ') ) ;
#190 = APPROVAL_STATUS ( 'not_yet_approved' ) ;
#191 = VECTOR ( 'NONE', #142, 1000.000000000000000 ) ;
#192 = AXIS2_PLACEMENT_3D ( 'NONE', #128, #3, #235 ) ;
#193 = PERSON_AND_ORGANIZATION ( #189, #116 ) ;
#194 = ORIENTED_EDGE ( 'NONE', *, *, #81, .T. ) ;
#195 = DATE_TIME_ROLE ( 'classification_date' ) ;
#196 = ADVANCED_FACE ( 'NONE', ( #209 ), #87, .T. ) ;
#197 = DATE_AND_TIME ( #154, #256 ) ;
#198 = CIRCLE ( 'NONE', #254, 0.1999999999999996503 ) ;
#199 = EDGE_LOOP ( 'NONE', ( #152, #216 ) ) ;
#200 = ORIENTED_EDGE ( 'NONE', *, *, #159, .T. ) ;
#201 = DIRECTION ( 'NONE',  ( 1.000000000000000000, 0.000000000000000000, 0.000000000000000000 ) ) ;
#202 = CARTESIAN_POINT ( 'NONE',  ( 5.200000000000001066, 0.000000000000000000, 5.199999999999982414 ) ) ;
#203 = DIRECTION ( 'NONE',  ( 1.000000000000000000, 0.000000000000000000, 0.000000000000000000 ) ) ;
#204 = APPROVAL ( #190, 'NEURÈENÝ' ) ;
#205 = DIRECTION ( 'NONE',  ( 1.000000000000000000, 0.000000000000000000, 0.000000000000000000 ) ) ;
#206 = DIRECTION ( 'NONE',  ( 0.000000000000000000, -1.000000000000000000, 0.000000000000000000 ) ) ;
#207 = APPROVAL_PERSON_ORGANIZATION ( #120, #64, #46 ) ;
#208 = MECHANICAL_CONTEXT ( 'NONE', #188, 'mechanical' ) ;
#209 = FACE_OUTER_BOUND ( 'NONE', #272, .T. ) ;
#210 = APPROVAL_PERSON_ORGANIZATION ( #14, #204, #287 ) ;
#211 = DIRECTION ( 'NONE',  ( 1.000000000000000000, 0.000000000000000000, 0.000000000000000000 ) ) ;
#212 = DIRECTION ( 'NONE',  ( -1.000000000000000000, 0.000000000000000000, 0.000000000000000000 ) ) ;
#213 = APPROVAL_DATE_TIME ( #93, #64 ) ;
#214 = CC_DESIGN_APPROVAL ( #64, ( #165 ) ) ;
#215 = DATE_AND_TIME ( #44, #230 ) ;
#216 = ORIENTED_EDGE ( 'NONE', *, *, #69, .F. ) ;
#217 = APPROVAL ( #151, 'NEURÈENÝ' ) ;
#218 = ORIENTED_EDGE ( 'NONE', *, *, #133, .F. ) ;
#219 = PERSON_AND_ORGANIZATION_ROLE ( 'creator' ) ;
#220 = VERTEX_POINT ( 'NONE', #132 ) ;
#221 = DATE_AND_TIME ( #170, #180 ) ;
#222 = CIRCLE ( 'NONE', #262, 5.000000000000000888 ) ;
#223 = CALENDAR_DATE ( 2022, 20, 6 ) ;
#224 = ORIENTED_EDGE ( 'NONE', *, *, #60, .F. ) ;
#225 = ORIENTED_EDGE ( 'NONE', *, *, #18, .F. ) ;
#226 = DIRECTION ( 'NONE',  ( -0.000000000000000000, -0.000000000000000000, -1.000000000000000000 ) ) ;
#227 = PRODUCT ( 'edfb', 'edfb', '', ( #208 ) ) ;
#228 = DIRECTION ( 'NONE',  ( 1.000000000000000000, 0.000000000000000000, 0.000000000000000000 ) ) ;
#229 = ADVANCED_FACE ( 'NONE', ( #283 ), #4, .T. ) ;
#230 = LOCAL_TIME ( 11, 40, 19.00000000000000000, #296 ) ;
#231 = CARTESIAN_POINT ( 'NONE',  ( 0.000000000000000000, 0.000000000000000000, 0.000000000000000000 ) ) ;
#232 = FACE_OUTER_BOUND ( 'NONE', #71, .T. ) ;
#233 = CC_DESIGN_PERSON_AND_ORGANIZATION_ASSIGNMENT ( #293, #137, ( #13 ) ) ;
#234 = AXIS2_PLACEMENT_3D ( 'NONE', #28, #126, #23 ) ;
#235 = DIRECTION ( 'NONE',  ( 1.000000000000000000, 0.000000000000000000, 0.000000000000000000 ) ) ;
#236 = DIRECTION ( 'NONE',  ( -0.000000000000000000, -0.000000000000000000, -1.000000000000000000 ) ) ;
#237 = FACE_OUTER_BOUND ( 'NONE', #172, .T. ) ;
#238 = LOCAL_TIME ( 11, 40, 19.00000000000000000, #242 ) ;
#239 = DESIGN_CONTEXT ( 'detailed design', #38, 'design' ) ;
#240 = SHAPE_DEFINITION_REPRESENTATION ( #269, #65 ) ;
#241 = VERTEX_POINT ( 'NONE', #6 ) ;
#242 = COORDINATED_UNIVERSAL_TIME_OFFSET ( 1, 0, .AHEAD. ) ;
#243 = VERTEX_POINT ( 'NONE', #110 ) ;
#244 = APPLICATION_PROTOCOL_DEFINITION ( 'international standard', 'config_control_design', 1994, #38 ) ;
#245 = ORIENTED_EDGE ( 'NONE', *, *, #159, .F. ) ;
#246 = ADVANCED_FACE ( 'NONE', ( #35, #237 ), #9, .T. ) ;
#247 = COORDINATED_UNIVERSAL_TIME_OFFSET ( 1, 0, .AHEAD. ) ;
#248 = CIRCLE ( 'NONE', #30, 8.000000000000000000 ) ;
#249 = CIRCLE ( 'NONE', #1, 5.000000000000000888 ) ;
#250 = DIRECTION ( 'NONE',  ( -1.000000000000000000, 1.224646799147353454E-16, 0.000000000000000000 ) ) ;
#251 = CARTESIAN_POINT ( 'NONE',  ( 0.000000000000000000, 0.000000000000000000, 5.000000000000000000 ) ) ;
#252 = EDGE_CURVE ( 'NONE', #100, #74, #222, .T. ) ;
#253 = DIRECTION ( 'NONE',  ( 1.000000000000000000, 0.000000000000000000, 0.000000000000000000 ) ) ;
#254 = AXIS2_PLACEMENT_3D ( 'NONE', #202, #206, #305 ) ;
#255 = LINE ( 'NONE', #158, #48 ) ;
#256 = LOCAL_TIME ( 11, 40, 19.00000000000000000, #117 ) ;
#257 = CARTESIAN_POINT ( 'NONE',  ( 0.000000000000000000, 0.000000000000000000, 5.000000000000000000 ) ) ;
#258 = FACE_OUTER_BOUND ( 'NONE', #171, .T. ) ;
#259 = ADVANCED_FACE ( 'NONE', ( #111 ), #186, .T. ) ;
#260 = MANIFOLD_SOLID_BREP ( 'Zaoblit1', #261 ) ;
#261 = CLOSED_SHELL ( 'NONE', ( #5, #196, #229, #98, #246, #138, #301, #259, #75 ) ) ;
#262 = AXIS2_PLACEMENT_3D ( 'NONE', #8, #91, #185 ) ;
#263 = CALENDAR_DATE ( 2022, 20, 6 ) ;
#264 = ORIENTED_EDGE ( 'NONE', *, *, #60, .T. ) ;
#265 = VERTEX_POINT ( 'NONE', #131 ) ;
#266 = PERSON_AND_ORGANIZATION ( #189, #116 ) ;
#267 = ORIENTED_EDGE ( 'NONE', *, *, #133, .T. ) ;
#268 = DIRECTION ( 'NONE',  ( 0.000000000000000000, 0.000000000000000000, 1.000000000000000000 ) ) ;
#269 = PRODUCT_DEFINITION_SHAPE ( 'NONE', 'NONE',  #165 ) ;
#270 = TOROIDAL_SURFACE ( 'NONE', #289, 5.200000000000001066, 0.2000000000000000111 ) ;
#271 = VECTOR ( 'NONE', #127, 1000.000000000000000 ) ;
#272 = EDGE_LOOP ( 'NONE', ( #177, #273, #115, #121 ) ) ;
#273 = ORIENTED_EDGE ( 'NONE', *, *, #18, .T. ) ;
#274 = DIRECTION ( 'NONE',  ( -0.000000000000000000, -0.000000000000000000, -1.000000000000000000 ) ) ;
#275 = AXIS2_PLACEMENT_3D ( 'NONE', #285, #236, #212 ) ;
#276 = CARTESIAN_POINT ( 'NONE',  ( 5.000000000000000888, 6.123233995736767268E-16, 5.199999999999982414 ) ) ;
#277 = EDGE_CURVE ( 'NONE', #103, #241, #147, .T. ) ;
#278 = DIRECTION ( 'NONE',  ( 0.000000000000000000, 0.000000000000000000, 1.000000000000000000 ) ) ;
#279 = CYLINDRICAL_SURFACE ( 'NONE', #295, 8.000000000000000000 ) ;
#280 = CARTESIAN_POINT ( 'NONE',  ( -5.200000000000001066, 6.368163355566237368E-16, 5.199999999999982414 ) ) ;
#281 = DIRECTION ( 'NONE',  ( 0.000000000000000000, 0.000000000000000000, 1.000000000000000000 ) ) ;
#282 = DIRECTION ( 'NONE',  ( -1.000000000000000000, 0.000000000000000000, 0.000000000000000000 ) ) ;
#283 = FACE_OUTER_BOUND ( 'NONE', #68, .T. ) ;
#284 = CC_DESIGN_PERSON_AND_ORGANIZATION_ASSIGNMENT ( #135, #219, ( #78 ) ) ;
#285 = CARTESIAN_POINT ( 'NONE',  ( 0.000000000000000000, 0.000000000000000000, 805.0000000000000000 ) ) ;
#286 = CARTESIAN_POINT ( 'NONE',  ( 0.000000000000000000, 0.000000000000000000, 805.0000000000000000 ) ) ;
#287 = APPROVAL_ROLE ( '' ) ;
#288 = CC_DESIGN_PERSON_AND_ORGANIZATION_ASSIGNMENT ( #193, #169, ( #165 ) ) ;
#289 = AXIS2_PLACEMENT_3D ( 'NONE', #102, #268, #228 ) ;
#290 = AXIS2_PLACEMENT_3D ( 'NONE', #63, #281, #59 ) ;
#291 = APPROVAL_DATE_TIME ( #42, #204 ) ;
#292 = ORIENTED_EDGE ( 'NONE', *, *, #109, .T. ) ;
#293 = PERSON_AND_ORGANIZATION ( #189, #116 ) ;
#294 = VERTEX_POINT ( 'NONE', #148 ) ;
#295 = AXIS2_PLACEMENT_3D ( 'NONE', #300, #179, #80 ) ;
#296 = COORDINATED_UNIVERSAL_TIME_OFFSET ( 1, 0, .AHEAD. ) ;
#297 = EDGE_LOOP ( 'NONE', ( #45, #218, #118, #16 ) ) ;
#298 = EDGE_LOOP ( 'NONE', ( #194, #99 ) ) ;
#299 = ORIENTED_EDGE ( 'NONE', *, *, #168, .T. ) ;
#300 = CARTESIAN_POINT ( 'NONE',  ( 0.000000000000000000, 0.000000000000000000, 5.000000000000000000 ) ) ;
#301 = ADVANCED_FACE ( 'NONE', ( #258 ), #113, .T. ) ;
#302 = CIRCLE ( 'NONE', #164, 8.000000000000000000 ) ;
#303 = CIRCLE ( 'NONE', #20, 8.000000000000000000 ) ;
#304 = ORIENTED_EDGE ( 'NONE', *, *, #57, .F. ) ;
#305 = DIRECTION ( 'NONE',  ( 0.000000000000000000, 0.000000000000000000, -1.000000000000000000 ) ) ;
#306 = CARTESIAN_POINT ( 'NONE',  ( 0.000000000000000000, 0.000000000000000000, 805.0000000000000000 ) ) ;
#307 = LINE ( 'NONE', #140, #108 ) ;
ENDSEC;
END-ISO-10303-21;
