ISO-10303-21;
HEADER;
FILE_DESCRIPTION (( 'STEP AP203' ),
    '1' );
FILE_NAME ('daa1.STEP',
    '2022-06-20T09:26:46',
    ( '' ),
    ( '' ),
    'SwSTEP 2.0',
    'SolidWorks 2019',
    '' );
FILE_SCHEMA (( 'CONFIG_CONTROL_DESIGN' ));
ENDSEC;

DATA;
#1 = CARTESIAN_POINT ( 'NONE',  ( -7.200000000000001066, 8.817456953860944275E-16, 6.999999999999992006 ) ) ;
#2 = DIRECTION ( 'NONE',  ( -1.000000000000000000, 0.000000000000000000, 0.000000000000000000 ) ) ;
#3 = EDGE_CURVE ( 'NONE', #280, #185, #268, .T. ) ;
#4 = DIRECTION ( 'NONE',  ( -1.000000000000000000, 0.000000000000000000, 0.000000000000000000 ) ) ;
#5 = LOCAL_TIME ( 11, 26, 46.00000000000000000, #199 ) ;
#6 = CARTESIAN_POINT ( 'NONE',  ( 7.000000000000000888, 8.572527594031474176E-16, 322.0000000000000000 ) ) ;
#7 = CIRCLE ( 'NONE', #182, 7.200000000000001066 ) ;
#8 = ORIENTED_EDGE ( 'NONE', *, *, #13, .F. ) ;
#9 = DIRECTION ( 'NONE',  ( 1.000000000000000000, 0.000000000000000000, -0.000000000000000000 ) ) ;
#10 = ORIENTED_EDGE ( 'NONE', *, *, #3, .F. ) ;
#11 =( NAMED_UNIT ( * ) SI_UNIT ( $, .STERADIAN. ) SOLID_ANGLE_UNIT ( ) );
#12 = APPROVAL_DATE_TIME ( #230, #113 ) ;
#13 = EDGE_CURVE ( 'NONE', #294, #212, #111, .T. ) ;
#14 = DESIGN_CONTEXT ( 'detailed design', #23, 'design' ) ;
#15 = AXIS2_PLACEMENT_3D ( 'NONE', #214, #70, #217 ) ;
#16 = DIRECTION ( 'NONE',  ( 1.000000000000000000, 0.000000000000000000, 0.000000000000000000 ) ) ;
#17 = ADVANCED_FACE ( 'NONE', ( #83 ), #236, .T. ) ;
#18 = ORIENTED_EDGE ( 'NONE', *, *, #98, .T. ) ;
#19 = CARTESIAN_POINT ( 'NONE',  ( 0.000000000000000000, 0.000000000000000000, 7.000000000000000000 ) ) ;
#20 = EDGE_CURVE ( 'NONE', #279, #233, #118, .T. ) ;
#21 = CARTESIAN_POINT ( 'NONE',  ( 0.000000000000000000, 0.000000000000000000, 322.0000000000000000 ) ) ;
#22 = ORIENTED_EDGE ( 'NONE', *, *, #228, .T. ) ;
#23 = APPLICATION_CONTEXT ( 'configuration controlled 3d designs of mechanical parts and assemblies' ) ;
#24 = CARTESIAN_POINT ( 'NONE',  ( 0.000000000000000000, 0.000000000000000000, 7.000000000000000000 ) ) ;
#25 = CARTESIAN_POINT ( 'NONE',  ( 7.200000000000001066, 0.000000000000000000, 6.999999999999992006 ) ) ;
#26 = DIRECTION ( 'NONE',  ( 0.000000000000000000, 0.000000000000000000, 1.000000000000000000 ) ) ;
#27 = DIRECTION ( 'NONE',  ( -1.000000000000000000, 0.000000000000000000, 0.000000000000000000 ) ) ;
#28 = DIRECTION ( 'NONE',  ( 1.000000000000000000, 0.000000000000000000, 0.000000000000000000 ) ) ;
#29 = CC_DESIGN_PERSON_AND_ORGANIZATION_ASSIGNMENT ( #198, #52, ( #184 ) ) ;
#30 = DATE_TIME_ROLE ( 'creation_date' ) ;
#31 = EDGE_LOOP ( 'NONE', ( #304, #87, #41, #255 ) ) ;
#32 = PERSON_AND_ORGANIZATION ( #156, #90 ) ;
#33 = MANIFOLD_SOLID_BREP ( 'Zaoblit1', #273 ) ;
#34 = COORDINATED_UNIVERSAL_TIME_OFFSET ( 1, 0, .AHEAD. ) ;
#35 = DIRECTION ( 'NONE',  ( -1.000000000000000000, 1.224646799147358384E-16, 0.000000000000000000 ) ) ;
#36 = APPROVAL ( #225, 'NEURÈENÝ' ) ;
#37 = CARTESIAN_POINT ( 'NONE',  ( -11.00000000000000000, 0.000000000000000000, 7.000000000000000000 ) ) ;
#38 = AXIS2_PLACEMENT_3D ( 'NONE', #173, #96, #2 ) ;
#39 = ORIENTED_EDGE ( 'NONE', *, *, #215, .T. ) ;
#40 = PERSON_AND_ORGANIZATION ( #156, #90 ) ;
#41 = ORIENTED_EDGE ( 'NONE', *, *, #50, .T. ) ;
#42 = ORIENTED_EDGE ( 'NONE', *, *, #300, .T. ) ;
#43 = SECURITY_CLASSIFICATION ( '', '', #278 ) ;
#44 = DIRECTION ( 'NONE',  ( 0.000000000000000000, 0.000000000000000000, 1.000000000000000000 ) ) ;
#45 = CARTESIAN_POINT ( 'NONE',  ( -7.000000000000000888, 0.000000000000000000, 7.199999999999984190 ) ) ;
#46 = DIRECTION ( 'NONE',  ( -0.000000000000000000, -0.000000000000000000, -1.000000000000000000 ) ) ;
#47 = CIRCLE ( 'NONE', #82, 7.000000000000000888 ) ;
#48 = FACE_OUTER_BOUND ( 'NONE', #190, .T. ) ;
#49 = CARTESIAN_POINT ( 'NONE',  ( -7.000000000000000888, 0.000000000000000000, 322.0000000000000000 ) ) ;
#50 = EDGE_CURVE ( 'NONE', #233, #294, #299, .T. ) ;
#51 = DIRECTION ( 'NONE',  ( 0.000000000000000000, 0.000000000000000000, 1.000000000000000000 ) ) ;
#52 = PERSON_AND_ORGANIZATION_ROLE ( 'design_owner' ) ;
#53 = CALENDAR_DATE ( 2022, 20, 6 ) ;
#54 = CARTESIAN_POINT ( 'NONE',  ( 0.000000000000000000, 0.000000000000000000, 0.000000000000000000 ) ) ;
#55 = LOCAL_TIME ( 11, 26, 46.00000000000000000, #303 ) ;
#56 = CC_DESIGN_PERSON_AND_ORGANIZATION_ASSIGNMENT ( #104, #295, ( #174 ) ) ;
#57 = VERTEX_POINT ( 'NONE', #209 ) ;
#58 = DIRECTION ( 'NONE',  ( -1.000000000000000000, 0.000000000000000000, 0.000000000000000000 ) ) ;
#59 = APPROVAL_PERSON_ORGANIZATION ( #179, #113, #72 ) ;
#60 = APPROVAL_STATUS ( 'not_yet_approved' ) ;
#61 = EDGE_LOOP ( 'NONE', ( #106, #18, #249, #238 ) ) ;
#62 = AXIS2_PLACEMENT_3D ( 'NONE', #301, #253, #16 ) ;
#63 = EDGE_LOOP ( 'NONE', ( #88, #183, #139, #74 ) ) ;
#64 = ADVANCED_FACE ( 'NONE', ( #281, #275 ), #166, .T. ) ;
#65 = EDGE_LOOP ( 'NONE', ( #200, #103 ) ) ;
#66 = LOCAL_TIME ( 11, 26, 46.00000000000000000, #208 ) ;
#67 = LINE ( 'NONE', #49, #220 ) ;
#68 = CARTESIAN_POINT ( 'NONE',  ( 0.000000000000000000, 0.000000000000000000, 7.199999999999984190 ) ) ;
#69 = AXIS2_PLACEMENT_3D ( 'NONE', #120, #71, #216 ) ;
#70 = DIRECTION ( 'NONE',  ( 0.000000000000000000, 0.000000000000000000, 1.000000000000000000 ) ) ;
#71 = DIRECTION ( 'NONE',  ( 0.000000000000000000, -1.000000000000000000, 0.000000000000000000 ) ) ;
#72 = APPROVAL_ROLE ( '' ) ;
#73 = APPROVAL_DATE_TIME ( #152, #36 ) ;
#74 = ORIENTED_EDGE ( 'NONE', *, *, #247, .T. ) ;
#75 = FACE_OUTER_BOUND ( 'NONE', #177, .T. ) ;
#76 = EDGE_LOOP ( 'NONE', ( #128, #137 ) ) ;
#77 = APPLICATION_PROTOCOL_DEFINITION ( 'international standard', 'config_control_design', 1994, #23 ) ;
#78 = COORDINATED_UNIVERSAL_TIME_OFFSET ( 1, 0, .AHEAD. ) ;
#79 = AXIS2_PLACEMENT_3D ( 'NONE', #24, #243, #27 ) ;
#80 = ORIENTED_EDGE ( 'NONE', *, *, #126, .F. ) ;
#81 = FACE_OUTER_BOUND ( 'NONE', #61, .T. ) ;
#82 = AXIS2_PLACEMENT_3D ( 'NONE', #127, #229, #270 ) ;
#83 = FACE_OUTER_BOUND ( 'NONE', #63, .T. ) ;
#84 = DATE_TIME_ROLE ( 'classification_date' ) ;
#85 = ADVANCED_FACE ( 'NONE', ( #81 ), #162, .T. ) ;
#86 = ORIENTED_EDGE ( 'NONE', *, *, #289, .F. ) ;
#87 = ORIENTED_EDGE ( 'NONE', *, *, #234, .F. ) ;
#88 = ORIENTED_EDGE ( 'NONE', *, *, #98, .F. ) ;
#89 = PRODUCT_DEFINITION_SHAPE ( 'NONE', 'NONE',  #174 ) ;
#90 = ORGANIZATION ( 'NEURÈENÝ', 'NEURÈENÝ', '' ) ;
#91 = CC_DESIGN_DATE_AND_TIME_ASSIGNMENT ( #245, #30, ( #174 ) ) ;
#92 = CARTESIAN_POINT ( 'NONE',  ( 0.000000000000000000, 0.000000000000000000, 7.000000000000000000 ) ) ;
#93 = PLANE ( 'NONE',  #144 ) ;
#94 = FACE_OUTER_BOUND ( 'NONE', #226, .T. ) ;
#95 = PRODUCT_DEFINITION_FORMATION_WITH_SPECIFIED_SOURCE ( 'LIBOVOLNÝ', '', #184, .NOT_KNOWN. ) ;
#96 = DIRECTION ( 'NONE',  ( -0.000000000000000000, -0.000000000000000000, -1.000000000000000000 ) ) ;
#97 = ADVANCED_BREP_SHAPE_REPRESENTATION ( 'daa1', ( #33, #235 ), #251 ) ;
#98 = EDGE_CURVE ( 'NONE', #163, #292, #99, .T. ) ;
#99 = LINE ( 'NONE', #262, #132 ) ;
#100 = APPROVAL_ROLE ( '' ) ;
#101 = ORIENTED_EDGE ( 'NONE', *, *, #215, .F. ) ;
#102 = CARTESIAN_POINT ( 'NONE',  ( 0.000000000000000000, 0.000000000000000000, 0.000000000000000000 ) ) ;
#103 = ORIENTED_EDGE ( 'NONE', *, *, #126, .T. ) ;
#104 = PERSON_AND_ORGANIZATION ( #156, #90 ) ;
#105 = CALENDAR_DATE ( 2022, 20, 6 ) ;
#106 = ORIENTED_EDGE ( 'NONE', *, *, #228, .F. ) ;
#107 = PERSON_AND_ORGANIZATION_ROLE ( 'classification_officer' ) ;
#108 = ORIENTED_EDGE ( 'NONE', *, *, #300, .F. ) ;
#109 = DIRECTION ( 'NONE',  ( 0.000000000000000000, 0.000000000000000000, 1.000000000000000000 ) ) ;
#110 = DIRECTION ( 'NONE',  ( 1.000000000000000000, 0.000000000000000000, 0.000000000000000000 ) ) ;
#111 = CIRCLE ( 'NONE', #62, 11.00000000000000000 ) ;
#112 = DIRECTION ( 'NONE',  ( 1.000000000000000000, 0.000000000000000000, 0.000000000000000000 ) ) ;
#113 = APPROVAL ( #272, 'NEURÈENÝ' ) ;
#114 = CARTESIAN_POINT ( 'NONE',  ( 0.000000000000000000, 0.000000000000000000, 322.0000000000000000 ) ) ;
#115 = LOCAL_TIME ( 11, 26, 46.00000000000000000, #78 ) ;
#116 = DIRECTION ( 'NONE',  ( 0.000000000000000000, 0.000000000000000000, 1.000000000000000000 ) ) ;
#117 = CARTESIAN_POINT ( 'NONE',  ( 11.00000000000000000, 1.347111479062088405E-15, 7.000000000000000000 ) ) ;
#118 = CIRCLE ( 'NONE', #204, 11.00000000000000000 ) ;
#119 = EDGE_CURVE ( 'NONE', #57, #163, #125, .T. ) ;
#120 = CARTESIAN_POINT ( 'NONE',  ( 7.200000000000001066, 0.000000000000000000, 7.199999999999984190 ) ) ;
#121 = CIRCLE ( 'NONE', #297, 7.000000000000000888 ) ;
#122 = CC_DESIGN_APPROVAL ( #129, ( #43 ) ) ;
#123 = DIRECTION ( 'NONE',  ( 1.000000000000000000, 0.000000000000000000, 0.000000000000000000 ) ) ;
#124 = PERSON_AND_ORGANIZATION ( #156, #90 ) ;
#125 = CIRCLE ( 'NONE', #306, 7.000000000000000888 ) ;
#126 = EDGE_CURVE ( 'NONE', #185, #280, #7, .T. ) ;
#127 = CARTESIAN_POINT ( 'NONE',  ( 0.000000000000000000, 0.000000000000000000, 7.199999999999984190 ) ) ;
#128 = ORIENTED_EDGE ( 'NONE', *, *, #234, .T. ) ;
#129 = APPROVAL ( #60, 'NEURÈENÝ' ) ;
#130 = CIRCLE ( 'NONE', #191, 0.1999999999999996503 ) ;
#131 = CARTESIAN_POINT ( 'NONE',  ( 7.000000000000000888, 8.572527594031474176E-16, 7.199999999999984190 ) ) ;
#132 = VECTOR ( 'NONE', #218, 1000.000000000000000 ) ;
#133 = CARTESIAN_POINT ( 'NONE',  ( -11.00000000000000000, 0.000000000000000000, 0.000000000000000000 ) ) ;
#134 = AXIS2_PLACEMENT_3D ( 'NONE', #260, #145, #148 ) ;
#135 = EDGE_LOOP ( 'NONE', ( #187, #231, #232, #203 ) ) ;
#136 = SHAPE_DEFINITION_REPRESENTATION ( #89, #97 ) ;
#137 = ORIENTED_EDGE ( 'NONE', *, *, #20, .T. ) ;
#138 = DIRECTION ( 'NONE',  ( -0.000000000000000000, -0.000000000000000000, -1.000000000000000000 ) ) ;
#139 = ORIENTED_EDGE ( 'NONE', *, *, #193, .T. ) ;
#140 = DATE_AND_TIME ( #105, #66 ) ;
#141 = DIRECTION ( 'NONE',  ( -0.000000000000000000, -0.000000000000000000, -1.000000000000000000 ) ) ;
#142 = DIRECTION ( 'NONE',  ( -0.000000000000000000, -0.000000000000000000, -1.000000000000000000 ) ) ;
#143 = DIRECTION ( 'NONE',  ( 0.000000000000000000, 0.000000000000000000, 1.000000000000000000 ) ) ;
#144 = AXIS2_PLACEMENT_3D ( 'NONE', #195, #116, #287 ) ;
#145 = DIRECTION ( 'NONE',  ( 0.000000000000000000, 0.000000000000000000, 1.000000000000000000 ) ) ;
#146 = DIRECTION ( 'NONE',  ( 0.000000000000000000, 0.000000000000000000, 1.000000000000000000 ) ) ;
#147 = VECTOR ( 'NONE', #189, 1000.000000000000000 ) ;
#148 = DIRECTION ( 'NONE',  ( 1.000000000000000000, 0.000000000000000000, 0.000000000000000000 ) ) ;
#149 = CIRCLE ( 'NONE', #15, 11.00000000000000000 ) ;
#150 = CALENDAR_DATE ( 2022, 20, 6 ) ;
#151 = EDGE_CURVE ( 'NONE', #279, #212, #264, .T. ) ;
#152 = DATE_AND_TIME ( #290, #5 ) ;
#153 = DIRECTION ( 'NONE',  ( 1.000000000000000000, 0.000000000000000000, 0.000000000000000000 ) ) ;
#154 = APPROVAL_PERSON_ORGANIZATION ( #124, #36, #100 ) ;
#155 =( NAMED_UNIT ( * ) PLANE_ANGLE_UNIT ( ) SI_UNIT ( $, .RADIAN. ) );
#156 = PERSON ( 'NEURÈENÝ', 'NEURÈENÝ', 'NEURÈENÝ', ('NEURÈENÝ'), ('NEURÈENÝ'), ('NEURÈENÝ') ) ;
#157 = DIRECTION ( 'NONE',  ( 1.224646799147353207E-16, 1.000000000000000000, -0.000000000000000000 ) ) ;
#158 = AXIS2_PLACEMENT_3D ( 'NONE', #207, #141, #112 ) ;
#159 = CC_DESIGN_PERSON_AND_ORGANIZATION_ASSIGNMENT ( #32, #227, ( #95 ) ) ;
#160 = VERTEX_POINT ( 'NONE', #45 ) ;
#161 = CC_DESIGN_APPROVAL ( #113, ( #174 ) ) ;
#162 = CYLINDRICAL_SURFACE ( 'NONE', #263, 7.000000000000000888 ) ;
#163 = VERTEX_POINT ( 'NONE', #6 ) ;
#164 = APPROVAL_ROLE ( '' ) ;
#165 = ORIENTED_EDGE ( 'NONE', *, *, #119, .T. ) ;
#166 = PLANE ( 'NONE',  #188 ) ;
#167 = CC_DESIGN_DATE_AND_TIME_ASSIGNMENT ( #186, #84, ( #43 ) ) ;
#168 = FACE_OUTER_BOUND ( 'NONE', #135, .T. ) ;
#169 = FACE_OUTER_BOUND ( 'NONE', #31, .T. ) ;
#170 = CYLINDRICAL_SURFACE ( 'NONE', #38, 11.00000000000000000 ) ;
#171 = AXIS2_PLACEMENT_3D ( 'NONE', #54, #175, #9 ) ;
#172 = CARTESIAN_POINT ( 'NONE',  ( 0.000000000000000000, 0.000000000000000000, 0.000000000000000000 ) ) ;
#173 = CARTESIAN_POINT ( 'NONE',  ( 0.000000000000000000, 0.000000000000000000, 7.000000000000000000 ) ) ;
#174 = PRODUCT_DEFINITION ( 'NEZNÁMÝ', '', #95, #14 ) ;
#175 = DIRECTION ( 'NONE',  ( 0.000000000000000000, 0.000000000000000000, 1.000000000000000000 ) ) ;
#176 = PERSON_AND_ORGANIZATION ( #156, #90 ) ;
#177 = EDGE_LOOP ( 'NONE', ( #8, #210 ) ) ;
#178 = PLANE ( 'NONE',  #171 ) ;
#179 = PERSON_AND_ORGANIZATION ( #156, #90 ) ;
#180 = ADVANCED_FACE ( 'NONE', ( #169 ), #197, .T. ) ;
#181 = CC_DESIGN_APPROVAL ( #36, ( #95 ) ) ;
#182 = AXIS2_PLACEMENT_3D ( 'NONE', #92, #222, #259 ) ;
#183 = ORIENTED_EDGE ( 'NONE', *, *, #119, .F. ) ;
#184 = PRODUCT ( 'daa1', 'daa1', '', ( #293 ) ) ;
#185 = VERTEX_POINT ( 'NONE', #1 ) ;
#186 = DATE_AND_TIME ( #274, #55 ) ;
#187 = ORIENTED_EDGE ( 'NONE', *, *, #20, .F. ) ;
#188 = AXIS2_PLACEMENT_3D ( 'NONE', #258, #44, #206 ) ;
#189 = DIRECTION ( 'NONE',  ( -0.000000000000000000, -0.000000000000000000, -1.000000000000000000 ) ) ;
#190 = EDGE_LOOP ( 'NONE', ( #108, #86, #39, #80 ) ) ;
#191 = AXIS2_PLACEMENT_3D ( 'NONE', #248, #157, #35 ) ;
#192 = CARTESIAN_POINT ( 'NONE',  ( 11.00000000000000000, 1.347111479062088405E-15, 7.000000000000000000 ) ) ;
#193 = EDGE_CURVE ( 'NONE', #57, #160, #67, .T. ) ;
#194 = DIRECTION ( 'NONE',  ( 0.000000000000000000, 0.000000000000000000, 1.000000000000000000 ) ) ;
#195 = CARTESIAN_POINT ( 'NONE',  ( 0.000000000000000000, 0.000000000000000000, 322.0000000000000000 ) ) ;
#196 = LOCAL_TIME ( 11, 26, 46.00000000000000000, #34 ) ;
#197 = CYLINDRICAL_SURFACE ( 'NONE', #79, 11.00000000000000000 ) ;
#198 = PERSON_AND_ORGANIZATION ( #156, #90 ) ;
#199 = COORDINATED_UNIVERSAL_TIME_OFFSET ( 1, 0, .AHEAD. ) ;
#200 = ORIENTED_EDGE ( 'NONE', *, *, #3, .T. ) ;
#201 = CIRCLE ( 'NONE', #276, 11.00000000000000000 ) ;
#202 = APPLICATION_PROTOCOL_DEFINITION ( 'international standard', 'config_control_design', 1994, #298 ) ;
#203 = ORIENTED_EDGE ( 'NONE', *, *, #50, .F. ) ;
#204 = AXIS2_PLACEMENT_3D ( 'NONE', #19, #109, #110 ) ;
#205 =( LENGTH_UNIT ( ) NAMED_UNIT ( * ) SI_UNIT ( .MILLI., .METRE. ) );
#206 = DIRECTION ( 'NONE',  ( 1.000000000000000000, 0.000000000000000000, -0.000000000000000000 ) ) ;
#207 = CARTESIAN_POINT ( 'NONE',  ( 0.000000000000000000, 0.000000000000000000, 7.000000000000000000 ) ) ;
#208 = COORDINATED_UNIVERSAL_TIME_OFFSET ( 1, 0, .AHEAD. ) ;
#209 = CARTESIAN_POINT ( 'NONE',  ( -7.000000000000000888, 0.000000000000000000, 322.0000000000000000 ) ) ;
#210 = ORIENTED_EDGE ( 'NONE', *, *, #271, .F. ) ;
#211 = AXIS2_PLACEMENT_3D ( 'NONE', #21, #138, #58 ) ;
#212 = VERTEX_POINT ( 'NONE', #261 ) ;
#213 = AXIS2_PLACEMENT_3D ( 'NONE', #68, #51, #284 ) ;
#214 = CARTESIAN_POINT ( 'NONE',  ( 0.000000000000000000, 0.000000000000000000, 7.000000000000000000 ) ) ;
#215 = EDGE_CURVE ( 'NONE', #292, #280, #256, .T. ) ;
#216 = DIRECTION ( 'NONE',  ( 0.000000000000000000, 0.000000000000000000, -1.000000000000000000 ) ) ;
#217 = DIRECTION ( 'NONE',  ( 1.000000000000000000, 0.000000000000000000, 0.000000000000000000 ) ) ;
#218 = DIRECTION ( 'NONE',  ( -0.000000000000000000, -0.000000000000000000, -1.000000000000000000 ) ) ;
#219 = ADVANCED_FACE ( 'NONE', ( #239 ), #302, .F. ) ;
#220 = VECTOR ( 'NONE', #142, 1000.000000000000000 ) ;
#221 = UNCERTAINTY_MEASURE_WITH_UNIT (LENGTH_MEASURE( 1.000000000000000082E-05 ), #205, 'distance_accuracy_value', 'NONE');
#222 = DIRECTION ( 'NONE',  ( -0.000000000000000000, -0.000000000000000000, -1.000000000000000000 ) ) ;
#223 = CC_DESIGN_PERSON_AND_ORGANIZATION_ASSIGNMENT ( #237, #107, ( #43 ) ) ;
#224 = VECTOR ( 'NONE', #46, 1000.000000000000000 ) ;
#225 = APPROVAL_STATUS ( 'not_yet_approved' ) ;
#226 = EDGE_LOOP ( 'NONE', ( #165, #22 ) ) ;
#227 = PERSON_AND_ORGANIZATION_ROLE ( 'design_supplier' ) ;
#228 = EDGE_CURVE ( 'NONE', #163, #57, #121, .T. ) ;
#229 = DIRECTION ( 'NONE',  ( 0.000000000000000000, 0.000000000000000000, 1.000000000000000000 ) ) ;
#230 = DATE_AND_TIME ( #53, #196 ) ;
#231 = ORIENTED_EDGE ( 'NONE', *, *, #151, .T. ) ;
#232 = ORIENTED_EDGE ( 'NONE', *, *, #271, .T. ) ;
#233 = VERTEX_POINT ( 'NONE', #244 ) ;
#234 = EDGE_CURVE ( 'NONE', #233, #279, #149, .T. ) ;
#235 = AXIS2_PLACEMENT_3D ( 'NONE', #102, #265, #153 ) ;
#236 = CYLINDRICAL_SURFACE ( 'NONE', #211, 7.000000000000000888 ) ;
#237 = PERSON_AND_ORGANIZATION ( #156, #90 ) ;
#238 = ORIENTED_EDGE ( 'NONE', *, *, #193, .F. ) ;
#239 = FACE_OUTER_BOUND ( 'NONE', #305, .T. ) ;
#240 = CC_DESIGN_PERSON_AND_ORGANIZATION_ASSIGNMENT ( #176, #267, ( #95 ) ) ;
#241 = DIRECTION ( 'NONE',  ( 1.000000000000000000, 0.000000000000000000, 0.000000000000000000 ) ) ;
#242 = CARTESIAN_POINT ( 'NONE',  ( 0.000000000000000000, 0.000000000000000000, 7.199999999999984190 ) ) ;
#243 = DIRECTION ( 'NONE',  ( -0.000000000000000000, -0.000000000000000000, -1.000000000000000000 ) ) ;
#244 = CARTESIAN_POINT ( 'NONE',  ( -11.00000000000000000, 0.000000000000000000, 7.000000000000000000 ) ) ;
#245 = DATE_AND_TIME ( #150, #115 ) ;
#246 = ADVANCED_FACE ( 'NONE', ( #168 ), #170, .T. ) ;
#247 = EDGE_CURVE ( 'NONE', #160, #292, #266, .T. ) ;
#248 = CARTESIAN_POINT ( 'NONE',  ( -7.200000000000001066, 8.817456953860944275E-16, 7.199999999999984190 ) ) ;
#249 = ORIENTED_EDGE ( 'NONE', *, *, #289, .T. ) ;
#250 = TOROIDAL_SURFACE ( 'NONE', #291, 7.200000000000001066, 0.2000000000000000111 ) ;
#251 =( GEOMETRIC_REPRESENTATION_CONTEXT ( 3 ) GLOBAL_UNCERTAINTY_ASSIGNED_CONTEXT ( ( #221 ) ) GLOBAL_UNIT_ASSIGNED_CONTEXT ( ( #205, #155, #11 ) ) REPRESENTATION_CONTEXT ( 'NONE', 'WORKASPACE' ) );
#252 = CARTESIAN_POINT ( 'NONE',  ( 0.000000000000000000, 0.000000000000000000, 322.0000000000000000 ) ) ;
#253 = DIRECTION ( 'NONE',  ( 0.000000000000000000, 0.000000000000000000, 1.000000000000000000 ) ) ;
#254 = ADVANCED_FACE ( 'NONE', ( #48 ), #250, .F. ) ;
#255 = ORIENTED_EDGE ( 'NONE', *, *, #13, .T. ) ;
#256 = CIRCLE ( 'NONE', #69, 0.1999999999999996503 ) ;
#257 = APPROVAL_DATE_TIME ( #140, #129 ) ;
#258 = CARTESIAN_POINT ( 'NONE',  ( 0.000000000000000000, 0.000000000000000000, 7.000000000000000000 ) ) ;
#259 = DIRECTION ( 'NONE',  ( 1.000000000000000000, 0.000000000000000000, 0.000000000000000000 ) ) ;
#260 = CARTESIAN_POINT ( 'NONE',  ( 0.000000000000000000, 0.000000000000000000, 7.199999999999984190 ) ) ;
#261 = CARTESIAN_POINT ( 'NONE',  ( 11.00000000000000000, 1.347111479062088405E-15, 0.000000000000000000 ) ) ;
#262 = CARTESIAN_POINT ( 'NONE',  ( 7.000000000000000888, 8.572527594031474176E-16, 322.0000000000000000 ) ) ;
#263 = AXIS2_PLACEMENT_3D ( 'NONE', #252, #288, #4 ) ;
#264 = LINE ( 'NONE', #192, #224 ) ;
#265 = DIRECTION ( 'NONE',  ( 0.000000000000000000, 0.000000000000000000, 1.000000000000000000 ) ) ;
#266 = CIRCLE ( 'NONE', #213, 7.000000000000000888 ) ;
#267 = PERSON_AND_ORGANIZATION_ROLE ( 'creator' ) ;
#268 = CIRCLE ( 'NONE', #158, 7.200000000000001066 ) ;
#269 = PRODUCT_RELATED_PRODUCT_CATEGORY ( 'detail', '', ( #184 ) ) ;
#270 = DIRECTION ( 'NONE',  ( 1.000000000000000000, 0.000000000000000000, 0.000000000000000000 ) ) ;
#271 = EDGE_CURVE ( 'NONE', #212, #294, #201, .T. ) ;
#272 = APPROVAL_STATUS ( 'not_yet_approved' ) ;
#273 = CLOSED_SHELL ( 'NONE', ( #219, #85, #246, #180, #64, #296, #17, #282, #254 ) ) ;
#274 = CALENDAR_DATE ( 2022, 20, 6 ) ;
#275 = FACE_OUTER_BOUND ( 'NONE', #76, .T. ) ;
#276 = AXIS2_PLACEMENT_3D ( 'NONE', #172, #143, #241 ) ;
#277 = CC_DESIGN_SECURITY_CLASSIFICATION ( #43, ( #95 ) ) ;
#278 = SECURITY_CLASSIFICATION_LEVEL ( 'unclassified' ) ;
#279 = VERTEX_POINT ( 'NONE', #117 ) ;
#280 = VERTEX_POINT ( 'NONE', #25 ) ;
#281 = FACE_BOUND ( 'NONE', #65, .T. ) ;
#282 = ADVANCED_FACE ( 'NONE', ( #94 ), #93, .T. ) ;
#283 = CARTESIAN_POINT ( 'NONE',  ( 0.000000000000000000, 0.000000000000000000, 322.0000000000000000 ) ) ;
#284 = DIRECTION ( 'NONE',  ( 1.000000000000000000, 0.000000000000000000, 0.000000000000000000 ) ) ;
#285 = DIRECTION ( 'NONE',  ( 1.000000000000000000, 0.000000000000000000, 0.000000000000000000 ) ) ;
#286 = APPROVAL_PERSON_ORGANIZATION ( #40, #129, #164 ) ;
#287 = DIRECTION ( 'NONE',  ( 1.000000000000000000, 0.000000000000000000, -0.000000000000000000 ) ) ;
#288 = DIRECTION ( 'NONE',  ( -0.000000000000000000, -0.000000000000000000, -1.000000000000000000 ) ) ;
#289 = EDGE_CURVE ( 'NONE', #292, #160, #47, .T. ) ;
#290 = CALENDAR_DATE ( 2022, 20, 6 ) ;
#291 = AXIS2_PLACEMENT_3D ( 'NONE', #242, #26, #28 ) ;
#292 = VERTEX_POINT ( 'NONE', #131 ) ;
#293 = MECHANICAL_CONTEXT ( 'NONE', #298, 'mechanical' ) ;
#294 = VERTEX_POINT ( 'NONE', #133 ) ;
#295 = PERSON_AND_ORGANIZATION_ROLE ( 'creator' ) ;
#296 = ADVANCED_FACE ( 'NONE', ( #75 ), #178, .F. ) ;
#297 = AXIS2_PLACEMENT_3D ( 'NONE', #114, #194, #285 ) ;
#298 = APPLICATION_CONTEXT ( 'configuration controlled 3d designs of mechanical parts and assemblies' ) ;
#299 = LINE ( 'NONE', #37, #147 ) ;
#300 = EDGE_CURVE ( 'NONE', #160, #185, #130, .T. ) ;
#301 = CARTESIAN_POINT ( 'NONE',  ( 0.000000000000000000, 0.000000000000000000, 0.000000000000000000 ) ) ;
#302 = TOROIDAL_SURFACE ( 'NONE', #134, 7.200000000000001066, 0.2000000000000000111 ) ;
#303 = COORDINATED_UNIVERSAL_TIME_OFFSET ( 1, 0, .AHEAD. ) ;
#304 = ORIENTED_EDGE ( 'NONE', *, *, #151, .F. ) ;
#305 = EDGE_LOOP ( 'NONE', ( #307, #42, #10, #101 ) ) ;
#306 = AXIS2_PLACEMENT_3D ( 'NONE', #283, #146, #123 ) ;
#307 = ORIENTED_EDGE ( 'NONE', *, *, #247, .F. ) ;
ENDSEC;
END-ISO-10303-21;
