ISO-10303-21;
HEADER;
FILE_DESCRIPTION (( 'STEP AP203' ),
    '1' );
FILE_NAME ('8592.STEP',
    '2022-06-20T10:25:36',
    ( '' ),
    ( '' ),
    'SwSTEP 2.0',
    'SolidWorks 2019',
    '' );
FILE_SCHEMA (( 'CONFIG_CONTROL_DESIGN' ));
ENDSEC;

DATA;
#1 = DIRECTION ( 'NONE',  ( -1.000000000000000000, 1.224646799147352714E-16, 0.000000000000000000 ) ) ;
#2 = DIRECTION ( 'NONE',  ( 1.000000000000000000, 0.000000000000000000, 0.000000000000000000 ) ) ;
#3 = DIRECTION ( 'NONE',  ( 1.224646799147353207E-16, 1.000000000000000000, -0.000000000000000000 ) ) ;
#4 = ORIENTED_EDGE ( 'NONE', *, *, #275, .T. ) ;
#5 = EDGE_CURVE ( 'NONE', #118, #98, #299, .T. ) ;
#6 = DIRECTION ( 'NONE',  ( 0.000000000000000000, 0.000000000000000000, 1.000000000000000000 ) ) ;
#7 = CARTESIAN_POINT ( 'NONE',  ( -0.5000000000000000000, 0.000000000000000000, 1.399999999999998579 ) ) ;
#8 = FACE_OUTER_BOUND ( 'NONE', #44, .T. ) ;
#9 = CARTESIAN_POINT ( 'NONE',  ( 0.000000000000000000, 0.000000000000000000, 1.199999999999999956 ) ) ;
#10 = CARTESIAN_POINT ( 'NONE',  ( 0.000000000000000000, 0.000000000000000000, 101.2000000000000171 ) ) ;
#11 = AXIS2_PLACEMENT_3D ( 'NONE', #307, #237, #193 ) ;
#12 = APPROVAL ( #250, 'NEURÈENÝ' ) ;
#13 = AXIS2_PLACEMENT_3D ( 'NONE', #10, #37, #137 ) ;
#14 =( NAMED_UNIT ( * ) SI_UNIT ( $, .STERADIAN. ) SOLID_ANGLE_UNIT ( ) );
#15 = DIRECTION ( 'NONE',  ( -0.000000000000000000, -0.000000000000000000, -1.000000000000000000 ) ) ;
#16 = SECURITY_CLASSIFICATION_LEVEL ( 'unclassified' ) ;
#17 = ORIENTED_EDGE ( 'NONE', *, *, #170, .T. ) ;
#18 = EDGE_CURVE ( 'NONE', #303, #228, #134, .T. ) ;
#19 = APPROVAL_ROLE ( '' ) ;
#20 = EDGE_LOOP ( 'NONE', ( #192, #171 ) ) ;
#21 = EDGE_CURVE ( 'NONE', #306, #303, #72, .T. ) ;
#22 = AXIS2_PLACEMENT_3D ( 'NONE', #91, #161, #247 ) ;
#23 = CARTESIAN_POINT ( 'NONE',  ( 0.000000000000000000, 0.000000000000000000, 1.399999999999998579 ) ) ;
#24 = ORIENTED_EDGE ( 'NONE', *, *, #57, .T. ) ;
#25 = CC_DESIGN_PERSON_AND_ORGANIZATION_ASSIGNMENT ( #66, #280, ( #144 ) ) ;
#26 = PERSON_AND_ORGANIZATION ( #35, #88 ) ;
#27 = DIRECTION ( 'NONE',  ( 0.000000000000000000, 0.000000000000000000, 1.000000000000000000 ) ) ;
#28 = APPROVAL_PERSON_ORGANIZATION ( #107, #269, #262 ) ;
#29 = DIRECTION ( 'NONE',  ( 1.000000000000000000, 0.000000000000000000, 0.000000000000000000 ) ) ;
#30 = APPLICATION_PROTOCOL_DEFINITION ( 'international standard', 'config_control_design', 1994, #186 ) ;
#31 = EDGE_LOOP ( 'NONE', ( #145, #96 ) ) ;
#32 = DIRECTION ( 'NONE',  ( 1.000000000000000000, 0.000000000000000000, 0.000000000000000000 ) ) ;
#33 = COORDINATED_UNIVERSAL_TIME_OFFSET ( 1, 0, .AHEAD. ) ;
#34 = CIRCLE ( 'NONE', #116, 1.250000000000000000 ) ;
#35 = PERSON ( 'NEURÈENÝ', 'NEURÈENÝ', 'NEURÈENÝ', ('NEURÈENÝ'), ('NEURÈENÝ'), ('NEURÈENÝ') ) ;
#36 = CALENDAR_DATE ( 2022, 20, 6 ) ;
#37 = DIRECTION ( 'NONE',  ( -0.000000000000000000, -0.000000000000000000, -1.000000000000000000 ) ) ;
#38 = CARTESIAN_POINT ( 'NONE',  ( 0.000000000000000000, 0.000000000000000000, 101.2000000000000171 ) ) ;
#39 = CIRCLE ( 'NONE', #265, 1.250000000000000000 ) ;
#40 = AXIS2_PLACEMENT_3D ( 'NONE', #55, #61, #32 ) ;
#41 = EDGE_LOOP ( 'NONE', ( #209, #279 ) ) ;
#42 = COORDINATED_UNIVERSAL_TIME_OFFSET ( 1, 0, .AHEAD. ) ;
#43 = DIRECTION ( 'NONE',  ( -0.000000000000000000, -0.000000000000000000, -1.000000000000000000 ) ) ;
#44 = EDGE_LOOP ( 'NONE', ( #252, #117, #172, #119 ) ) ;
#45 = VERTEX_POINT ( 'NONE', #100 ) ;
#46 = ORIENTED_EDGE ( 'NONE', *, *, #301, .T. ) ;
#47 = DIRECTION ( 'NONE',  ( 1.000000000000000000, 0.000000000000000000, 0.000000000000000000 ) ) ;
#48 = ADVANCED_BREP_SHAPE_REPRESENTATION ( '8592', ( #70, #56 ), #135 ) ;
#49 = DIRECTION ( 'NONE',  ( 0.000000000000000000, 0.000000000000000000, 1.000000000000000000 ) ) ;
#50 = CC_DESIGN_DATE_AND_TIME_ASSIGNMENT ( #105, #200, ( #189 ) ) ;
#51 = CARTESIAN_POINT ( 'NONE',  ( 0.6999999999999999556, 0.000000000000000000, 1.399999999999998579 ) ) ;
#52 = DATE_AND_TIME ( #82, #121 ) ;
#53 = VERTEX_POINT ( 'NONE', #130 ) ;
#54 = AXIS2_PLACEMENT_3D ( 'NONE', #9, #183, #274 ) ;
#55 = CARTESIAN_POINT ( 'NONE',  ( 0.000000000000000000, 0.000000000000000000, 1.199999999999999956 ) ) ;
#56 = AXIS2_PLACEMENT_3D ( 'NONE', #238, #154, #271 ) ;
#57 = EDGE_CURVE ( 'NONE', #115, #191, #34, .T. ) ;
#58 = DIRECTION ( 'NONE',  ( 0.000000000000000000, -1.000000000000000000, 0.000000000000000000 ) ) ;
#59 = CYLINDRICAL_SURFACE ( 'NONE', #54, 1.250000000000000000 ) ;
#60 = CC_DESIGN_DATE_AND_TIME_ASSIGNMENT ( #297, #64, ( #216 ) ) ;
#61 = DIRECTION ( 'NONE',  ( -0.000000000000000000, -0.000000000000000000, -1.000000000000000000 ) ) ;
#62 = AXIS2_PLACEMENT_3D ( 'NONE', #290, #148, #229 ) ;
#63 = DIRECTION ( 'NONE',  ( -0.000000000000000000, -0.000000000000000000, -1.000000000000000000 ) ) ;
#64 = DATE_TIME_ROLE ( 'classification_date' ) ;
#65 = DATE_AND_TIME ( #36, #76 ) ;
#66 = PERSON_AND_ORGANIZATION ( #35, #88 ) ;
#67 = ADVANCED_FACE ( 'NONE', ( #288 ), #104, .T. ) ;
#68 = LOCAL_TIME ( 12, 25, 36.00000000000000000, #213 ) ;
#69 = ORIENTED_EDGE ( 'NONE', *, *, #292, .T. ) ;
#70 = MANIFOLD_SOLID_BREP ( 'Zaoblit1', #241 ) ;
#71 = VERTEX_POINT ( 'NONE', #125 ) ;
#72 = CIRCLE ( 'NONE', #175, 0.5000000000000000000 ) ;
#73 = ORIENTED_EDGE ( 'NONE', *, *, #230, .F. ) ;
#74 = CARTESIAN_POINT ( 'NONE',  ( 0.000000000000000000, 0.000000000000000000, 1.399999999999998579 ) ) ;
#75 = AXIS2_PLACEMENT_3D ( 'NONE', #198, #3, #1 ) ;
#76 = LOCAL_TIME ( 12, 25, 36.00000000000000000, #42 ) ;
#77 = DESIGN_CONTEXT ( 'detailed design', #156, 'design' ) ;
#78 = LINE ( 'NONE', #287, #282 ) ;
#79 = CARTESIAN_POINT ( 'NONE',  ( -1.250000000000000000, 0.000000000000000000, 1.199999999999999956 ) ) ;
#80 = CARTESIAN_POINT ( 'NONE',  ( -1.250000000000000000, 0.000000000000000000, 1.199999999999999956 ) ) ;
#81 = TOROIDAL_SURFACE ( 'NONE', #162, 0.6999999999999999556, 0.2000000000000000111 ) ;
#82 = CALENDAR_DATE ( 2022, 20, 6 ) ;
#83 = COORDINATED_UNIVERSAL_TIME_OFFSET ( 1, 0, .AHEAD. ) ;
#84 = CARTESIAN_POINT ( 'NONE',  ( 0.000000000000000000, 0.000000000000000000, 1.199999999999999956 ) ) ;
#85 = APPROVAL ( #293, 'NEURÈENÝ' ) ;
#86 = AXIS2_PLACEMENT_3D ( 'NONE', #51, #58, #235 ) ;
#87 = PERSON_AND_ORGANIZATION ( #35, #88 ) ;
#88 = ORGANIZATION ( 'NEURÈENÝ', 'NEURÈENÝ', '' ) ;
#89 = FACE_OUTER_BOUND ( 'NONE', #281, .T. ) ;
#90 = PERSON_AND_ORGANIZATION ( #35, #88 ) ;
#91 = CARTESIAN_POINT ( 'NONE',  ( 0.000000000000000000, 0.000000000000000000, 1.199999999999999956 ) ) ;
#92 = EDGE_CURVE ( 'NONE', #98, #191, #266, .T. ) ;
#93 = APPROVAL_DATE_TIME ( #65, #12 ) ;
#94 = EDGE_LOOP ( 'NONE', ( #226, #147, #4, #17 ) ) ;
#95 = ORIENTED_EDGE ( 'NONE', *, *, #92, .T. ) ;
#96 = ORIENTED_EDGE ( 'NONE', *, *, #57, .F. ) ;
#97 = CIRCLE ( 'NONE', #234, 0.5000000000000000000 ) ;
#98 = VERTEX_POINT ( 'NONE', #79 ) ;
#99 = CC_DESIGN_PERSON_AND_ORGANIZATION_ASSIGNMENT ( #109, #160, ( #159 ) ) ;
#100 = CARTESIAN_POINT ( 'NONE',  ( -0.5000000000000000000, 0.000000000000000000, 101.2000000000000171 ) ) ;
#101 = DIRECTION ( 'NONE',  ( 1.000000000000000000, 0.000000000000000000, -0.000000000000000000 ) ) ;
#102 = VECTOR ( 'NONE', #15, 1000.000000000000000 ) ;
#103 = ORIENTED_EDGE ( 'NONE', *, *, #158, .T. ) ;
#104 = CYLINDRICAL_SURFACE ( 'NONE', #62, 0.5000000000000000000 ) ;
#105 = DATE_AND_TIME ( #136, #164 ) ;
#106 = DIRECTION ( 'NONE',  ( 0.000000000000000000, 0.000000000000000000, 1.000000000000000000 ) ) ;
#107 = PERSON_AND_ORGANIZATION ( #35, #88 ) ;
#108 = PRODUCT_DEFINITION_SHAPE ( 'NONE', 'NONE',  #189 ) ;
#109 = PERSON_AND_ORGANIZATION ( #35, #88 ) ;
#110 =( LENGTH_UNIT ( ) NAMED_UNIT ( * ) SI_UNIT ( .MILLI., .METRE. ) );
#111 = COORDINATED_UNIVERSAL_TIME_OFFSET ( 1, 0, .AHEAD. ) ;
#112 = CC_DESIGN_PERSON_AND_ORGANIZATION_ASSIGNMENT ( #221, #298, ( #144 ) ) ;
#113 = AXIS2_PLACEMENT_3D ( 'NONE', #231, #212, #101 ) ;
#114 = FACE_OUTER_BOUND ( 'NONE', #227, .T. ) ;
#115 = VERTEX_POINT ( 'NONE', #217 ) ;
#116 = AXIS2_PLACEMENT_3D ( 'NONE', #256, #106, #195 ) ;
#117 = ORIENTED_EDGE ( 'NONE', *, *, #21, .F. ) ;
#118 = VERTEX_POINT ( 'NONE', #122 ) ;
#119 = ORIENTED_EDGE ( 'NONE', *, *, #301, .F. ) ;
#120 = ADVANCED_FACE ( 'NONE', ( #179, #215 ), #123, .T. ) ;
#121 = LOCAL_TIME ( 12, 25, 36.00000000000000000, #83 ) ;
#122 = CARTESIAN_POINT ( 'NONE',  ( 1.250000000000000000, 1.530808498934191571E-16, 1.199999999999999956 ) ) ;
#123 = PLANE ( 'NONE',  #294 ) ;
#124 = APPROVAL_ROLE ( '' ) ;
#125 = CARTESIAN_POINT ( 'NONE',  ( 0.6999999999999999556, 0.000000000000000000, 1.199999999999999289 ) ) ;
#126 = AXIS2_PLACEMENT_3D ( 'NONE', #284, #155, #177 ) ;
#127 = DATE_AND_TIME ( #233, #68 ) ;
#128 = PLANE ( 'NONE',  #11 ) ;
#129 = PERSON_AND_ORGANIZATION_ROLE ( 'creator' ) ;
#130 = CARTESIAN_POINT ( 'NONE',  ( 0.5000000000000000000, 6.123233995736766036E-17, 101.2000000000000171 ) ) ;
#131 = APPLICATION_PROTOCOL_DEFINITION ( 'international standard', 'config_control_design', 1994, #156 ) ;
#132 = CARTESIAN_POINT ( 'NONE',  ( -0.6999999999999999556, 8.572527594031473190E-17, 1.199999999999999289 ) ) ;
#133 = ADVANCED_FACE ( 'NONE', ( #196 ), #128, .F. ) ;
#134 = CIRCLE ( 'NONE', #75, 0.1999999999999999833 ) ;
#135 =( GEOMETRIC_REPRESENTATION_CONTEXT ( 3 ) GLOBAL_UNCERTAINTY_ASSIGNED_CONTEXT ( ( #173 ) ) GLOBAL_UNIT_ASSIGNED_CONTEXT ( ( #110, #203, #14 ) ) REPRESENTATION_CONTEXT ( 'NONE', 'WORKASPACE' ) );
#136 = CALENDAR_DATE ( 2022, 20, 6 ) ;
#137 = DIRECTION ( 'NONE',  ( -1.000000000000000000, 0.000000000000000000, 0.000000000000000000 ) ) ;
#138 = DIRECTION ( 'NONE',  ( 0.000000000000000000, 0.000000000000000000, 1.000000000000000000 ) ) ;
#139 = DIRECTION ( 'NONE',  ( 1.000000000000000000, 0.000000000000000000, 0.000000000000000000 ) ) ;
#140 = APPROVAL_PERSON_ORGANIZATION ( #90, #12, #19 ) ;
#141 = ORIENTED_EDGE ( 'NONE', *, *, #158, .F. ) ;
#142 = ORIENTED_EDGE ( 'NONE', *, *, #292, .F. ) ;
#143 = EDGE_CURVE ( 'NONE', #306, #71, #214, .T. ) ;
#144 = PRODUCT_DEFINITION_FORMATION_WITH_SPECIFIED_SOURCE ( 'LIBOVOLNÝ', '', #159, .NOT_KNOWN. ) ;
#145 = ORIENTED_EDGE ( 'NONE', *, *, #178, .F. ) ;
#146 = ORIENTED_EDGE ( 'NONE', *, *, #197, .T. ) ;
#147 = ORIENTED_EDGE ( 'NONE', *, *, #218, .F. ) ;
#148 = DIRECTION ( 'NONE',  ( -0.000000000000000000, -0.000000000000000000, -1.000000000000000000 ) ) ;
#149 = FACE_OUTER_BOUND ( 'NONE', #41, .T. ) ;
#150 = PLANE ( 'NONE',  #113 ) ;
#151 = DIRECTION ( 'NONE',  ( 1.000000000000000000, 0.000000000000000000, -0.000000000000000000 ) ) ;
#152 = CIRCLE ( 'NONE', #201, 0.5000000000000000000 ) ;
#153 = APPROVAL_PERSON_ORGANIZATION ( #26, #85, #124 ) ;
#154 = DIRECTION ( 'NONE',  ( 0.000000000000000000, 0.000000000000000000, 1.000000000000000000 ) ) ;
#155 = DIRECTION ( 'NONE',  ( -0.000000000000000000, -0.000000000000000000, -1.000000000000000000 ) ) ;
#156 = APPLICATION_CONTEXT ( 'configuration controlled 3d designs of mechanical parts and assemblies' ) ;
#157 = CARTESIAN_POINT ( 'NONE',  ( 0.000000000000000000, 0.000000000000000000, 1.399999999999998579 ) ) ;
#158 = EDGE_CURVE ( 'NONE', #71, #228, #253, .T. ) ;
#159 = PRODUCT ( '8592', '8592', '', ( #219 ) ) ;
#160 = PERSON_AND_ORGANIZATION_ROLE ( 'design_owner' ) ;
#161 = DIRECTION ( 'NONE',  ( 0.000000000000000000, 0.000000000000000000, 1.000000000000000000 ) ) ;
#162 = AXIS2_PLACEMENT_3D ( 'NONE', #157, #223, #202 ) ;
#163 = DIRECTION ( 'NONE',  ( 1.000000000000000000, 0.000000000000000000, 0.000000000000000000 ) ) ;
#164 = LOCAL_TIME ( 12, 25, 36.00000000000000000, #33 ) ;
#165 = DIRECTION ( 'NONE',  ( 1.000000000000000000, 0.000000000000000000, 0.000000000000000000 ) ) ;
#166 = EDGE_LOOP ( 'NONE', ( #169, #69, #24, #190 ) ) ;
#167 = ORIENTED_EDGE ( 'NONE', *, *, #143, .F. ) ;
#168 = AXIS2_PLACEMENT_3D ( 'NONE', #239, #138, #165 ) ;
#169 = ORIENTED_EDGE ( 'NONE', *, *, #5, .F. ) ;
#170 = EDGE_CURVE ( 'NONE', #303, #306, #97, .T. ) ;
#171 = ORIENTED_EDGE ( 'NONE', *, *, #5, .T. ) ;
#172 = ORIENTED_EDGE ( 'NONE', *, *, #143, .T. ) ;
#173 = UNCERTAINTY_MEASURE_WITH_UNIT (LENGTH_MEASURE( 1.000000000000000082E-05 ), #110, 'distance_accuracy_value', 'NONE');
#174 = DIRECTION ( 'NONE',  ( 0.000000000000000000, 0.000000000000000000, 1.000000000000000000 ) ) ;
#175 = AXIS2_PLACEMENT_3D ( 'NONE', #23, #27, #220 ) ;
#176 = CIRCLE ( 'NONE', #22, 1.250000000000000000 ) ;
#177 = DIRECTION ( 'NONE',  ( 1.000000000000000000, 0.000000000000000000, 0.000000000000000000 ) ) ;
#178 = EDGE_CURVE ( 'NONE', #191, #115, #39, .T. ) ;
#179 = FACE_BOUND ( 'NONE', #207, .T. ) ;
#180 = DIRECTION ( 'NONE',  ( 0.000000000000000000, 0.000000000000000000, 1.000000000000000000 ) ) ;
#181 = CYLINDRICAL_SURFACE ( 'NONE', #13, 0.5000000000000000000 ) ;
#182 = VECTOR ( 'NONE', #232, 1000.000000000000000 ) ;
#183 = DIRECTION ( 'NONE',  ( -0.000000000000000000, -0.000000000000000000, -1.000000000000000000 ) ) ;
#184 = CARTESIAN_POINT ( 'NONE',  ( 0.5000000000000000000, 6.123233995736766036E-17, 1.399999999999998579 ) ) ;
#185 = LINE ( 'NONE', #276, #102 ) ;
#186 = APPLICATION_CONTEXT ( 'configuration controlled 3d designs of mechanical parts and assemblies' ) ;
#187 = SHAPE_DEFINITION_REPRESENTATION ( #108, #48 ) ;
#188 = ADVANCED_FACE ( 'NONE', ( #149 ), #150, .T. ) ;
#189 = PRODUCT_DEFINITION ( 'NEZNÁMÝ', '', #144, #77 ) ;
#190 = ORIENTED_EDGE ( 'NONE', *, *, #92, .F. ) ;
#191 = VERTEX_POINT ( 'NONE', #194 ) ;
#192 = ORIENTED_EDGE ( 'NONE', *, *, #257, .T. ) ;
#193 = DIRECTION ( 'NONE',  ( 1.000000000000000000, 0.000000000000000000, -0.000000000000000000 ) ) ;
#194 = CARTESIAN_POINT ( 'NONE',  ( -1.250000000000000000, 0.000000000000000000, 0.000000000000000000 ) ) ;
#195 = DIRECTION ( 'NONE',  ( 1.000000000000000000, 0.000000000000000000, 0.000000000000000000 ) ) ;
#196 = FACE_OUTER_BOUND ( 'NONE', #31, .T. ) ;
#197 = EDGE_CURVE ( 'NONE', #53, #306, #78, .T. ) ;
#198 = CARTESIAN_POINT ( 'NONE',  ( -0.6999999999999999556, 8.572527594031471957E-17, 1.399999999999998579 ) ) ;
#199 = APPROVAL_DATE_TIME ( #52, #269 ) ;
#200 = DATE_TIME_ROLE ( 'creation_date' ) ;
#201 = AXIS2_PLACEMENT_3D ( 'NONE', #296, #6, #163 ) ;
#202 = DIRECTION ( 'NONE',  ( 1.000000000000000000, 0.000000000000000000, 0.000000000000000000 ) ) ;
#203 =( NAMED_UNIT ( * ) PLANE_ANGLE_UNIT ( ) SI_UNIT ( $, .RADIAN. ) );
#204 = LINE ( 'NONE', #251, #248 ) ;
#205 = ADVANCED_FACE ( 'NONE', ( #89 ), #59, .T. ) ;
#206 = PERSON_AND_ORGANIZATION_ROLE ( 'classification_officer' ) ;
#207 = EDGE_LOOP ( 'NONE', ( #103, #46 ) ) ;
#208 = AXIS2_PLACEMENT_3D ( 'NONE', #38, #243, #139 ) ;
#209 = ORIENTED_EDGE ( 'NONE', *, *, #218, .T. ) ;
#210 = CARTESIAN_POINT ( 'NONE',  ( 0.000000000000000000, 0.000000000000000000, 1.199999999999999956 ) ) ;
#211 = CC_DESIGN_PERSON_AND_ORGANIZATION_ASSIGNMENT ( #268, #129, ( #189 ) ) ;
#212 = DIRECTION ( 'NONE',  ( 0.000000000000000000, 0.000000000000000000, 1.000000000000000000 ) ) ;
#213 = COORDINATED_UNIVERSAL_TIME_OFFSET ( 1, 0, .AHEAD. ) ;
#214 = CIRCLE ( 'NONE', #86, 0.2000000000000000944 ) ;
#215 = FACE_OUTER_BOUND ( 'NONE', #20, .T. ) ;
#216 = SECURITY_CLASSIFICATION ( '', '', #16 ) ;
#217 = CARTESIAN_POINT ( 'NONE',  ( 1.250000000000000000, 1.530808498934191571E-16, 0.000000000000000000 ) ) ;
#218 = EDGE_CURVE ( 'NONE', #45, #53, #152, .T. ) ;
#219 = MECHANICAL_CONTEXT ( 'NONE', #186, 'mechanical' ) ;
#220 = DIRECTION ( 'NONE',  ( 1.000000000000000000, 0.000000000000000000, 0.000000000000000000 ) ) ;
#221 = PERSON_AND_ORGANIZATION ( #35, #88 ) ;
#222 = ADVANCED_FACE ( 'NONE', ( #246 ), #181, .T. ) ;
#223 = DIRECTION ( 'NONE',  ( 0.000000000000000000, 0.000000000000000000, 1.000000000000000000 ) ) ;
#224 = LOCAL_TIME ( 12, 25, 36.00000000000000000, #111 ) ;
#225 = ORIENTED_EDGE ( 'NONE', *, *, #178, .T. ) ;
#226 = ORIENTED_EDGE ( 'NONE', *, *, #197, .F. ) ;
#227 = EDGE_LOOP ( 'NONE', ( #289, #302, #141, #167 ) ) ;
#228 = VERTEX_POINT ( 'NONE', #132 ) ;
#229 = DIRECTION ( 'NONE',  ( -1.000000000000000000, 0.000000000000000000, 0.000000000000000000 ) ) ;
#230 = EDGE_CURVE ( 'NONE', #53, #45, #259, .T. ) ;
#231 = CARTESIAN_POINT ( 'NONE',  ( 0.000000000000000000, 0.000000000000000000, 101.2000000000000171 ) ) ;
#232 = DIRECTION ( 'NONE',  ( -0.000000000000000000, -0.000000000000000000, -1.000000000000000000 ) ) ;
#233 = CALENDAR_DATE ( 2022, 20, 6 ) ;
#234 = AXIS2_PLACEMENT_3D ( 'NONE', #74, #174, #29 ) ;
#235 = DIRECTION ( 'NONE',  ( 0.000000000000000000, 0.000000000000000000, -1.000000000000000000 ) ) ;
#236 = CIRCLE ( 'NONE', #40, 0.6999999999999999556 ) ;
#237 = DIRECTION ( 'NONE',  ( 0.000000000000000000, 0.000000000000000000, 1.000000000000000000 ) ) ;
#238 = CARTESIAN_POINT ( 'NONE',  ( 0.000000000000000000, 0.000000000000000000, 0.000000000000000000 ) ) ;
#239 = CARTESIAN_POINT ( 'NONE',  ( 0.000000000000000000, 0.000000000000000000, 1.399999999999998579 ) ) ;
#240 = APPROVAL_STATUS ( 'not_yet_approved' ) ;
#241 = CLOSED_SHELL ( 'NONE', ( #255, #67, #305, #205, #120, #133, #222, #188, #291 ) ) ;
#242 = CYLINDRICAL_SURFACE ( 'NONE', #267, 1.250000000000000000 ) ;
#243 = DIRECTION ( 'NONE',  ( 0.000000000000000000, 0.000000000000000000, 1.000000000000000000 ) ) ;
#244 = PRODUCT_RELATED_PRODUCT_CATEGORY ( 'detail', '', ( #159 ) ) ;
#245 = DIRECTION ( 'NONE',  ( -1.000000000000000000, 0.000000000000000000, 0.000000000000000000 ) ) ;
#246 = FACE_OUTER_BOUND ( 'NONE', #94, .T. ) ;
#247 = DIRECTION ( 'NONE',  ( 1.000000000000000000, 0.000000000000000000, 0.000000000000000000 ) ) ;
#248 = VECTOR ( 'NONE', #43, 1000.000000000000000 ) ;
#249 = EDGE_LOOP ( 'NONE', ( #73, #146, #254, #304 ) ) ;
#250 = APPROVAL_STATUS ( 'not_yet_approved' ) ;
#251 = CARTESIAN_POINT ( 'NONE',  ( 1.250000000000000000, 1.530808498934191571E-16, 1.199999999999999956 ) ) ;
#252 = ORIENTED_EDGE ( 'NONE', *, *, #18, .F. ) ;
#253 = CIRCLE ( 'NONE', #126, 0.6999999999999999556 ) ;
#254 = ORIENTED_EDGE ( 'NONE', *, *, #21, .T. ) ;
#255 = ADVANCED_FACE ( 'NONE', ( #114 ), #81, .F. ) ;
#256 = CARTESIAN_POINT ( 'NONE',  ( 0.000000000000000000, 0.000000000000000000, 0.000000000000000000 ) ) ;
#257 = EDGE_CURVE ( 'NONE', #98, #118, #176, .T. ) ;
#258 = AXIS2_PLACEMENT_3D ( 'NONE', #261, #180, #47 ) ;
#259 = CIRCLE ( 'NONE', #208, 0.5000000000000000000 ) ;
#260 = CARTESIAN_POINT ( 'NONE',  ( 0.000000000000000000, 0.000000000000000000, 0.000000000000000000 ) ) ;
#261 = CARTESIAN_POINT ( 'NONE',  ( 0.000000000000000000, 0.000000000000000000, 1.199999999999999956 ) ) ;
#262 = APPROVAL_ROLE ( '' ) ;
#263 = DIRECTION ( 'NONE',  ( 0.000000000000000000, 0.000000000000000000, 1.000000000000000000 ) ) ;
#264 = CC_DESIGN_PERSON_AND_ORGANIZATION_ASSIGNMENT ( #87, #206, ( #216 ) ) ;
#265 = AXIS2_PLACEMENT_3D ( 'NONE', #260, #49, #2 ) ;
#266 = LINE ( 'NONE', #80, #182 ) ;
#267 = AXIS2_PLACEMENT_3D ( 'NONE', #84, #270, #245 ) ;
#268 = PERSON_AND_ORGANIZATION ( #35, #88 ) ;
#269 = APPROVAL ( #240, 'NEURÈENÝ' ) ;
#270 = DIRECTION ( 'NONE',  ( -0.000000000000000000, -0.000000000000000000, -1.000000000000000000 ) ) ;
#271 = DIRECTION ( 'NONE',  ( 1.000000000000000000, 0.000000000000000000, 0.000000000000000000 ) ) ;
#272 = TOROIDAL_SURFACE ( 'NONE', #168, 0.6999999999999999556, 0.2000000000000000111 ) ;
#273 = FACE_OUTER_BOUND ( 'NONE', #166, .T. ) ;
#274 = DIRECTION ( 'NONE',  ( -1.000000000000000000, 0.000000000000000000, 0.000000000000000000 ) ) ;
#275 = EDGE_CURVE ( 'NONE', #45, #303, #185, .T. ) ;
#276 = CARTESIAN_POINT ( 'NONE',  ( -0.5000000000000000000, 0.000000000000000000, 101.2000000000000171 ) ) ;
#277 = APPROVAL_DATE_TIME ( #127, #85 ) ;
#278 = CC_DESIGN_APPROVAL ( #85, ( #144 ) ) ;
#279 = ORIENTED_EDGE ( 'NONE', *, *, #230, .T. ) ;
#280 = PERSON_AND_ORGANIZATION_ROLE ( 'creator' ) ;
#281 = EDGE_LOOP ( 'NONE', ( #142, #283, #95, #225 ) ) ;
#282 = VECTOR ( 'NONE', #63, 1000.000000000000000 ) ;
#283 = ORIENTED_EDGE ( 'NONE', *, *, #257, .F. ) ;
#284 = CARTESIAN_POINT ( 'NONE',  ( 0.000000000000000000, 0.000000000000000000, 1.199999999999999956 ) ) ;
#285 = CC_DESIGN_SECURITY_CLASSIFICATION ( #216, ( #144 ) ) ;
#286 = CC_DESIGN_APPROVAL ( #12, ( #216 ) ) ;
#287 = CARTESIAN_POINT ( 'NONE',  ( 0.5000000000000000000, 6.123233995736766036E-17, 101.2000000000000171 ) ) ;
#288 = FACE_OUTER_BOUND ( 'NONE', #249, .T. ) ;
#289 = ORIENTED_EDGE ( 'NONE', *, *, #170, .F. ) ;
#290 = CARTESIAN_POINT ( 'NONE',  ( 0.000000000000000000, 0.000000000000000000, 101.2000000000000171 ) ) ;
#291 = ADVANCED_FACE ( 'NONE', ( #8 ), #272, .F. ) ;
#292 = EDGE_CURVE ( 'NONE', #118, #115, #204, .T. ) ;
#293 = APPROVAL_STATUS ( 'not_yet_approved' ) ;
#294 = AXIS2_PLACEMENT_3D ( 'NONE', #210, #263, #151 ) ;
#295 = CALENDAR_DATE ( 2022, 20, 6 ) ;
#296 = CARTESIAN_POINT ( 'NONE',  ( 0.000000000000000000, 0.000000000000000000, 101.2000000000000171 ) ) ;
#297 = DATE_AND_TIME ( #295, #224 ) ;
#298 = PERSON_AND_ORGANIZATION_ROLE ( 'design_supplier' ) ;
#299 = CIRCLE ( 'NONE', #258, 1.250000000000000000 ) ;
#300 = CC_DESIGN_APPROVAL ( #269, ( #189 ) ) ;
#301 = EDGE_CURVE ( 'NONE', #228, #71, #236, .T. ) ;
#302 = ORIENTED_EDGE ( 'NONE', *, *, #18, .T. ) ;
#303 = VERTEX_POINT ( 'NONE', #7 ) ;
#304 = ORIENTED_EDGE ( 'NONE', *, *, #275, .F. ) ;
#305 = ADVANCED_FACE ( 'NONE', ( #273 ), #242, .T. ) ;
#306 = VERTEX_POINT ( 'NONE', #184 ) ;
#307 = CARTESIAN_POINT ( 'NONE',  ( 0.000000000000000000, 0.000000000000000000, 0.000000000000000000 ) ) ;
ENDSEC;
END-ISO-10303-21;
