ISO-10303-21;
HEADER;
FILE_DESCRIPTION (( 'STEP AP203' ),
    '1' );
FILE_NAME ('3f4c.STEP',
    '2022-06-20T09:40:33',
    ( '' ),
    ( '' ),
    'SwSTEP 2.0',
    'SolidWorks 2019',
    '' );
FILE_SCHEMA (( 'CONFIG_CONTROL_DESIGN' ));
ENDSEC;

DATA;
#1 = DIRECTION ( 'NONE',  ( 0.000000000000000000, 0.000000000000000000, 1.000000000000000000 ) ) ;
#2 = CLOSED_SHELL ( 'NONE', ( #214, #26, #35, #159, #14, #134, #122, #156, #263 ) ) ;
#3 = CARTESIAN_POINT ( 'NONE',  ( 5.000000000000000888, 6.123233995736767268E-16, 635.0000000000000000 ) ) ;
#4 = CIRCLE ( 'NONE', #119, 5.000000000000000888 ) ;
#5 = APPROVAL ( #108, 'NEURÈENÝ' ) ;
#6 = PLANE ( 'NONE',  #124 ) ;
#7 = DIRECTION ( 'NONE',  ( 1.000000000000000000, 0.000000000000000000, 0.000000000000000000 ) ) ;
#8 =( GEOMETRIC_REPRESENTATION_CONTEXT ( 3 ) GLOBAL_UNCERTAINTY_ASSIGNED_CONTEXT ( ( #266 ) ) GLOBAL_UNIT_ASSIGNED_CONTEXT ( ( #191, #9, #294 ) ) REPRESENTATION_CONTEXT ( 'NONE', 'WORKASPACE' ) );
#9 =( NAMED_UNIT ( * ) PLANE_ANGLE_UNIT ( ) SI_UNIT ( $, .RADIAN. ) );
#10 = DATE_AND_TIME ( #126, #232 ) ;
#11 = PERSON_AND_ORGANIZATION ( #194, #254 ) ;
#12 = ORIENTED_EDGE ( 'NONE', *, *, #40, .T. ) ;
#13 = ORIENTED_EDGE ( 'NONE', *, *, #90, .F. ) ;
#14 = ADVANCED_FACE ( 'NONE', ( #86, #210 ), #304, .T. ) ;
#15 = CALENDAR_DATE ( 2022, 20, 6 ) ;
#16 = VERTEX_POINT ( 'NONE', #115 ) ;
#17 = AXIS2_PLACEMENT_3D ( 'NONE', #121, #166, #23 ) ;
#18 = APPROVAL ( #295, 'NEURÈENÝ' ) ;
#19 = ORIENTED_EDGE ( 'NONE', *, *, #168, .F. ) ;
#20 = EDGE_LOOP ( 'NONE', ( #160, #64 ) ) ;
#21 = DIRECTION ( 'NONE',  ( -0.000000000000000000, -0.000000000000000000, -1.000000000000000000 ) ) ;
#22 = FACE_OUTER_BOUND ( 'NONE', #150, .T. ) ;
#23 = DIRECTION ( 'NONE',  ( 1.000000000000000000, 0.000000000000000000, 0.000000000000000000 ) ) ;
#24 = CARTESIAN_POINT ( 'NONE',  ( 0.000000000000000000, 0.000000000000000000, 5.199999999999982414 ) ) ;
#25 = CARTESIAN_POINT ( 'NONE',  ( 0.000000000000000000, 0.000000000000000000, 5.000000000000000000 ) ) ;
#26 = ADVANCED_FACE ( 'NONE', ( #307 ), #68, .T. ) ;
#27 = AXIS2_PLACEMENT_3D ( 'NONE', #279, #21, #70 ) ;
#28 = DIRECTION ( 'NONE',  ( 1.000000000000000000, 0.000000000000000000, -0.000000000000000000 ) ) ;
#29 = FACE_OUTER_BOUND ( 'NONE', #200, .T. ) ;
#30 = DATE_AND_TIME ( #15, #77 ) ;
#31 = SECURITY_CLASSIFICATION_LEVEL ( 'unclassified' ) ;
#32 = DESIGN_CONTEXT ( 'detailed design', #215, 'design' ) ;
#33 = VECTOR ( 'NONE', #164, 1000.000000000000000 ) ;
#34 = APPLICATION_PROTOCOL_DEFINITION ( 'international standard', 'config_control_design', 1994, #197 ) ;
#35 = ADVANCED_FACE ( 'NONE', ( #257 ), #274, .T. ) ;
#36 = ORIENTED_EDGE ( 'NONE', *, *, #235, .T. ) ;
#37 = TOROIDAL_SURFACE ( 'NONE', #94, 5.200000000000001066, 0.2000000000000000111 ) ;
#38 = APPROVAL_ROLE ( '' ) ;
#39 = VERTEX_POINT ( 'NONE', #44 ) ;
#40 = EDGE_CURVE ( 'NONE', #205, #172, #258, .T. ) ;
#41 = LINE ( 'NONE', #184, #33 ) ;
#42 = AXIS2_PLACEMENT_3D ( 'NONE', #192, #52, #118 ) ;
#43 = VERTEX_POINT ( 'NONE', #188 ) ;
#44 = CARTESIAN_POINT ( 'NONE',  ( 5.000000000000000888, 6.123233995736767268E-16, 5.199999999999982414 ) ) ;
#45 = CARTESIAN_POINT ( 'NONE',  ( -5.000000000000000888, 0.000000000000000000, 5.199999999999982414 ) ) ;
#46 = AXIS2_PLACEMENT_3D ( 'NONE', #67, #71, #87 ) ;
#47 = DIRECTION ( 'NONE',  ( 1.000000000000000000, 0.000000000000000000, 0.000000000000000000 ) ) ;
#48 = DIRECTION ( 'NONE',  ( 0.000000000000000000, 0.000000000000000000, 1.000000000000000000 ) ) ;
#49 = EDGE_CURVE ( 'NONE', #228, #16, #286, .T. ) ;
#50 = DIRECTION ( 'NONE',  ( 0.000000000000000000, 0.000000000000000000, -1.000000000000000000 ) ) ;
#51 = CARTESIAN_POINT ( 'NONE',  ( 0.000000000000000000, 0.000000000000000000, 0.000000000000000000 ) ) ;
#52 = DIRECTION ( 'NONE',  ( -0.000000000000000000, -0.000000000000000000, -1.000000000000000000 ) ) ;
#53 = AXIS2_PLACEMENT_3D ( 'NONE', #256, #275, #231 ) ;
#54 = PERSON_AND_ORGANIZATION_ROLE ( 'creator' ) ;
#55 = VERTEX_POINT ( 'NONE', #136 ) ;
#56 = CC_DESIGN_SECURITY_CLASSIFICATION ( #288, ( #282 ) ) ;
#57 = DATE_TIME_ROLE ( 'classification_date' ) ;
#58 = EDGE_LOOP ( 'NONE', ( #252, #271 ) ) ;
#59 = CC_DESIGN_DATE_AND_TIME_ASSIGNMENT ( #30, #60, ( #237 ) ) ;
#60 = DATE_TIME_ROLE ( 'creation_date' ) ;
#61 = ORIENTED_EDGE ( 'NONE', *, *, #302, .F. ) ;
#62 = ORIENTED_EDGE ( 'NONE', *, *, #235, .F. ) ;
#63 = PRODUCT_DEFINITION_SHAPE ( 'NONE', 'NONE',  #237 ) ;
#64 = ORIENTED_EDGE ( 'NONE', *, *, #193, .T. ) ;
#65 = CARTESIAN_POINT ( 'NONE',  ( 8.000000000000000000, 9.797174393178825657E-16, 5.000000000000000000 ) ) ;
#66 = CIRCLE ( 'NONE', #281, 8.000000000000000000 ) ;
#67 = CARTESIAN_POINT ( 'NONE',  ( 0.000000000000000000, 0.000000000000000000, 5.000000000000000000 ) ) ;
#68 = CYLINDRICAL_SURFACE ( 'NONE', #190, 5.000000000000000888 ) ;
#69 = EDGE_CURVE ( 'NONE', #128, #16, #88, .T. ) ;
#70 = DIRECTION ( 'NONE',  ( -1.000000000000000000, 0.000000000000000000, 0.000000000000000000 ) ) ;
#71 = DIRECTION ( 'NONE',  ( 0.000000000000000000, 0.000000000000000000, 1.000000000000000000 ) ) ;
#72 = VECTOR ( 'NONE', #306, 1000.000000000000000 ) ;
#73 = CARTESIAN_POINT ( 'NONE',  ( 5.200000000000001066, 0.000000000000000000, 5.199999999999982414 ) ) ;
#74 = CC_DESIGN_DATE_AND_TIME_ASSIGNMENT ( #10, #57, ( #288 ) ) ;
#75 = CYLINDRICAL_SURFACE ( 'NONE', #42, 8.000000000000000000 ) ;
#76 = CARTESIAN_POINT ( 'NONE',  ( 8.000000000000000000, 9.797174393178825657E-16, 5.000000000000000000 ) ) ;
#77 = LOCAL_TIME ( 11, 40, 33.00000000000000000, #147 ) ;
#78 = CARTESIAN_POINT ( 'NONE',  ( -5.000000000000000888, 0.000000000000000000, 635.0000000000000000 ) ) ;
#79 = COORDINATED_UNIVERSAL_TIME_OFFSET ( 1, 0, .AHEAD. ) ;
#80 = MANIFOLD_SOLID_BREP ( 'Zaoblit1', #2 ) ;
#81 = APPROVAL_DATE_TIME ( #292, #18 ) ;
#82 = EDGE_CURVE ( 'NONE', #104, #43, #41, .T. ) ;
#83 = APPROVAL_ROLE ( '' ) ;
#84 = ORIENTED_EDGE ( 'NONE', *, *, #219, .F. ) ;
#85 = PERSON_AND_ORGANIZATION_ROLE ( 'classification_officer' ) ;
#86 = FACE_BOUND ( 'NONE', #20, .T. ) ;
#87 = DIRECTION ( 'NONE',  ( 1.000000000000000000, 0.000000000000000000, -0.000000000000000000 ) ) ;
#88 = CIRCLE ( 'NONE', #110, 0.1999999999999996503 ) ;
#89 = CARTESIAN_POINT ( 'NONE',  ( 0.000000000000000000, 0.000000000000000000, 635.0000000000000000 ) ) ;
#90 = EDGE_CURVE ( 'NONE', #43, #172, #66, .T. ) ;
#91 = CARTESIAN_POINT ( 'NONE',  ( 0.000000000000000000, 0.000000000000000000, 5.000000000000000000 ) ) ;
#92 = CARTESIAN_POINT ( 'NONE',  ( 0.000000000000000000, 0.000000000000000000, 5.000000000000000000 ) ) ;
#93 = EDGE_CURVE ( 'NONE', #128, #39, #102, .T. ) ;
#94 = AXIS2_PLACEMENT_3D ( 'NONE', #24, #196, #283 ) ;
#95 = DIRECTION ( 'NONE',  ( 0.000000000000000000, 0.000000000000000000, 1.000000000000000000 ) ) ;
#96 = FACE_OUTER_BOUND ( 'NONE', #58, .T. ) ;
#97 = DIRECTION ( 'NONE',  ( -0.000000000000000000, -0.000000000000000000, -1.000000000000000000 ) ) ;
#98 = AXIS2_PLACEMENT_3D ( 'NONE', #222, #97, #260 ) ;
#99 = EDGE_LOOP ( 'NONE', ( #207, #265 ) ) ;
#100 = CALENDAR_DATE ( 2022, 20, 6 ) ;
#101 = EDGE_CURVE ( 'NONE', #104, #205, #142, .T. ) ;
#102 = CIRCLE ( 'NONE', #53, 5.000000000000000888 ) ;
#103 = PERSON_AND_ORGANIZATION ( #194, #254 ) ;
#104 = VERTEX_POINT ( 'NONE', #209 ) ;
#105 = AXIS2_PLACEMENT_3D ( 'NONE', #243, #171, #218 ) ;
#106 = APPROVAL_DATE_TIME ( #123, #5 ) ;
#107 = ORIENTED_EDGE ( 'NONE', *, *, #219, .T. ) ;
#108 = APPROVAL_STATUS ( 'not_yet_approved' ) ;
#109 = ORIENTED_EDGE ( 'NONE', *, *, #93, .T. ) ;
#110 = AXIS2_PLACEMENT_3D ( 'NONE', #158, #253, #137 ) ;
#111 = DIRECTION ( 'NONE',  ( -0.000000000000000000, -0.000000000000000000, -1.000000000000000000 ) ) ;
#112 = ORIENTED_EDGE ( 'NONE', *, *, #82, .F. ) ;
#113 = ORIENTED_EDGE ( 'NONE', *, *, #290, .T. ) ;
#114 = CC_DESIGN_PERSON_AND_ORGANIZATION_ASSIGNMENT ( #268, #54, ( #237 ) ) ;
#115 = CARTESIAN_POINT ( 'NONE',  ( -5.200000000000001066, 6.368163355566237368E-16, 4.999999999999991118 ) ) ;
#116 = CIRCLE ( 'NONE', #17, 8.000000000000000000 ) ;
#117 = DIRECTION ( 'NONE',  ( 1.000000000000000000, 0.000000000000000000, 0.000000000000000000 ) ) ;
#118 = DIRECTION ( 'NONE',  ( -1.000000000000000000, 0.000000000000000000, 0.000000000000000000 ) ) ;
#119 = AXIS2_PLACEMENT_3D ( 'NONE', #262, #95, #195 ) ;
#120 = LINE ( 'NONE', #287, #187 ) ;
#121 = CARTESIAN_POINT ( 'NONE',  ( 0.000000000000000000, 0.000000000000000000, 0.000000000000000000 ) ) ;
#122 = ADVANCED_FACE ( 'NONE', ( #301 ), #234, .T. ) ;
#123 = DATE_AND_TIME ( #297, #250 ) ;
#124 = AXIS2_PLACEMENT_3D ( 'NONE', #140, #48, #28 ) ;
#125 = CC_DESIGN_PERSON_AND_ORGANIZATION_ASSIGNMENT ( #103, #85, ( #288 ) ) ;
#126 = CALENDAR_DATE ( 2022, 20, 6 ) ;
#127 = MECHANICAL_CONTEXT ( 'NONE', #197, 'mechanical' ) ;
#128 = VERTEX_POINT ( 'NONE', #45 ) ;
#129 = PERSON_AND_ORGANIZATION ( #194, #254 ) ;
#130 = CC_DESIGN_APPROVAL ( #227, ( #237 ) ) ;
#131 = DATE_AND_TIME ( #273, #161 ) ;
#132 = EDGE_LOOP ( 'NONE', ( #186, #19, #291, #109 ) ) ;
#133 = EDGE_LOOP ( 'NONE', ( #153, #113, #208, #246 ) ) ;
#134 = ADVANCED_FACE ( 'NONE', ( #22 ), #216, .F. ) ;
#135 = DIRECTION ( 'NONE',  ( -1.000000000000000000, 0.000000000000000000, 0.000000000000000000 ) ) ;
#136 = CARTESIAN_POINT ( 'NONE',  ( -5.000000000000000888, 0.000000000000000000, 635.0000000000000000 ) ) ;
#137 = DIRECTION ( 'NONE',  ( -1.000000000000000000, 1.224646799147353454E-16, 0.000000000000000000 ) ) ;
#138 = CC_DESIGN_APPROVAL ( #5, ( #282 ) ) ;
#139 = CARTESIAN_POINT ( 'NONE',  ( 0.000000000000000000, 0.000000000000000000, 5.000000000000000000 ) ) ;
#140 = CARTESIAN_POINT ( 'NONE',  ( 0.000000000000000000, 0.000000000000000000, 635.0000000000000000 ) ) ;
#141 = DIRECTION ( 'NONE',  ( 0.000000000000000000, 0.000000000000000000, 1.000000000000000000 ) ) ;
#142 = CIRCLE ( 'NONE', #211, 8.000000000000000000 ) ;
#143 = AXIS2_PLACEMENT_3D ( 'NONE', #244, #206, #155 ) ;
#144 = CARTESIAN_POINT ( 'NONE',  ( 8.000000000000000000, 9.797174393178825657E-16, 0.000000000000000000 ) ) ;
#145 = EDGE_CURVE ( 'NONE', #55, #128, #167, .T. ) ;
#146 = CARTESIAN_POINT ( 'NONE',  ( 0.000000000000000000, 0.000000000000000000, 5.199999999999982414 ) ) ;
#147 = COORDINATED_UNIVERSAL_TIME_OFFSET ( 1, 0, .AHEAD. ) ;
#148 = PERSON_AND_ORGANIZATION ( #194, #254 ) ;
#149 = CIRCLE ( 'NONE', #105, 5.000000000000000888 ) ;
#150 = EDGE_LOOP ( 'NONE', ( #13, #62 ) ) ;
#151 = PRODUCT ( '3f4c', '3f4c', '', ( #127 ) ) ;
#152 = PERSON_AND_ORGANIZATION ( #194, #254 ) ;
#153 = ORIENTED_EDGE ( 'NONE', *, *, #247, .F. ) ;
#154 = AXIS2_PLACEMENT_3D ( 'NONE', #51, #141, #217 ) ;
#155 = DIRECTION ( 'NONE',  ( 1.000000000000000000, 0.000000000000000000, 0.000000000000000000 ) ) ;
#156 = ADVANCED_FACE ( 'NONE', ( #96 ), #6, .T. ) ;
#157 = CC_DESIGN_APPROVAL ( #18, ( #288 ) ) ;
#158 = CARTESIAN_POINT ( 'NONE',  ( -5.200000000000001066, 6.368163355566237368E-16, 5.199999999999982414 ) ) ;
#159 = ADVANCED_FACE ( 'NONE', ( #261 ), #75, .T. ) ;
#160 = ORIENTED_EDGE ( 'NONE', *, *, #49, .T. ) ;
#161 = LOCAL_TIME ( 11, 40, 33.00000000000000000, #79 ) ;
#162 = DIRECTION ( 'NONE',  ( -1.000000000000000000, 0.000000000000000000, 0.000000000000000000 ) ) ;
#163 = ORIENTED_EDGE ( 'NONE', *, *, #267, .F. ) ;
#164 = DIRECTION ( 'NONE',  ( -0.000000000000000000, -0.000000000000000000, -1.000000000000000000 ) ) ;
#165 = CIRCLE ( 'NONE', #272, 0.1999999999999996503 ) ;
#166 = DIRECTION ( 'NONE',  ( 0.000000000000000000, 0.000000000000000000, 1.000000000000000000 ) ) ;
#167 = LINE ( 'NONE', #78, #198 ) ;
#168 = EDGE_CURVE ( 'NONE', #55, #248, #149, .T. ) ;
#169 = DIRECTION ( 'NONE',  ( 1.000000000000000000, 0.000000000000000000, 0.000000000000000000 ) ) ;
#170 = CARTESIAN_POINT ( 'NONE',  ( 0.000000000000000000, 0.000000000000000000, 5.199999999999982414 ) ) ;
#171 = DIRECTION ( 'NONE',  ( 0.000000000000000000, 0.000000000000000000, 1.000000000000000000 ) ) ;
#172 = VERTEX_POINT ( 'NONE', #144 ) ;
#173 = APPROVAL_DATE_TIME ( #131, #227 ) ;
#174 = ORIENTED_EDGE ( 'NONE', *, *, #40, .F. ) ;
#175 = PERSON_AND_ORGANIZATION ( #194, #254 ) ;
#176 = ORIENTED_EDGE ( 'NONE', *, *, #193, .F. ) ;
#177 = PRODUCT_RELATED_PRODUCT_CATEGORY ( 'detail', '', ( #151 ) ) ;
#178 = SHAPE_DEFINITION_REPRESENTATION ( #63, #303 ) ;
#179 = ORIENTED_EDGE ( 'NONE', *, *, #69, .T. ) ;
#180 = APPLICATION_PROTOCOL_DEFINITION ( 'international standard', 'config_control_design', 1994, #215 ) ;
#181 = LOCAL_TIME ( 11, 40, 33.00000000000000000, #226 ) ;
#182 = DIRECTION ( 'NONE',  ( 1.000000000000000000, 0.000000000000000000, 0.000000000000000000 ) ) ;
#183 = CC_DESIGN_PERSON_AND_ORGANIZATION_ASSIGNMENT ( #152, #225, ( #282 ) ) ;
#184 = CARTESIAN_POINT ( 'NONE',  ( -8.000000000000000000, 0.000000000000000000, 5.000000000000000000 ) ) ;
#185 = AXIS2_PLACEMENT_3D ( 'NONE', #91, #300, #182 ) ;
#186 = ORIENTED_EDGE ( 'NONE', *, *, #290, .F. ) ;
#187 = VECTOR ( 'NONE', #238, 1000.000000000000000 ) ;
#188 = CARTESIAN_POINT ( 'NONE',  ( -8.000000000000000000, 0.000000000000000000, 0.000000000000000000 ) ) ;
#189 = DIRECTION ( 'NONE',  ( -0.000000000000000000, -0.000000000000000000, -1.000000000000000000 ) ) ;
#190 = AXIS2_PLACEMENT_3D ( 'NONE', #89, #111, #135 ) ;
#191 =( LENGTH_UNIT ( ) NAMED_UNIT ( * ) SI_UNIT ( .MILLI., .METRE. ) );
#192 = CARTESIAN_POINT ( 'NONE',  ( 0.000000000000000000, 0.000000000000000000, 5.000000000000000000 ) ) ;
#193 = EDGE_CURVE ( 'NONE', #16, #228, #259, .T. ) ;
#194 = PERSON ( 'NEURÈENÝ', 'NEURÈENÝ', 'NEURÈENÝ', ('NEURÈENÝ'), ('NEURÈENÝ'), ('NEURÈENÝ') ) ;
#195 = DIRECTION ( 'NONE',  ( 1.000000000000000000, 0.000000000000000000, 0.000000000000000000 ) ) ;
#196 = DIRECTION ( 'NONE',  ( 0.000000000000000000, 0.000000000000000000, 1.000000000000000000 ) ) ;
#197 = APPLICATION_CONTEXT ( 'configuration controlled 3d designs of mechanical parts and assemblies' ) ;
#198 = VECTOR ( 'NONE', #199, 1000.000000000000000 ) ;
#199 = DIRECTION ( 'NONE',  ( -0.000000000000000000, -0.000000000000000000, -1.000000000000000000 ) ) ;
#200 = EDGE_LOOP ( 'NONE', ( #233, #179, #296, #84 ) ) ;
#201 = PERSON_AND_ORGANIZATION ( #194, #254 ) ;
#202 = APPROVAL_PERSON_ORGANIZATION ( #175, #227, #38 ) ;
#203 = COORDINATED_UNIVERSAL_TIME_OFFSET ( 1, 0, .AHEAD. ) ;
#204 = PERSON_AND_ORGANIZATION_ROLE ( 'design_supplier' ) ;
#205 = VERTEX_POINT ( 'NONE', #76 ) ;
#206 = DIRECTION ( 'NONE',  ( 0.000000000000000000, 0.000000000000000000, 1.000000000000000000 ) ) ;
#207 = ORIENTED_EDGE ( 'NONE', *, *, #101, .T. ) ;
#208 = ORIENTED_EDGE ( 'NONE', *, *, #302, .T. ) ;
#209 = CARTESIAN_POINT ( 'NONE',  ( -8.000000000000000000, 0.000000000000000000, 5.000000000000000000 ) ) ;
#210 = FACE_OUTER_BOUND ( 'NONE', #99, .T. ) ;
#211 = AXIS2_PLACEMENT_3D ( 'NONE', #92, #236, #117 ) ;
#212 = DIRECTION ( 'NONE',  ( 0.000000000000000000, 0.000000000000000000, 1.000000000000000000 ) ) ;
#213 = CIRCLE ( 'NONE', #293, 8.000000000000000000 ) ;
#214 = ADVANCED_FACE ( 'NONE', ( #29 ), #305, .F. ) ;
#215 = APPLICATION_CONTEXT ( 'configuration controlled 3d designs of mechanical parts and assemblies' ) ;
#216 = PLANE ( 'NONE',  #154 ) ;
#217 = DIRECTION ( 'NONE',  ( 1.000000000000000000, 0.000000000000000000, -0.000000000000000000 ) ) ;
#218 = DIRECTION ( 'NONE',  ( 1.000000000000000000, 0.000000000000000000, 0.000000000000000000 ) ) ;
#219 = EDGE_CURVE ( 'NONE', #39, #228, #165, .T. ) ;
#220 = AXIS2_PLACEMENT_3D ( 'NONE', #146, #221, #223 ) ;
#221 = DIRECTION ( 'NONE',  ( 0.000000000000000000, 0.000000000000000000, 1.000000000000000000 ) ) ;
#222 = CARTESIAN_POINT ( 'NONE',  ( 0.000000000000000000, 0.000000000000000000, 5.000000000000000000 ) ) ;
#223 = DIRECTION ( 'NONE',  ( 1.000000000000000000, 0.000000000000000000, 0.000000000000000000 ) ) ;
#224 = APPROVAL_PERSON_ORGANIZATION ( #148, #5, #245 ) ;
#225 = PERSON_AND_ORGANIZATION_ROLE ( 'creator' ) ;
#226 = COORDINATED_UNIVERSAL_TIME_OFFSET ( 1, 0, .AHEAD. ) ;
#227 = APPROVAL ( #251, 'NEURÈENÝ' ) ;
#228 = VERTEX_POINT ( 'NONE', #240 ) ;
#229 = COORDINATED_UNIVERSAL_TIME_OFFSET ( 1, 0, .AHEAD. ) ;
#230 = EDGE_LOOP ( 'NONE', ( #174, #270, #269, #255 ) ) ;
#231 = DIRECTION ( 'NONE',  ( 1.000000000000000000, 0.000000000000000000, 0.000000000000000000 ) ) ;
#232 = LOCAL_TIME ( 11, 40, 33.00000000000000000, #203 ) ;
#233 = ORIENTED_EDGE ( 'NONE', *, *, #93, .F. ) ;
#234 = CYLINDRICAL_SURFACE ( 'NONE', #27, 5.000000000000000888 ) ;
#235 = EDGE_CURVE ( 'NONE', #172, #43, #116, .T. ) ;
#236 = DIRECTION ( 'NONE',  ( 0.000000000000000000, 0.000000000000000000, 1.000000000000000000 ) ) ;
#237 = PRODUCT_DEFINITION ( 'NEZNÁMÝ', '', #282, #32 ) ;
#238 = DIRECTION ( 'NONE',  ( -0.000000000000000000, -0.000000000000000000, -1.000000000000000000 ) ) ;
#239 = AXIS2_PLACEMENT_3D ( 'NONE', #139, #189, #162 ) ;
#240 = CARTESIAN_POINT ( 'NONE',  ( 5.200000000000001066, 0.000000000000000000, 4.999999999999991118 ) ) ;
#241 = CIRCLE ( 'NONE', #220, 5.000000000000000888 ) ;
#242 = DIRECTION ( 'NONE',  ( 0.000000000000000000, 0.000000000000000000, 1.000000000000000000 ) ) ;
#243 = CARTESIAN_POINT ( 'NONE',  ( 0.000000000000000000, 0.000000000000000000, 635.0000000000000000 ) ) ;
#244 = CARTESIAN_POINT ( 'NONE',  ( 0.000000000000000000, 0.000000000000000000, 0.000000000000000000 ) ) ;
#245 = APPROVAL_ROLE ( '' ) ;
#246 = ORIENTED_EDGE ( 'NONE', *, *, #145, .F. ) ;
#247 = EDGE_CURVE ( 'NONE', #248, #55, #4, .T. ) ;
#248 = VERTEX_POINT ( 'NONE', #3 ) ;
#249 = ORIENTED_EDGE ( 'NONE', *, *, #69, .F. ) ;
#250 = LOCAL_TIME ( 11, 40, 33.00000000000000000, #229 ) ;
#251 = APPROVAL_STATUS ( 'not_yet_approved' ) ;
#252 = ORIENTED_EDGE ( 'NONE', *, *, #168, .T. ) ;
#253 = DIRECTION ( 'NONE',  ( 1.224646799147353207E-16, 1.000000000000000000, -0.000000000000000000 ) ) ;
#254 = ORGANIZATION ( 'NEURÈENÝ', 'NEURÈENÝ', '' ) ;
#255 = ORIENTED_EDGE ( 'NONE', *, *, #90, .T. ) ;
#256 = CARTESIAN_POINT ( 'NONE',  ( 0.000000000000000000, 0.000000000000000000, 5.199999999999982414 ) ) ;
#257 = FACE_OUTER_BOUND ( 'NONE', #298, .T. ) ;
#258 = LINE ( 'NONE', #65, #72 ) ;
#259 = CIRCLE ( 'NONE', #98, 5.200000000000001066 ) ;
#260 = DIRECTION ( 'NONE',  ( 1.000000000000000000, 0.000000000000000000, 0.000000000000000000 ) ) ;
#261 = FACE_OUTER_BOUND ( 'NONE', #230, .T. ) ;
#262 = CARTESIAN_POINT ( 'NONE',  ( 0.000000000000000000, 0.000000000000000000, 635.0000000000000000 ) ) ;
#263 = ADVANCED_FACE ( 'NONE', ( #284 ), #37, .F. ) ;
#264 = DIRECTION ( 'NONE',  ( 0.000000000000000000, -1.000000000000000000, 0.000000000000000000 ) ) ;
#265 = ORIENTED_EDGE ( 'NONE', *, *, #267, .T. ) ;
#266 = UNCERTAINTY_MEASURE_WITH_UNIT (LENGTH_MEASURE( 1.000000000000000082E-05 ), #191, 'distance_accuracy_value', 'NONE');
#267 = EDGE_CURVE ( 'NONE', #205, #104, #213, .T. ) ;
#268 = PERSON_AND_ORGANIZATION ( #194, #254 ) ;
#269 = ORIENTED_EDGE ( 'NONE', *, *, #82, .T. ) ;
#270 = ORIENTED_EDGE ( 'NONE', *, *, #101, .F. ) ;
#271 = ORIENTED_EDGE ( 'NONE', *, *, #247, .T. ) ;
#272 = AXIS2_PLACEMENT_3D ( 'NONE', #73, #264, #50 ) ;
#273 = CALENDAR_DATE ( 2022, 20, 6 ) ;
#274 = CYLINDRICAL_SURFACE ( 'NONE', #239, 8.000000000000000000 ) ;
#275 = DIRECTION ( 'NONE',  ( 0.000000000000000000, 0.000000000000000000, 1.000000000000000000 ) ) ;
#276 = CC_DESIGN_PERSON_AND_ORGANIZATION_ASSIGNMENT ( #129, #289, ( #151 ) ) ;
#277 = APPROVAL_PERSON_ORGANIZATION ( #201, #18, #83 ) ;
#278 = CARTESIAN_POINT ( 'NONE',  ( 0.000000000000000000, 0.000000000000000000, 0.000000000000000000 ) ) ;
#279 = CARTESIAN_POINT ( 'NONE',  ( 0.000000000000000000, 0.000000000000000000, 635.0000000000000000 ) ) ;
#280 = EDGE_LOOP ( 'NONE', ( #249, #61, #107, #176 ) ) ;
#281 = AXIS2_PLACEMENT_3D ( 'NONE', #278, #212, #47 ) ;
#282 = PRODUCT_DEFINITION_FORMATION_WITH_SPECIFIED_SOURCE ( 'LIBOVOLNÝ', '', #151, .NOT_KNOWN. ) ;
#283 = DIRECTION ( 'NONE',  ( 1.000000000000000000, 0.000000000000000000, 0.000000000000000000 ) ) ;
#284 = FACE_OUTER_BOUND ( 'NONE', #280, .T. ) ;
#285 = CC_DESIGN_PERSON_AND_ORGANIZATION_ASSIGNMENT ( #11, #204, ( #282 ) ) ;
#286 = CIRCLE ( 'NONE', #185, 5.200000000000001066 ) ;
#287 = CARTESIAN_POINT ( 'NONE',  ( 5.000000000000000888, 6.123233995736767268E-16, 635.0000000000000000 ) ) ;
#288 = SECURITY_CLASSIFICATION ( '', '', #31 ) ;
#289 = PERSON_AND_ORGANIZATION_ROLE ( 'design_owner' ) ;
#290 = EDGE_CURVE ( 'NONE', #248, #39, #120, .T. ) ;
#291 = ORIENTED_EDGE ( 'NONE', *, *, #145, .T. ) ;
#292 = DATE_AND_TIME ( #100, #181 ) ;
#293 = AXIS2_PLACEMENT_3D ( 'NONE', #25, #1, #7 ) ;
#294 =( NAMED_UNIT ( * ) SI_UNIT ( $, .STERADIAN. ) SOLID_ANGLE_UNIT ( ) );
#295 = APPROVAL_STATUS ( 'not_yet_approved' ) ;
#296 = ORIENTED_EDGE ( 'NONE', *, *, #49, .F. ) ;
#297 = CALENDAR_DATE ( 2022, 20, 6 ) ;
#298 = EDGE_LOOP ( 'NONE', ( #163, #12, #36, #112 ) ) ;
#299 = AXIS2_PLACEMENT_3D ( 'NONE', #170, #242, #169 ) ;
#300 = DIRECTION ( 'NONE',  ( -0.000000000000000000, -0.000000000000000000, -1.000000000000000000 ) ) ;
#301 = FACE_OUTER_BOUND ( 'NONE', #132, .T. ) ;
#302 = EDGE_CURVE ( 'NONE', #39, #128, #241, .T. ) ;
#303 = ADVANCED_BREP_SHAPE_REPRESENTATION ( '3f4c', ( #80, #143 ), #8 ) ;
#304 = PLANE ( 'NONE',  #46 ) ;
#305 = TOROIDAL_SURFACE ( 'NONE', #299, 5.200000000000001066, 0.2000000000000000111 ) ;
#306 = DIRECTION ( 'NONE',  ( -0.000000000000000000, -0.000000000000000000, -1.000000000000000000 ) ) ;
#307 = FACE_OUTER_BOUND ( 'NONE', #133, .T. ) ;
ENDSEC;
END-ISO-10303-21;
