ISO-10303-21;
HEADER;
FILE_DESCRIPTION (( 'STEP AP203' ),
    '1' );
FILE_NAME ('e3da.STEP',
    '2022-06-20T09:45:55',
    ( '' ),
    ( '' ),
    'SwSTEP 2.0',
    'SolidWorks 2019',
    '' );
FILE_SCHEMA (( 'CONFIG_CONTROL_DESIGN' ));
ENDSEC;

DATA;
#1 = AXIS2_PLACEMENT_3D ( 'NONE', #217, #148, #8 ) ;
#2 = CARTESIAN_POINT ( 'NONE',  ( -4.450000000000000178, 5.449678256205721784E-16, 4.999999999999998224 ) ) ;
#3 = DIRECTION ( 'NONE',  ( 1.000000000000000000, 0.000000000000000000, 0.000000000000000000 ) ) ;
#4 = APPROVAL ( #156, 'NEURÈENÝ' ) ;
#5 = CIRCLE ( 'NONE', #162, 7.000000000000000000 ) ;
#6 = CIRCLE ( 'NONE', #129, 0.1999999999999996503 ) ;
#7 = PLANE ( 'NONE',  #260 ) ;
#8 = DIRECTION ( 'NONE',  ( -1.000000000000000000, 0.000000000000000000, 0.000000000000000000 ) ) ;
#9 = DIRECTION ( 'NONE',  ( 0.000000000000000000, 0.000000000000000000, 1.000000000000000000 ) ) ;
#10 =( NAMED_UNIT ( * ) PLANE_ANGLE_UNIT ( ) SI_UNIT ( $, .RADIAN. ) );
#11 = PRODUCT_DEFINITION_SHAPE ( 'NONE', 'NONE',  #181 ) ;
#12 = CALENDAR_DATE ( 2022, 20, 6 ) ;
#13 = DIRECTION ( 'NONE',  ( 0.000000000000000000, 0.000000000000000000, 1.000000000000000000 ) ) ;
#14 = DIRECTION ( 'NONE',  ( 1.000000000000000000, 0.000000000000000000, 0.000000000000000000 ) ) ;
#15 = VERTEX_POINT ( 'NONE', #53 ) ;
#16 = CIRCLE ( 'NONE', #141, 4.250000000000000000 ) ;
#17 = DIRECTION ( 'NONE',  ( 0.000000000000000000, 0.000000000000000000, 1.000000000000000000 ) ) ;
#18 = VERTEX_POINT ( 'NONE', #243 ) ;
#19 = DIRECTION ( 'NONE',  ( 0.000000000000000000, -1.000000000000000000, 0.000000000000000000 ) ) ;
#20 = EDGE_CURVE ( 'NONE', #91, #207, #43, .T. ) ;
#21 = ORIENTED_EDGE ( 'NONE', *, *, #46, .F. ) ;
#22 = EDGE_LOOP ( 'NONE', ( #302, #144 ) ) ;
#23 = ORIENTED_EDGE ( 'NONE', *, *, #128, .T. ) ;
#24 = EDGE_CURVE ( 'NONE', #68, #18, #56, .T. ) ;
#25 = AXIS2_PLACEMENT_3D ( 'NONE', #108, #132, #163 ) ;
#26 = APPROVAL_PERSON_ORGANIZATION ( #82, #4, #228 ) ;
#27 = ORIENTED_EDGE ( 'NONE', *, *, #98, .F. ) ;
#28 = CARTESIAN_POINT ( 'NONE',  ( 7.000000000000000000, 8.572527594031473190E-16, 5.000000000000000000 ) ) ;
#29 = DIRECTION ( 'NONE',  ( 1.000000000000000000, 0.000000000000000000, 0.000000000000000000 ) ) ;
#30 = CALENDAR_DATE ( 2022, 20, 6 ) ;
#31 = DIRECTION ( 'NONE',  ( 0.000000000000000000, 0.000000000000000000, 1.000000000000000000 ) ) ;
#32 = EDGE_CURVE ( 'NONE', #193, #95, #157, .T. ) ;
#33 = ADVANCED_FACE ( 'NONE', ( #293 ), #99, .T. ) ;
#34 = DIRECTION ( 'NONE',  ( 1.000000000000000000, 0.000000000000000000, 0.000000000000000000 ) ) ;
#35 = PERSON ( 'NEURÈENÝ', 'NEURÈENÝ', 'NEURÈENÝ', ('NEURÈENÝ'), ('NEURÈENÝ'), ('NEURÈENÝ') ) ;
#36 = PERSON_AND_ORGANIZATION_ROLE ( 'creator' ) ;
#37 = CYLINDRICAL_SURFACE ( 'NONE', #136, 4.250000000000000000 ) ;
#38 = CC_DESIGN_SECURITY_CLASSIFICATION ( #85, ( #249 ) ) ;
#39 = COORDINATED_UNIVERSAL_TIME_OFFSET ( 1, 0, .AHEAD. ) ;
#40 = DATE_TIME_ROLE ( 'classification_date' ) ;
#41 = FACE_BOUND ( 'NONE', #50, .T. ) ;
#42 = EDGE_CURVE ( 'NONE', #95, #258, #72, .T. ) ;
#43 = CIRCLE ( 'NONE', #84, 7.000000000000000000 ) ;
#44 = DIRECTION ( 'NONE',  ( -0.000000000000000000, -0.000000000000000000, -1.000000000000000000 ) ) ;
#45 = LINE ( 'NONE', #62, #300 ) ;
#46 = EDGE_CURVE ( 'NONE', #193, #15, #276, .T. ) ;
#47 = ORIENTED_EDGE ( 'NONE', *, *, #230, .T. ) ;
#48 = AXIS2_PLACEMENT_3D ( 'NONE', #120, #223, #179 ) ;
#49 = FACE_OUTER_BOUND ( 'NONE', #185, .T. ) ;
#50 = EDGE_LOOP ( 'NONE', ( #215, #110 ) ) ;
#51 = TOROIDAL_SURFACE ( 'NONE', #170, 4.450000000000000178, 0.2000000000000000111 ) ;
#52 = DIRECTION ( 'NONE',  ( 0.000000000000000000, 0.000000000000000000, 1.000000000000000000 ) ) ;
#53 = CARTESIAN_POINT ( 'NONE',  ( 4.250000000000000000, 5.204748896376250699E-16, 105.0000000000000142 ) ) ;
#54 = ADVANCED_FACE ( 'NONE', ( #202 ), #119, .T. ) ;
#55 = APPLICATION_PROTOCOL_DEFINITION ( 'international standard', 'config_control_design', 1994, #130 ) ;
#56 = CIRCLE ( 'NONE', #61, 7.000000000000000000 ) ;
#57 = CALENDAR_DATE ( 2022, 20, 6 ) ;
#58 = VECTOR ( 'NONE', #65, 1000.000000000000000 ) ;
#59 = AXIS2_PLACEMENT_3D ( 'NONE', #175, #104, #34 ) ;
#60 = PERSON_AND_ORGANIZATION ( #35, #206 ) ;
#61 = AXIS2_PLACEMENT_3D ( 'NONE', #291, #9, #274 ) ;
#62 = CARTESIAN_POINT ( 'NONE',  ( -7.000000000000000000, 0.000000000000000000, 5.000000000000000000 ) ) ;
#63 = SECURITY_CLASSIFICATION_LEVEL ( 'unclassified' ) ;
#64 = EDGE_LOOP ( 'NONE', ( #304, #240, #264, #262 ) ) ;
#65 = DIRECTION ( 'NONE',  ( -0.000000000000000000, -0.000000000000000000, -1.000000000000000000 ) ) ;
#66 = FACE_OUTER_BOUND ( 'NONE', #22, .T. ) ;
#67 = CYLINDRICAL_SURFACE ( 'NONE', #109, 7.000000000000000000 ) ;
#68 = VERTEX_POINT ( 'NONE', #102 ) ;
#69 = CARTESIAN_POINT ( 'NONE',  ( 0.000000000000000000, 0.000000000000000000, 5.000000000000000000 ) ) ;
#70 = ORIENTED_EDGE ( 'NONE', *, *, #98, .T. ) ;
#71 = UNCERTAINTY_MEASURE_WITH_UNIT (LENGTH_MEASURE( 1.000000000000000082E-05 ), #292, 'distance_accuracy_value', 'NONE');
#72 = CIRCLE ( 'NONE', #294, 0.1999999999999996503 ) ;
#73 = ORIENTED_EDGE ( 'NONE', *, *, #155, .F. ) ;
#74 = CC_DESIGN_PERSON_AND_ORGANIZATION_ASSIGNMENT ( #271, #122, ( #140 ) ) ;
#75 = COORDINATED_UNIVERSAL_TIME_OFFSET ( 1, 0, .AHEAD. ) ;
#76 = LINE ( 'NONE', #28, #178 ) ;
#77 = APPROVAL_STATUS ( 'not_yet_approved' ) ;
#78 = CLOSED_SHELL ( 'NONE', ( #284, #269, #33, #236, #186, #224, #150, #54, #208 ) ) ;
#79 = APPROVAL_ROLE ( '' ) ;
#80 = APPROVAL_PERSON_ORGANIZATION ( #222, #218, #79 ) ;
#81 = PRODUCT_RELATED_PRODUCT_CATEGORY ( 'detail', '', ( #140 ) ) ;
#82 = PERSON_AND_ORGANIZATION ( #35, #206 ) ;
#83 = VERTEX_POINT ( 'NONE', #256 ) ;
#84 = AXIS2_PLACEMENT_3D ( 'NONE', #113, #212, #3 ) ;
#85 = SECURITY_CLASSIFICATION ( '', '', #63 ) ;
#86 = CARTESIAN_POINT ( 'NONE',  ( -4.250000000000000000, 0.000000000000000000, 5.199999999999996625 ) ) ;
#87 = PERSON_AND_ORGANIZATION_ROLE ( 'design_supplier' ) ;
#88 = CC_DESIGN_PERSON_AND_ORGANIZATION_ASSIGNMENT ( #182, #279, ( #85 ) ) ;
#89 = ORIENTED_EDGE ( 'NONE', *, *, #138, .T. ) ;
#90 = ORIENTED_EDGE ( 'NONE', *, *, #145, .F. ) ;
#91 = VERTEX_POINT ( 'NONE', #188 ) ;
#92 = DIRECTION ( 'NONE',  ( 0.000000000000000000, 0.000000000000000000, 1.000000000000000000 ) ) ;
#93 = EDGE_LOOP ( 'NONE', ( #190, #27, #47, #97 ) ) ;
#94 = AXIS2_PLACEMENT_3D ( 'NONE', #69, #171, #198 ) ;
#95 = VERTEX_POINT ( 'NONE', #86 ) ;
#96 = DIRECTION ( 'NONE',  ( -0.000000000000000000, -0.000000000000000000, -1.000000000000000000 ) ) ;
#97 = ORIENTED_EDGE ( 'NONE', *, *, #263, .F. ) ;
#98 = EDGE_CURVE ( 'NONE', #83, #95, #16, .T. ) ;
#99 = CYLINDRICAL_SURFACE ( 'NONE', #209, 7.000000000000000000 ) ;
#100 = APPROVAL_PERSON_ORGANIZATION ( #200, #172, #177 ) ;
#101 = DATE_TIME_ROLE ( 'creation_date' ) ;
#102 = CARTESIAN_POINT ( 'NONE',  ( 7.000000000000000000, 8.572527594031473190E-16, 0.000000000000000000 ) ) ;
#103 = PERSON_AND_ORGANIZATION ( #35, #206 ) ;
#104 = DIRECTION ( 'NONE',  ( 0.000000000000000000, 0.000000000000000000, 1.000000000000000000 ) ) ;
#105 = SHAPE_DEFINITION_REPRESENTATION ( #11, #165 ) ;
#106 = CC_DESIGN_PERSON_AND_ORGANIZATION_ASSIGNMENT ( #60, #87, ( #249 ) ) ;
#107 = DIRECTION ( 'NONE',  ( 1.000000000000000000, 0.000000000000000000, 0.000000000000000000 ) ) ;
#108 = CARTESIAN_POINT ( 'NONE',  ( 0.000000000000000000, 0.000000000000000000, 5.000000000000000000 ) ) ;
#109 = AXIS2_PLACEMENT_3D ( 'NONE', #117, #96, #285 ) ;
#110 = ORIENTED_EDGE ( 'NONE', *, *, #263, .T. ) ;
#111 = DIRECTION ( 'NONE',  ( 0.000000000000000000, 0.000000000000000000, 1.000000000000000000 ) ) ;
#112 = AXIS2_PLACEMENT_3D ( 'NONE', #266, #31, #220 ) ;
#113 = CARTESIAN_POINT ( 'NONE',  ( 0.000000000000000000, 0.000000000000000000, 5.000000000000000000 ) ) ;
#114 = DIRECTION ( 'NONE',  ( 1.000000000000000000, 0.000000000000000000, -0.000000000000000000 ) ) ;
#115 = ORIENTED_EDGE ( 'NONE', *, *, #230, .F. ) ;
#116 = MANIFOLD_SOLID_BREP ( 'Zaoblit1', #78 ) ;
#117 = CARTESIAN_POINT ( 'NONE',  ( 0.000000000000000000, 0.000000000000000000, 5.000000000000000000 ) ) ;
#118 = COORDINATED_UNIVERSAL_TIME_OFFSET ( 1, 0, .AHEAD. ) ;
#119 = PLANE ( 'NONE',  #112 ) ;
#120 = CARTESIAN_POINT ( 'NONE',  ( 0.000000000000000000, 0.000000000000000000, 0.000000000000000000 ) ) ;
#121 = CIRCLE ( 'NONE', #94, 4.450000000000000178 ) ;
#122 = PERSON_AND_ORGANIZATION_ROLE ( 'design_owner' ) ;
#123 = DIRECTION ( 'NONE',  ( -0.000000000000000000, -0.000000000000000000, -1.000000000000000000 ) ) ;
#124 = CC_DESIGN_DATE_AND_TIME_ASSIGNMENT ( #265, #101, ( #181 ) ) ;
#125 =( NAMED_UNIT ( * ) SI_UNIT ( $, .STERADIAN. ) SOLID_ANGLE_UNIT ( ) );
#126 = AXIS2_PLACEMENT_3D ( 'NONE', #306, #203, #254 ) ;
#127 = DATE_AND_TIME ( #131, #255 ) ;
#128 = EDGE_CURVE ( 'NONE', #207, #18, #45, .T. ) ;
#129 = AXIS2_PLACEMENT_3D ( 'NONE', #241, #19, #213 ) ;
#130 = APPLICATION_CONTEXT ( 'configuration controlled 3d designs of mechanical parts and assemblies' ) ;
#131 = CALENDAR_DATE ( 2022, 20, 6 ) ;
#132 = DIRECTION ( 'NONE',  ( 0.000000000000000000, 0.000000000000000000, 1.000000000000000000 ) ) ;
#133 = CIRCLE ( 'NONE', #305, 4.250000000000000000 ) ;
#134 = APPROVAL_DATE_TIME ( #298, #172 ) ;
#135 = LINE ( 'NONE', #303, #58 ) ;
#136 = AXIS2_PLACEMENT_3D ( 'NONE', #187, #44, #233 ) ;
#137 = LOCAL_TIME ( 11, 45, 55.00000000000000000, #250 ) ;
#138 = EDGE_CURVE ( 'NONE', #15, #193, #169, .T. ) ;
#139 = CARTESIAN_POINT ( 'NONE',  ( -4.250000000000000000, 0.000000000000000000, 105.0000000000000142 ) ) ;
#140 = PRODUCT ( 'e3da', 'e3da', '', ( #176 ) ) ;
#141 = AXIS2_PLACEMENT_3D ( 'NONE', #160, #111, #14 ) ;
#142 = EDGE_CURVE ( 'NONE', #95, #83, #133, .T. ) ;
#143 = ORIENTED_EDGE ( 'NONE', *, *, #167, .F. ) ;
#144 = ORIENTED_EDGE ( 'NONE', *, *, #20, .T. ) ;
#145 = EDGE_CURVE ( 'NONE', #15, #83, #135, .T. ) ;
#146 = DIRECTION ( 'NONE',  ( 0.000000000000000000, 0.000000000000000000, 1.000000000000000000 ) ) ;
#147 = ORIENTED_EDGE ( 'NONE', *, *, #299, .F. ) ;
#148 = DIRECTION ( 'NONE',  ( -0.000000000000000000, -0.000000000000000000, -1.000000000000000000 ) ) ;
#149 = EDGE_LOOP ( 'NONE', ( #147, #288 ) ) ;
#150 = ADVANCED_FACE ( 'NONE', ( #229 ), #37, .T. ) ;
#151 = DIRECTION ( 'NONE',  ( 1.000000000000000000, 0.000000000000000000, 0.000000000000000000 ) ) ;
#152 = CARTESIAN_POINT ( 'NONE',  ( -4.250000000000000000, 0.000000000000000000, 105.0000000000000142 ) ) ;
#153 = APPROVAL_DATE_TIME ( #295, #218 ) ;
#154 = DIRECTION ( 'NONE',  ( 1.224646799147353207E-16, 1.000000000000000000, -0.000000000000000000 ) ) ;
#155 = EDGE_CURVE ( 'NONE', #252, #258, #297, .T. ) ;
#156 = APPROVAL_STATUS ( 'not_yet_approved' ) ;
#157 = LINE ( 'NONE', #152, #195 ) ;
#158 = CC_DESIGN_APPROVAL ( #172, ( #249 ) ) ;
#159 = DIRECTION ( 'NONE',  ( -0.000000000000000000, -0.000000000000000000, -1.000000000000000000 ) ) ;
#160 = CARTESIAN_POINT ( 'NONE',  ( 0.000000000000000000, 0.000000000000000000, 5.199999999999996625 ) ) ;
#161 = DIRECTION ( 'NONE',  ( -0.000000000000000000, -0.000000000000000000, -1.000000000000000000 ) ) ;
#162 = AXIS2_PLACEMENT_3D ( 'NONE', #184, #204, #301 ) ;
#163 = DIRECTION ( 'NONE',  ( 1.000000000000000000, 0.000000000000000000, -0.000000000000000000 ) ) ;
#164 = AXIS2_PLACEMENT_3D ( 'NONE', #238, #146, #259 ) ;
#165 = ADVANCED_BREP_SHAPE_REPRESENTATION ( 'e3da', ( #116, #48 ), #286 ) ;
#166 = ORIENTED_EDGE ( 'NONE', *, *, #145, .T. ) ;
#167 = EDGE_CURVE ( 'NONE', #207, #91, #5, .T. ) ;
#168 = ORIENTED_EDGE ( 'NONE', *, *, #32, .F. ) ;
#169 = CIRCLE ( 'NONE', #126, 4.250000000000000000 ) ;
#170 = AXIS2_PLACEMENT_3D ( 'NONE', #267, #52, #151 ) ;
#171 = DIRECTION ( 'NONE',  ( -0.000000000000000000, -0.000000000000000000, -1.000000000000000000 ) ) ;
#172 = APPROVAL ( #77, 'NEURÈENÝ' ) ;
#173 = EDGE_LOOP ( 'NONE', ( #197, #261, #73, #115 ) ) ;
#174 = TOROIDAL_SURFACE ( 'NONE', #164, 4.450000000000000178, 0.2000000000000000111 ) ;
#175 = CARTESIAN_POINT ( 'NONE',  ( 0.000000000000000000, 0.000000000000000000, 0.000000000000000000 ) ) ;
#176 = MECHANICAL_CONTEXT ( 'NONE', #130, 'mechanical' ) ;
#177 = APPROVAL_ROLE ( '' ) ;
#178 = VECTOR ( 'NONE', #290, 1000.000000000000000 ) ;
#179 = DIRECTION ( 'NONE',  ( 1.000000000000000000, 0.000000000000000000, 0.000000000000000000 ) ) ;
#180 = CARTESIAN_POINT ( 'NONE',  ( 0.000000000000000000, 0.000000000000000000, 105.0000000000000142 ) ) ;
#181 = PRODUCT_DEFINITION ( 'NEZNÁMÝ', '', #249, #192 ) ;
#182 = PERSON_AND_ORGANIZATION ( #35, #206 ) ;
#183 = DATE_AND_TIME ( #247, #137 ) ;
#184 = CARTESIAN_POINT ( 'NONE',  ( 0.000000000000000000, 0.000000000000000000, 5.000000000000000000 ) ) ;
#185 = EDGE_LOOP ( 'NONE', ( #283, #143, #23, #214 ) ) ;
#186 = ADVANCED_FACE ( 'NONE', ( #41, #66 ), #235, .T. ) ;
#187 = CARTESIAN_POINT ( 'NONE',  ( 0.000000000000000000, 0.000000000000000000, 105.0000000000000142 ) ) ;
#188 = CARTESIAN_POINT ( 'NONE',  ( 7.000000000000000000, 8.572527594031473190E-16, 5.000000000000000000 ) ) ;
#189 = CARTESIAN_POINT ( 'NONE',  ( 0.000000000000000000, 0.000000000000000000, 5.000000000000000000 ) ) ;
#190 = ORIENTED_EDGE ( 'NONE', *, *, #42, .F. ) ;
#191 = CYLINDRICAL_SURFACE ( 'NONE', #1, 4.250000000000000000 ) ;
#192 = DESIGN_CONTEXT ( 'detailed design', #194, 'design' ) ;
#193 = VERTEX_POINT ( 'NONE', #139 ) ;
#194 = APPLICATION_CONTEXT ( 'configuration controlled 3d designs of mechanical parts and assemblies' ) ;
#195 = VECTOR ( 'NONE', #123, 1000.000000000000000 ) ;
#196 = CARTESIAN_POINT ( 'NONE',  ( 0.000000000000000000, 0.000000000000000000, 0.000000000000000000 ) ) ;
#197 = ORIENTED_EDGE ( 'NONE', *, *, #142, .F. ) ;
#198 = DIRECTION ( 'NONE',  ( 1.000000000000000000, 0.000000000000000000, 0.000000000000000000 ) ) ;
#199 = FACE_OUTER_BOUND ( 'NONE', #173, .T. ) ;
#200 = PERSON_AND_ORGANIZATION ( #35, #206 ) ;
#201 = APPROVAL_STATUS ( 'not_yet_approved' ) ;
#202 = FACE_OUTER_BOUND ( 'NONE', #278, .T. ) ;
#203 = DIRECTION ( 'NONE',  ( 0.000000000000000000, 0.000000000000000000, 1.000000000000000000 ) ) ;
#204 = DIRECTION ( 'NONE',  ( 0.000000000000000000, 0.000000000000000000, 1.000000000000000000 ) ) ;
#205 = CC_DESIGN_PERSON_AND_ORGANIZATION_ASSIGNMENT ( #103, #245, ( #181 ) ) ;
#206 = ORGANIZATION ( 'NEURÈENÝ', 'NEURÈENÝ', '' ) ;
#207 = VERTEX_POINT ( 'NONE', #237 ) ;
#208 = ADVANCED_FACE ( 'NONE', ( #282 ), #174, .F. ) ;
#209 = AXIS2_PLACEMENT_3D ( 'NONE', #296, #246, #272 ) ;
#210 = EDGE_LOOP ( 'NONE', ( #307, #166, #70, #168 ) ) ;
#211 = CARTESIAN_POINT ( 'NONE',  ( 4.450000000000000178, 0.000000000000000000, 4.999999999999998224 ) ) ;
#212 = DIRECTION ( 'NONE',  ( 0.000000000000000000, 0.000000000000000000, 1.000000000000000000 ) ) ;
#213 = DIRECTION ( 'NONE',  ( 0.000000000000000000, 0.000000000000000000, -1.000000000000000000 ) ) ;
#214 = ORIENTED_EDGE ( 'NONE', *, *, #299, .T. ) ;
#215 = ORIENTED_EDGE ( 'NONE', *, *, #155, .T. ) ;
#216 = LOCAL_TIME ( 11, 45, 55.00000000000000000, #75 ) ;
#217 = CARTESIAN_POINT ( 'NONE',  ( 0.000000000000000000, 0.000000000000000000, 105.0000000000000142 ) ) ;
#218 = APPROVAL ( #201, 'NEURÈENÝ' ) ;
#219 = APPLICATION_PROTOCOL_DEFINITION ( 'international standard', 'config_control_design', 1994, #194 ) ;
#220 = DIRECTION ( 'NONE',  ( 1.000000000000000000, 0.000000000000000000, -0.000000000000000000 ) ) ;
#221 = LOCAL_TIME ( 11, 45, 55.00000000000000000, #268 ) ;
#222 = PERSON_AND_ORGANIZATION ( #35, #206 ) ;
#223 = DIRECTION ( 'NONE',  ( 0.000000000000000000, 0.000000000000000000, 1.000000000000000000 ) ) ;
#224 = ADVANCED_FACE ( 'NONE', ( #248 ), #7, .F. ) ;
#225 = DIRECTION ( 'NONE',  ( -1.000000000000000000, 1.224646799147353454E-16, 0.000000000000000000 ) ) ;
#226 = LOCAL_TIME ( 11, 45, 55.00000000000000000, #118 ) ;
#227 = CARTESIAN_POINT ( 'NONE',  ( 0.000000000000000000, 0.000000000000000000, 5.199999999999996625 ) ) ;
#228 = APPROVAL_ROLE ( '' ) ;
#229 = FACE_OUTER_BOUND ( 'NONE', #239, .T. ) ;
#230 = EDGE_CURVE ( 'NONE', #83, #252, #6, .T. ) ;
#231 = ORIENTED_EDGE ( 'NONE', *, *, #46, .T. ) ;
#232 = AXIS2_PLACEMENT_3D ( 'NONE', #180, #13, #29 ) ;
#233 = DIRECTION ( 'NONE',  ( -1.000000000000000000, 0.000000000000000000, 0.000000000000000000 ) ) ;
#234 = CC_DESIGN_APPROVAL ( #4, ( #85 ) ) ;
#235 = PLANE ( 'NONE',  #25 ) ;
#236 = ADVANCED_FACE ( 'NONE', ( #49 ), #67, .T. ) ;
#237 = CARTESIAN_POINT ( 'NONE',  ( -7.000000000000000000, 0.000000000000000000, 5.000000000000000000 ) ) ;
#238 = CARTESIAN_POINT ( 'NONE',  ( 0.000000000000000000, 0.000000000000000000, 5.199999999999996625 ) ) ;
#239 = EDGE_LOOP ( 'NONE', ( #90, #21, #277, #287 ) ) ;
#240 = ORIENTED_EDGE ( 'NONE', *, *, #289, .T. ) ;
#241 = CARTESIAN_POINT ( 'NONE',  ( 4.450000000000000178, 0.000000000000000000, 5.199999999999996625 ) ) ;
#242 = CIRCLE ( 'NONE', #59, 7.000000000000000000 ) ;
#243 = CARTESIAN_POINT ( 'NONE',  ( -7.000000000000000000, 0.000000000000000000, 0.000000000000000000 ) ) ;
#244 = CARTESIAN_POINT ( 'NONE',  ( -4.450000000000000178, 5.449678256205721784E-16, 5.199999999999996625 ) ) ;
#245 = PERSON_AND_ORGANIZATION_ROLE ( 'creator' ) ;
#246 = DIRECTION ( 'NONE',  ( -0.000000000000000000, -0.000000000000000000, -1.000000000000000000 ) ) ;
#247 = CALENDAR_DATE ( 2022, 20, 6 ) ;
#248 = FACE_OUTER_BOUND ( 'NONE', #149, .T. ) ;
#249 = PRODUCT_DEFINITION_FORMATION_WITH_SPECIFIED_SOURCE ( 'LIBOVOLNÝ', '', #140, .NOT_KNOWN. ) ;
#250 = COORDINATED_UNIVERSAL_TIME_OFFSET ( 1, 0, .AHEAD. ) ;
#251 = DIRECTION ( 'NONE',  ( 1.000000000000000000, 0.000000000000000000, 0.000000000000000000 ) ) ;
#252 = VERTEX_POINT ( 'NONE', #211 ) ;
#253 = PERSON_AND_ORGANIZATION ( #35, #206 ) ;
#254 = DIRECTION ( 'NONE',  ( 1.000000000000000000, 0.000000000000000000, 0.000000000000000000 ) ) ;
#255 = LOCAL_TIME ( 11, 45, 55.00000000000000000, #39 ) ;
#256 = CARTESIAN_POINT ( 'NONE',  ( 4.250000000000000000, 5.204748896376250699E-16, 5.199999999999996625 ) ) ;
#257 = FACE_OUTER_BOUND ( 'NONE', #210, .T. ) ;
#258 = VERTEX_POINT ( 'NONE', #2 ) ;
#259 = DIRECTION ( 'NONE',  ( 1.000000000000000000, 0.000000000000000000, 0.000000000000000000 ) ) ;
#260 = AXIS2_PLACEMENT_3D ( 'NONE', #196, #92, #114 ) ;
#261 = ORIENTED_EDGE ( 'NONE', *, *, #42, .T. ) ;
#262 = ORIENTED_EDGE ( 'NONE', *, *, #128, .F. ) ;
#263 = EDGE_CURVE ( 'NONE', #258, #252, #121, .T. ) ;
#264 = ORIENTED_EDGE ( 'NONE', *, *, #24, .T. ) ;
#265 = DATE_AND_TIME ( #12, #216 ) ;
#266 = CARTESIAN_POINT ( 'NONE',  ( 0.000000000000000000, 0.000000000000000000, 105.0000000000000142 ) ) ;
#267 = CARTESIAN_POINT ( 'NONE',  ( 0.000000000000000000, 0.000000000000000000, 5.199999999999996625 ) ) ;
#268 = COORDINATED_UNIVERSAL_TIME_OFFSET ( 1, 0, .AHEAD. ) ;
#269 = ADVANCED_FACE ( 'NONE', ( #257 ), #191, .T. ) ;
#270 = AXIS2_PLACEMENT_3D ( 'NONE', #189, #161, #107 ) ;
#271 = PERSON_AND_ORGANIZATION ( #35, #206 ) ;
#272 = DIRECTION ( 'NONE',  ( -1.000000000000000000, 0.000000000000000000, 0.000000000000000000 ) ) ;
#273 = APPROVAL_DATE_TIME ( #127, #4 ) ;
#274 = DIRECTION ( 'NONE',  ( 1.000000000000000000, 0.000000000000000000, 0.000000000000000000 ) ) ;
#275 = CC_DESIGN_PERSON_AND_ORGANIZATION_ASSIGNMENT ( #253, #36, ( #249 ) ) ;
#276 = CIRCLE ( 'NONE', #232, 4.250000000000000000 ) ;
#277 = ORIENTED_EDGE ( 'NONE', *, *, #32, .T. ) ;
#278 = EDGE_LOOP ( 'NONE', ( #231, #89 ) ) ;
#279 = PERSON_AND_ORGANIZATION_ROLE ( 'classification_officer' ) ;
#280 = CC_DESIGN_DATE_AND_TIME_ASSIGNMENT ( #183, #40, ( #85 ) ) ;
#281 = CC_DESIGN_APPROVAL ( #218, ( #181 ) ) ;
#282 = FACE_OUTER_BOUND ( 'NONE', #93, .T. ) ;
#283 = ORIENTED_EDGE ( 'NONE', *, *, #289, .F. ) ;
#284 = ADVANCED_FACE ( 'NONE', ( #199 ), #51, .F. ) ;
#285 = DIRECTION ( 'NONE',  ( -1.000000000000000000, 0.000000000000000000, 0.000000000000000000 ) ) ;
#286 =( GEOMETRIC_REPRESENTATION_CONTEXT ( 3 ) GLOBAL_UNCERTAINTY_ASSIGNED_CONTEXT ( ( #71 ) ) GLOBAL_UNIT_ASSIGNED_CONTEXT ( ( #292, #10, #125 ) ) REPRESENTATION_CONTEXT ( 'NONE', 'WORKASPACE' ) );
#287 = ORIENTED_EDGE ( 'NONE', *, *, #142, .T. ) ;
#288 = ORIENTED_EDGE ( 'NONE', *, *, #24, .F. ) ;
#289 = EDGE_CURVE ( 'NONE', #91, #68, #76, .T. ) ;
#290 = DIRECTION ( 'NONE',  ( -0.000000000000000000, -0.000000000000000000, -1.000000000000000000 ) ) ;
#291 = CARTESIAN_POINT ( 'NONE',  ( 0.000000000000000000, 0.000000000000000000, 0.000000000000000000 ) ) ;
#292 =( LENGTH_UNIT ( ) NAMED_UNIT ( * ) SI_UNIT ( .MILLI., .METRE. ) );
#293 = FACE_OUTER_BOUND ( 'NONE', #64, .T. ) ;
#294 = AXIS2_PLACEMENT_3D ( 'NONE', #244, #154, #225 ) ;
#295 = DATE_AND_TIME ( #30, #226 ) ;
#296 = CARTESIAN_POINT ( 'NONE',  ( 0.000000000000000000, 0.000000000000000000, 5.000000000000000000 ) ) ;
#297 = CIRCLE ( 'NONE', #270, 4.450000000000000178 ) ;
#298 = DATE_AND_TIME ( #57, #221 ) ;
#299 = EDGE_CURVE ( 'NONE', #18, #68, #242, .T. ) ;
#300 = VECTOR ( 'NONE', #159, 1000.000000000000000 ) ;
#301 = DIRECTION ( 'NONE',  ( 1.000000000000000000, 0.000000000000000000, 0.000000000000000000 ) ) ;
#302 = ORIENTED_EDGE ( 'NONE', *, *, #167, .T. ) ;
#303 = CARTESIAN_POINT ( 'NONE',  ( 4.250000000000000000, 5.204748896376250699E-16, 105.0000000000000142 ) ) ;
#304 = ORIENTED_EDGE ( 'NONE', *, *, #20, .F. ) ;
#305 = AXIS2_PLACEMENT_3D ( 'NONE', #227, #17, #251 ) ;
#306 = CARTESIAN_POINT ( 'NONE',  ( 0.000000000000000000, 0.000000000000000000, 105.0000000000000142 ) ) ;
#307 = ORIENTED_EDGE ( 'NONE', *, *, #138, .F. ) ;
ENDSEC;
END-ISO-10303-21;
