ISO-10303-21;
HEADER;
FILE_DESCRIPTION (( 'STEP AP203' ),
    '1' );
FILE_NAME ('243a.STEP',
    '2022-06-20T10:27:47',
    ( '' ),
    ( '' ),
    'SwSTEP 2.0',
    'SolidWorks 2019',
    '' );
FILE_SCHEMA (( 'CONFIG_CONTROL_DESIGN' ));
ENDSEC;

DATA;
#1 = ORIENTED_EDGE ( 'NONE', *, *, #250, .T. ) ;
#2 = COORDINATED_UNIVERSAL_TIME_OFFSET ( 1, 0, .AHEAD. ) ;
#3 = ORIENTED_EDGE ( 'NONE', *, *, #92, .T. ) ;
#4 = EDGE_LOOP ( 'NONE', ( #168, #186 ) ) ;
#5 = EDGE_LOOP ( 'NONE', ( #285, #48, #3, #107 ) ) ;
#6 = APPROVAL ( #125, 'NEURÈENÝ' ) ;
#7 = CARTESIAN_POINT ( 'NONE',  ( 0.000000000000000000, 0.000000000000000000, 1.399999999999998579 ) ) ;
#8 = APPROVAL ( #238, 'NEURÈENÝ' ) ;
#9 = CARTESIAN_POINT ( 'NONE',  ( 0.000000000000000000, 0.000000000000000000, 101.2000000000000171 ) ) ;
#10 = ORGANIZATION ( 'NEURÈENÝ', 'NEURÈENÝ', '' ) ;
#11 = CARTESIAN_POINT ( 'NONE',  ( 0.5000000000000000000, 6.123233995736766036E-17, 101.2000000000000171 ) ) ;
#12 = PLANE ( 'NONE',  #117 ) ;
#13 = VERTEX_POINT ( 'NONE', #167 ) ;
#14 = EDGE_CURVE ( 'NONE', #13, #26, #114, .T. ) ;
#15 = AXIS2_PLACEMENT_3D ( 'NONE', #194, #53, #270 ) ;
#16 = CARTESIAN_POINT ( 'NONE',  ( 0.000000000000000000, 0.000000000000000000, 101.2000000000000171 ) ) ;
#17 = CARTESIAN_POINT ( 'NONE',  ( 0.000000000000000000, 0.000000000000000000, 1.399999999999998579 ) ) ;
#18 = CC_DESIGN_PERSON_AND_ORGANIZATION_ASSIGNMENT ( #97, #30, ( #178 ) ) ;
#19 = CARTESIAN_POINT ( 'NONE',  ( 0.000000000000000000, 0.000000000000000000, 1.399999999999998579 ) ) ;
#20 = ORIENTED_EDGE ( 'NONE', *, *, #272, .T. ) ;
#21 = DIRECTION ( 'NONE',  ( 1.000000000000000000, 0.000000000000000000, 0.000000000000000000 ) ) ;
#22 = ORIENTED_EDGE ( 'NONE', *, *, #153, .T. ) ;
#23 = APPLICATION_PROTOCOL_DEFINITION ( 'international standard', 'config_control_design', 1994, #134 ) ;
#24 = DIRECTION ( 'NONE',  ( 0.000000000000000000, 0.000000000000000000, 1.000000000000000000 ) ) ;
#25 = COORDINATED_UNIVERSAL_TIME_OFFSET ( 1, 0, .AHEAD. ) ;
#26 = VERTEX_POINT ( 'NONE', #281 ) ;
#27 = APPROVAL_PERSON_ORGANIZATION ( #138, #8, #192 ) ;
#28 = APPROVAL_STATUS ( 'not_yet_approved' ) ;
#29 = FACE_OUTER_BOUND ( 'NONE', #4, .T. ) ;
#30 = PERSON_AND_ORGANIZATION_ROLE ( 'creator' ) ;
#31 = CARTESIAN_POINT ( 'NONE',  ( -0.6999999999999999556, 8.572527594031471957E-17, 1.399999999999998579 ) ) ;
#32 = SHAPE_DEFINITION_REPRESENTATION ( #201, #40 ) ;
#33 = ADVANCED_FACE ( 'NONE', ( #87 ), #68, .T. ) ;
#34 = CARTESIAN_POINT ( 'NONE',  ( 0.000000000000000000, 0.000000000000000000, 101.2000000000000171 ) ) ;
#35 = DIRECTION ( 'NONE',  ( 0.000000000000000000, 0.000000000000000000, 1.000000000000000000 ) ) ;
#36 = ORIENTED_EDGE ( 'NONE', *, *, #293, .T. ) ;
#37 = CIRCLE ( 'NONE', #286, 0.1999999999999999833 ) ;
#38 = DIRECTION ( 'NONE',  ( -0.000000000000000000, -0.000000000000000000, -1.000000000000000000 ) ) ;
#39 = CIRCLE ( 'NONE', #287, 0.2000000000000000944 ) ;
#40 = ADVANCED_BREP_SHAPE_REPRESENTATION ( '243a', ( #221, #298 ), #303 ) ;
#41 = DIRECTION ( 'NONE',  ( -1.000000000000000000, 0.000000000000000000, 0.000000000000000000 ) ) ;
#42 = VERTEX_POINT ( 'NONE', #109 ) ;
#43 = CARTESIAN_POINT ( 'NONE',  ( 0.000000000000000000, 0.000000000000000000, 0.000000000000000000 ) ) ;
#44 = ADVANCED_FACE ( 'NONE', ( #190 ), #86, .T. ) ;
#45 = VERTEX_POINT ( 'NONE', #184 ) ;
#46 = CARTESIAN_POINT ( 'NONE',  ( 0.000000000000000000, 0.000000000000000000, 0.000000000000000000 ) ) ;
#47 = DIRECTION ( 'NONE',  ( 0.000000000000000000, 0.000000000000000000, 1.000000000000000000 ) ) ;
#48 = ORIENTED_EDGE ( 'NONE', *, *, #79, .T. ) ;
#49 = CALENDAR_DATE ( 2022, 20, 6 ) ;
#50 = VERTEX_POINT ( 'NONE', #140 ) ;
#51 = CARTESIAN_POINT ( 'NONE',  ( 0.000000000000000000, 0.000000000000000000, 1.199999999999999956 ) ) ;
#52 = DATE_TIME_ROLE ( 'classification_date' ) ;
#53 = DIRECTION ( 'NONE',  ( 0.000000000000000000, 0.000000000000000000, 1.000000000000000000 ) ) ;
#54 = DIRECTION ( 'NONE',  ( -0.000000000000000000, -0.000000000000000000, -1.000000000000000000 ) ) ;
#55 = PERSON_AND_ORGANIZATION_ROLE ( 'classification_officer' ) ;
#56 = CIRCLE ( 'NONE', #249, 0.5000000000000000000 ) ;
#57 = LOCAL_TIME ( 12, 27, 47.00000000000000000, #2 ) ;
#58 = CIRCLE ( 'NONE', #157, 1.250000000000000000 ) ;
#59 = AXIS2_PLACEMENT_3D ( 'NONE', #43, #205, #180 ) ;
#60 = CC_DESIGN_DATE_AND_TIME_ASSIGNMENT ( #74, #52, ( #231 ) ) ;
#61 = EDGE_CURVE ( 'NONE', #42, #271, #236, .T. ) ;
#62 = DIRECTION ( 'NONE',  ( 1.000000000000000000, 0.000000000000000000, 0.000000000000000000 ) ) ;
#63 = APPROVAL_PERSON_ORGANIZATION ( #262, #115, #268 ) ;
#64 = DIRECTION ( 'NONE',  ( 1.000000000000000000, 0.000000000000000000, 0.000000000000000000 ) ) ;
#65 = ADVANCED_FACE ( 'NONE', ( #29 ), #256, .F. ) ;
#66 = ORIENTED_EDGE ( 'NONE', *, *, #267, .T. ) ;
#67 = DIRECTION ( 'NONE',  ( -1.000000000000000000, 0.000000000000000000, 0.000000000000000000 ) ) ;
#68 = CYLINDRICAL_SURFACE ( 'NONE', #283, 1.250000000000000000 ) ;
#69 = PRODUCT_DEFINITION_FORMATION_WITH_SPECIFIED_SOURCE ( 'LIBOVOLNÝ', '', #212, .NOT_KNOWN. ) ;
#70 = CC_DESIGN_PERSON_AND_ORGANIZATION_ASSIGNMENT ( #213, #55, ( #231 ) ) ;
#71 = VERTEX_POINT ( 'NONE', #295 ) ;
#72 = APPROVAL_DATE_TIME ( #209, #115 ) ;
#73 = EDGE_LOOP ( 'NONE', ( #306, #1 ) ) ;
#74 = DATE_AND_TIME ( #108, #57 ) ;
#75 = LINE ( 'NONE', #170, #204 ) ;
#76 = PERSON_AND_ORGANIZATION_ROLE ( 'design_supplier' ) ;
#77 = DIRECTION ( 'NONE',  ( -0.000000000000000000, -0.000000000000000000, -1.000000000000000000 ) ) ;
#78 = DIRECTION ( 'NONE',  ( -0.000000000000000000, -0.000000000000000000, -1.000000000000000000 ) ) ;
#79 = EDGE_CURVE ( 'NONE', #158, #137, #98, .T. ) ;
#80 = CARTESIAN_POINT ( 'NONE',  ( 0.000000000000000000, 0.000000000000000000, 1.399999999999998579 ) ) ;
#81 = LOCAL_TIME ( 12, 27, 47.00000000000000000, #172 ) ;
#82 = CIRCLE ( 'NONE', #15, 1.250000000000000000 ) ;
#83 = CARTESIAN_POINT ( 'NONE',  ( 0.000000000000000000, 0.000000000000000000, 0.000000000000000000 ) ) ;
#84 = LOCAL_TIME ( 12, 27, 47.00000000000000000, #304 ) ;
#85 = EDGE_CURVE ( 'NONE', #42, #50, #82, .T. ) ;
#86 = PLANE ( 'NONE',  #182 ) ;
#87 = FACE_OUTER_BOUND ( 'NONE', #121, .T. ) ;
#88 = CLOSED_SHELL ( 'NONE', ( #237, #136, #33, #148, #123, #65, #183, #44, #282 ) ) ;
#89 = DIRECTION ( 'NONE',  ( -0.000000000000000000, -0.000000000000000000, -1.000000000000000000 ) ) ;
#90 = DATE_AND_TIME ( #111, #215 ) ;
#91 = ORIENTED_EDGE ( 'NONE', *, *, #92, .F. ) ;
#92 = EDGE_CURVE ( 'NONE', #137, #176, #56, .T. ) ;
#93 = ORIENTED_EDGE ( 'NONE', *, *, #193, .T. ) ;
#94 = PERSON_AND_ORGANIZATION ( #162, #10 ) ;
#95 = DIRECTION ( 'NONE',  ( -0.000000000000000000, -0.000000000000000000, -1.000000000000000000 ) ) ;
#96 = CC_DESIGN_SECURITY_CLASSIFICATION ( #231, ( #69 ) ) ;
#97 = PERSON_AND_ORGANIZATION ( #162, #10 ) ;
#98 = LINE ( 'NONE', #245, #146 ) ;
#99 = DIRECTION ( 'NONE',  ( 0.000000000000000000, 0.000000000000000000, 1.000000000000000000 ) ) ;
#100 = CARTESIAN_POINT ( 'NONE',  ( 0.000000000000000000, 0.000000000000000000, 1.199999999999999956 ) ) ;
#101 = FACE_OUTER_BOUND ( 'NONE', #5, .T. ) ;
#102 = CC_DESIGN_APPROVAL ( #8, ( #231 ) ) ;
#103 = EDGE_CURVE ( 'NONE', #71, #158, #224, .T. ) ;
#104 = DIRECTION ( 'NONE',  ( 1.000000000000000000, 0.000000000000000000, 0.000000000000000000 ) ) ;
#105 = EDGE_LOOP ( 'NONE', ( #66, #129 ) ) ;
#106 = DIRECTION ( 'NONE',  ( 1.000000000000000000, 0.000000000000000000, 0.000000000000000000 ) ) ;
#107 = ORIENTED_EDGE ( 'NONE', *, *, #197, .F. ) ;
#108 = CALENDAR_DATE ( 2022, 20, 6 ) ;
#109 = CARTESIAN_POINT ( 'NONE',  ( 1.250000000000000000, 1.530808498934191571E-16, 1.199999999999999956 ) ) ;
#110 = DIRECTION ( 'NONE',  ( -0.000000000000000000, -0.000000000000000000, -1.000000000000000000 ) ) ;
#111 = CALENDAR_DATE ( 2022, 20, 6 ) ;
#112 = CARTESIAN_POINT ( 'NONE',  ( 0.000000000000000000, 0.000000000000000000, 0.000000000000000000 ) ) ;
#113 = CYLINDRICAL_SURFACE ( 'NONE', #294, 0.5000000000000000000 ) ;
#114 = CIRCLE ( 'NONE', #139, 0.6999999999999999556 ) ;
#115 = APPROVAL ( #28, 'NEURÈENÝ' ) ;
#116 = DIRECTION ( 'NONE',  ( 0.000000000000000000, 0.000000000000000000, 1.000000000000000000 ) ) ;
#117 = AXIS2_PLACEMENT_3D ( 'NONE', #122, #292, #273 ) ;
#118 = CC_DESIGN_PERSON_AND_ORGANIZATION_ASSIGNMENT ( #163, #132, ( #212 ) ) ;
#119 = CARTESIAN_POINT ( 'NONE',  ( 0.6999999999999999556, 0.000000000000000000, 1.399999999999998579 ) ) ;
#120 = DIRECTION ( 'NONE',  ( -0.000000000000000000, -0.000000000000000000, -1.000000000000000000 ) ) ;
#121 = EDGE_LOOP ( 'NONE', ( #210, #232, #20, #207 ) ) ;
#122 = CARTESIAN_POINT ( 'NONE',  ( 0.000000000000000000, 0.000000000000000000, 1.199999999999999956 ) ) ;
#123 = ADVANCED_FACE ( 'NONE', ( #154, #200 ), #12, .T. ) ;
#124 = AXIS2_PLACEMENT_3D ( 'NONE', #16, #78, #290 ) ;
#125 = APPROVAL_STATUS ( 'not_yet_approved' ) ;
#126 = CARTESIAN_POINT ( 'NONE',  ( 1.250000000000000000, 1.530808498934191571E-16, 0.000000000000000000 ) ) ;
#127 = CIRCLE ( 'NONE', #133, 0.5000000000000000000 ) ;
#128 = CIRCLE ( 'NONE', #227, 0.5000000000000000000 ) ;
#129 = ORIENTED_EDGE ( 'NONE', *, *, #14, .T. ) ;
#130 = DIRECTION ( 'NONE',  ( 1.000000000000000000, 0.000000000000000000, -0.000000000000000000 ) ) ;
#131 = DESIGN_CONTEXT ( 'detailed design', #134, 'design' ) ;
#132 = PERSON_AND_ORGANIZATION_ROLE ( 'design_owner' ) ;
#133 = AXIS2_PLACEMENT_3D ( 'NONE', #19, #155, #104 ) ;
#134 = APPLICATION_CONTEXT ( 'configuration controlled 3d designs of mechanical parts and assemblies' ) ;
#135 = DIRECTION ( 'NONE',  ( 1.000000000000000000, 0.000000000000000000, 0.000000000000000000 ) ) ;
#136 = ADVANCED_FACE ( 'NONE', ( #101 ), #222, .T. ) ;
#137 = VERTEX_POINT ( 'NONE', #169 ) ;
#138 = PERSON_AND_ORGANIZATION ( #162, #10 ) ;
#139 = AXIS2_PLACEMENT_3D ( 'NONE', #260, #110, #135 ) ;
#140 = CARTESIAN_POINT ( 'NONE',  ( -1.250000000000000000, 0.000000000000000000, 1.199999999999999956 ) ) ;
#141 = SECURITY_CLASSIFICATION_LEVEL ( 'unclassified' ) ;
#142 = FACE_OUTER_BOUND ( 'NONE', #206, .T. ) ;
#143 = APPROVAL_DATE_TIME ( #264, #8 ) ;
#144 = FACE_OUTER_BOUND ( 'NONE', #234, .T. ) ;
#145 = PRODUCT_RELATED_PRODUCT_CATEGORY ( 'detail', '', ( #212 ) ) ;
#146 = VECTOR ( 'NONE', #95, 1000.000000000000000 ) ;
#147 = AXIS2_PLACEMENT_3D ( 'NONE', #160, #203, #255 ) ;
#148 = ADVANCED_FACE ( 'NONE', ( #247 ), #196, .T. ) ;
#149 = LINE ( 'NONE', #219, #296 ) ;
#150 = ORIENTED_EDGE ( 'NONE', *, *, #267, .F. ) ;
#151 = DIRECTION ( 'NONE',  ( 1.224646799147353207E-16, 1.000000000000000000, -0.000000000000000000 ) ) ;
#152 = CIRCLE ( 'NONE', #147, 0.6999999999999999556 ) ;
#153 = EDGE_CURVE ( 'NONE', #50, #45, #75, .T. ) ;
#154 = FACE_BOUND ( 'NONE', #105, .T. ) ;
#155 = DIRECTION ( 'NONE',  ( 0.000000000000000000, 0.000000000000000000, 1.000000000000000000 ) ) ;
#156 = DIRECTION ( 'NONE',  ( 0.000000000000000000, 0.000000000000000000, 1.000000000000000000 ) ) ;
#157 = AXIS2_PLACEMENT_3D ( 'NONE', #100, #99, #300 ) ;
#158 = VERTEX_POINT ( 'NONE', #11 ) ;
#159 = CC_DESIGN_DATE_AND_TIME_ASSIGNMENT ( #90, #166, ( #178 ) ) ;
#160 = CARTESIAN_POINT ( 'NONE',  ( 0.000000000000000000, 0.000000000000000000, 1.199999999999999956 ) ) ;
#161 = DIRECTION ( 'NONE',  ( -0.000000000000000000, -0.000000000000000000, -1.000000000000000000 ) ) ;
#162 = PERSON ( 'NEURÈENÝ', 'NEURÈENÝ', 'NEURÈENÝ', ('NEURÈENÝ'), ('NEURÈENÝ'), ('NEURÈENÝ') ) ;
#163 = PERSON_AND_ORGANIZATION ( #162, #10 ) ;
#164 = LOCAL_TIME ( 12, 27, 47.00000000000000000, #25 ) ;
#165 = CARTESIAN_POINT ( 'NONE',  ( 0.000000000000000000, 0.000000000000000000, 101.2000000000000171 ) ) ;
#166 = DATE_TIME_ROLE ( 'creation_date' ) ;
#167 = CARTESIAN_POINT ( 'NONE',  ( -0.6999999999999999556, 8.572527594031473190E-17, 1.199999999999999289 ) ) ;
#168 = ORIENTED_EDGE ( 'NONE', *, *, #297, .F. ) ;
#169 = CARTESIAN_POINT ( 'NONE',  ( 0.5000000000000000000, 6.123233995736766036E-17, 1.399999999999998579 ) ) ;
#170 = CARTESIAN_POINT ( 'NONE',  ( -1.250000000000000000, 0.000000000000000000, 1.199999999999999956 ) ) ;
#171 = CIRCLE ( 'NONE', #240, 1.250000000000000000 ) ;
#172 = COORDINATED_UNIVERSAL_TIME_OFFSET ( 1, 0, .AHEAD. ) ;
#173 = DIRECTION ( 'NONE',  ( -1.000000000000000000, 0.000000000000000000, 0.000000000000000000 ) ) ;
#174 = ORIENTED_EDGE ( 'NONE', *, *, #199, .F. ) ;
#175 = DIRECTION ( 'NONE',  ( 0.000000000000000000, 0.000000000000000000, 1.000000000000000000 ) ) ;
#176 = VERTEX_POINT ( 'NONE', #266 ) ;
#177 = AXIS2_PLACEMENT_3D ( 'NONE', #112, #47, #130 ) ;
#178 = PRODUCT_DEFINITION ( 'NEZNÁMÝ', '', #69, #131 ) ;
#179 = APPROVAL_PERSON_ORGANIZATION ( #302, #6, #225 ) ;
#180 = DIRECTION ( 'NONE',  ( 1.000000000000000000, 0.000000000000000000, 0.000000000000000000 ) ) ;
#181 = DIRECTION ( 'NONE',  ( 0.000000000000000000, -1.000000000000000000, 0.000000000000000000 ) ) ;
#182 = AXIS2_PLACEMENT_3D ( 'NONE', #165, #24, #288 ) ;
#183 = ADVANCED_FACE ( 'NONE', ( #142 ), #113, .T. ) ;
#184 = CARTESIAN_POINT ( 'NONE',  ( -1.250000000000000000, 0.000000000000000000, 0.000000000000000000 ) ) ;
#185 = DIRECTION ( 'NONE',  ( 0.000000000000000000, 0.000000000000000000, -1.000000000000000000 ) ) ;
#186 = ORIENTED_EDGE ( 'NONE', *, *, #272, .F. ) ;
#187 = ORIENTED_EDGE ( 'NONE', *, *, #193, .F. ) ;
#188 = PERSON_AND_ORGANIZATION_ROLE ( 'creator' ) ;
#189 = CIRCLE ( 'NONE', #59, 1.250000000000000000 ) ;
#190 = FACE_OUTER_BOUND ( 'NONE', #73, .T. ) ;
#191 = ORIENTED_EDGE ( 'NONE', *, *, #61, .F. ) ;
#192 = APPROVAL_ROLE ( '' ) ;
#193 = EDGE_CURVE ( 'NONE', #176, #13, #37, .T. ) ;
#194 = CARTESIAN_POINT ( 'NONE',  ( 0.000000000000000000, 0.000000000000000000, 1.199999999999999956 ) ) ;
#195 = APPLICATION_CONTEXT ( 'configuration controlled 3d designs of mechanical parts and assemblies' ) ;
#196 = CYLINDRICAL_SURFACE ( 'NONE', #265, 1.250000000000000000 ) ;
#197 = EDGE_CURVE ( 'NONE', #71, #176, #149, .T. ) ;
#198 = CARTESIAN_POINT ( 'NONE',  ( 0.000000000000000000, 0.000000000000000000, 1.199999999999999956 ) ) ;
#199 = EDGE_CURVE ( 'NONE', #50, #42, #58, .T. ) ;
#200 = FACE_OUTER_BOUND ( 'NONE', #299, .T. ) ;
#201 = PRODUCT_DEFINITION_SHAPE ( 'NONE', 'NONE',  #178 ) ;
#202 =( NAMED_UNIT ( * ) PLANE_ANGLE_UNIT ( ) SI_UNIT ( $, .RADIAN. ) );
#203 = DIRECTION ( 'NONE',  ( -0.000000000000000000, -0.000000000000000000, -1.000000000000000000 ) ) ;
#204 = VECTOR ( 'NONE', #120, 1000.000000000000000 ) ;
#205 = DIRECTION ( 'NONE',  ( 0.000000000000000000, 0.000000000000000000, 1.000000000000000000 ) ) ;
#206 = EDGE_LOOP ( 'NONE', ( #284, #223, #244, #36 ) ) ;
#207 = ORIENTED_EDGE ( 'NONE', *, *, #153, .F. ) ;
#208 = ORIENTED_EDGE ( 'NONE', *, *, #85, .T. ) ;
#209 = DATE_AND_TIME ( #49, #164 ) ;
#210 = ORIENTED_EDGE ( 'NONE', *, *, #85, .F. ) ;
#211 = ORIENTED_EDGE ( 'NONE', *, *, #199, .T. ) ;
#212 = PRODUCT ( '243a', '243a', '', ( #307 ) ) ;
#213 = PERSON_AND_ORGANIZATION ( #162, #10 ) ;
#214 = DIRECTION ( 'NONE',  ( -1.000000000000000000, 1.224646799147352714E-16, 0.000000000000000000 ) ) ;
#215 = LOCAL_TIME ( 12, 27, 47.00000000000000000, #235 ) ;
#216 = DIRECTION ( 'NONE',  ( 1.000000000000000000, 0.000000000000000000, 0.000000000000000000 ) ) ;
#217 = CC_DESIGN_PERSON_AND_ORGANIZATION_ASSIGNMENT ( #94, #76, ( #69 ) ) ;
#218 = VECTOR ( 'NONE', #161, 1000.000000000000000 ) ;
#219 = CARTESIAN_POINT ( 'NONE',  ( -0.5000000000000000000, 0.000000000000000000, 101.2000000000000171 ) ) ;
#220 = ORIENTED_EDGE ( 'NONE', *, *, #297, .T. ) ;
#221 = MANIFOLD_SOLID_BREP ( 'Zaoblit1', #88 ) ;
#222 = CYLINDRICAL_SURFACE ( 'NONE', #124, 0.5000000000000000000 ) ;
#223 = ORIENTED_EDGE ( 'NONE', *, *, #103, .F. ) ;
#224 = CIRCLE ( 'NONE', #261, 0.5000000000000000000 ) ;
#225 = APPROVAL_ROLE ( '' ) ;
#226 = APPROVAL_DATE_TIME ( #251, #6 ) ;
#227 = AXIS2_PLACEMENT_3D ( 'NONE', #34, #35, #216 ) ;
#228 = FACE_OUTER_BOUND ( 'NONE', #229, .T. ) ;
#229 = EDGE_LOOP ( 'NONE', ( #187, #91, #257, #274 ) ) ;
#230 = DIRECTION ( 'NONE',  ( 0.000000000000000000, 0.000000000000000000, 1.000000000000000000 ) ) ;
#231 = SECURITY_CLASSIFICATION ( '', '', #141 ) ;
#232 = ORIENTED_EDGE ( 'NONE', *, *, #61, .T. ) ;
#233 = CARTESIAN_POINT ( 'NONE',  ( 1.250000000000000000, 1.530808498934191571E-16, 1.199999999999999956 ) ) ;
#234 = EDGE_LOOP ( 'NONE', ( #254, #93, #150, #258 ) ) ;
#235 = COORDINATED_UNIVERSAL_TIME_OFFSET ( 1, 0, .AHEAD. ) ;
#236 = LINE ( 'NONE', #233, #218 ) ;
#237 = ADVANCED_FACE ( 'NONE', ( #144 ), #239, .F. ) ;
#238 = APPROVAL_STATUS ( 'not_yet_approved' ) ;
#239 = TOROIDAL_SURFACE ( 'NONE', #246, 0.6999999999999999556, 0.2000000000000000111 ) ;
#240 = AXIS2_PLACEMENT_3D ( 'NONE', #83, #156, #106 ) ;
#241 = CARTESIAN_POINT ( 'NONE',  ( 0.000000000000000000, 0.000000000000000000, 101.2000000000000171 ) ) ;
#242 = CC_DESIGN_APPROVAL ( #115, ( #69 ) ) ;
#243 = DIRECTION ( 'NONE',  ( 1.000000000000000000, 0.000000000000000000, 0.000000000000000000 ) ) ;
#244 = ORIENTED_EDGE ( 'NONE', *, *, #197, .T. ) ;
#245 = CARTESIAN_POINT ( 'NONE',  ( 0.5000000000000000000, 6.123233995736766036E-17, 101.2000000000000171 ) ) ;
#246 = AXIS2_PLACEMENT_3D ( 'NONE', #80, #116, #243 ) ;
#247 = FACE_OUTER_BOUND ( 'NONE', #248, .T. ) ;
#248 = EDGE_LOOP ( 'NONE', ( #191, #174, #22, #220 ) ) ;
#249 = AXIS2_PLACEMENT_3D ( 'NONE', #7, #275, #64 ) ;
#250 = EDGE_CURVE ( 'NONE', #158, #71, #128, .T. ) ;
#251 = DATE_AND_TIME ( #277, #84 ) ;
#252 = AXIS2_PLACEMENT_3D ( 'NONE', #17, #305, #276 ) ;
#253 =( NAMED_UNIT ( * ) SI_UNIT ( $, .STERADIAN. ) SOLID_ANGLE_UNIT ( ) );
#254 = ORIENTED_EDGE ( 'NONE', *, *, #293, .F. ) ;
#255 = DIRECTION ( 'NONE',  ( 1.000000000000000000, 0.000000000000000000, 0.000000000000000000 ) ) ;
#256 = PLANE ( 'NONE',  #177 ) ;
#257 = ORIENTED_EDGE ( 'NONE', *, *, #259, .T. ) ;
#258 = ORIENTED_EDGE ( 'NONE', *, *, #259, .F. ) ;
#259 = EDGE_CURVE ( 'NONE', #137, #26, #39, .T. ) ;
#260 = CARTESIAN_POINT ( 'NONE',  ( 0.000000000000000000, 0.000000000000000000, 1.199999999999999956 ) ) ;
#261 = AXIS2_PLACEMENT_3D ( 'NONE', #9, #175, #62 ) ;
#262 = PERSON_AND_ORGANIZATION ( #162, #10 ) ;
#263 = CC_DESIGN_APPROVAL ( #6, ( #178 ) ) ;
#264 = DATE_AND_TIME ( #291, #81 ) ;
#265 = AXIS2_PLACEMENT_3D ( 'NONE', #198, #38, #41 ) ;
#266 = CARTESIAN_POINT ( 'NONE',  ( -0.5000000000000000000, 0.000000000000000000, 1.399999999999998579 ) ) ;
#267 = EDGE_CURVE ( 'NONE', #26, #13, #152, .T. ) ;
#268 = APPROVAL_ROLE ( '' ) ;
#269 = TOROIDAL_SURFACE ( 'NONE', #252, 0.6999999999999999556, 0.2000000000000000111 ) ;
#270 = DIRECTION ( 'NONE',  ( 1.000000000000000000, 0.000000000000000000, 0.000000000000000000 ) ) ;
#271 = VERTEX_POINT ( 'NONE', #126 ) ;
#272 = EDGE_CURVE ( 'NONE', #271, #45, #189, .T. ) ;
#273 = DIRECTION ( 'NONE',  ( 1.000000000000000000, 0.000000000000000000, -0.000000000000000000 ) ) ;
#274 = ORIENTED_EDGE ( 'NONE', *, *, #14, .F. ) ;
#275 = DIRECTION ( 'NONE',  ( 0.000000000000000000, 0.000000000000000000, 1.000000000000000000 ) ) ;
#276 = DIRECTION ( 'NONE',  ( 1.000000000000000000, 0.000000000000000000, 0.000000000000000000 ) ) ;
#277 = CALENDAR_DATE ( 2022, 20, 6 ) ;
#278 =( LENGTH_UNIT ( ) NAMED_UNIT ( * ) SI_UNIT ( .MILLI., .METRE. ) );
#279 = UNCERTAINTY_MEASURE_WITH_UNIT (LENGTH_MEASURE( 1.000000000000000082E-05 ), #278, 'distance_accuracy_value', 'NONE');
#280 = APPLICATION_PROTOCOL_DEFINITION ( 'international standard', 'config_control_design', 1994, #195 ) ;
#281 = CARTESIAN_POINT ( 'NONE',  ( 0.6999999999999999556, 0.000000000000000000, 1.199999999999999289 ) ) ;
#282 = ADVANCED_FACE ( 'NONE', ( #228 ), #269, .F. ) ;
#283 = AXIS2_PLACEMENT_3D ( 'NONE', #51, #89, #67 ) ;
#284 = ORIENTED_EDGE ( 'NONE', *, *, #79, .F. ) ;
#285 = ORIENTED_EDGE ( 'NONE', *, *, #250, .F. ) ;
#286 = AXIS2_PLACEMENT_3D ( 'NONE', #31, #151, #214 ) ;
#287 = AXIS2_PLACEMENT_3D ( 'NONE', #119, #181, #185 ) ;
#288 = DIRECTION ( 'NONE',  ( 1.000000000000000000, 0.000000000000000000, -0.000000000000000000 ) ) ;
#289 = PERSON_AND_ORGANIZATION ( #162, #10 ) ;
#290 = DIRECTION ( 'NONE',  ( -1.000000000000000000, 0.000000000000000000, 0.000000000000000000 ) ) ;
#291 = CALENDAR_DATE ( 2022, 20, 6 ) ;
#292 = DIRECTION ( 'NONE',  ( 0.000000000000000000, 0.000000000000000000, 1.000000000000000000 ) ) ;
#293 = EDGE_CURVE ( 'NONE', #176, #137, #127, .T. ) ;
#294 = AXIS2_PLACEMENT_3D ( 'NONE', #241, #77, #173 ) ;
#295 = CARTESIAN_POINT ( 'NONE',  ( -0.5000000000000000000, 0.000000000000000000, 101.2000000000000171 ) ) ;
#296 = VECTOR ( 'NONE', #54, 1000.000000000000000 ) ;
#297 = EDGE_CURVE ( 'NONE', #45, #271, #171, .T. ) ;
#298 = AXIS2_PLACEMENT_3D ( 'NONE', #46, #230, #21 ) ;
#299 = EDGE_LOOP ( 'NONE', ( #211, #208 ) ) ;
#300 = DIRECTION ( 'NONE',  ( 1.000000000000000000, 0.000000000000000000, 0.000000000000000000 ) ) ;
#301 = CC_DESIGN_PERSON_AND_ORGANIZATION_ASSIGNMENT ( #289, #188, ( #69 ) ) ;
#302 = PERSON_AND_ORGANIZATION ( #162, #10 ) ;
#303 =( GEOMETRIC_REPRESENTATION_CONTEXT ( 3 ) GLOBAL_UNCERTAINTY_ASSIGNED_CONTEXT ( ( #279 ) ) GLOBAL_UNIT_ASSIGNED_CONTEXT ( ( #278, #202, #253 ) ) REPRESENTATION_CONTEXT ( 'NONE', 'WORKASPACE' ) );
#304 = COORDINATED_UNIVERSAL_TIME_OFFSET ( 1, 0, .AHEAD. ) ;
#305 = DIRECTION ( 'NONE',  ( 0.000000000000000000, 0.000000000000000000, 1.000000000000000000 ) ) ;
#306 = ORIENTED_EDGE ( 'NONE', *, *, #103, .T. ) ;
#307 = MECHANICAL_CONTEXT ( 'NONE', #195, 'mechanical' ) ;
ENDSEC;
END-ISO-10303-21;
