ISO-10303-21;
HEADER;
FILE_DESCRIPTION (( 'STEP AP203' ),
    '1' );
FILE_NAME ('ed7a.STEP',
    '2022-06-20T09:37:29',
    ( '' ),
    ( '' ),
    'SwSTEP 2.0',
    'SolidWorks 2019',
    '' );
FILE_SCHEMA (( 'CONFIG_CONTROL_DESIGN' ));
ENDSEC;

DATA;
#1 = APPROVAL_ROLE ( '' ) ;
#2 = ORIENTED_EDGE ( 'NONE', *, *, #23, .T. ) ;
#3 = EDGE_LOOP ( 'NONE', ( #78, #284, #268, #262 ) ) ;
#4 = ORIENTED_EDGE ( 'NONE', *, *, #283, .T. ) ;
#5 = PERSON ( 'NEURÈENÝ', 'NEURÈENÝ', 'NEURÈENÝ', ('NEURÈENÝ'), ('NEURÈENÝ'), ('NEURÈENÝ') ) ;
#6 = FACE_OUTER_BOUND ( 'NONE', #51, .T. ) ;
#7 = AXIS2_PLACEMENT_3D ( 'NONE', #250, #11, #131 ) ;
#8 = EDGE_LOOP ( 'NONE', ( #72, #75, #47, #173 ) ) ;
#9 = DIRECTION ( 'NONE',  ( 0.000000000000000000, 0.000000000000000000, 1.000000000000000000 ) ) ;
#10 = CC_DESIGN_PERSON_AND_ORGANIZATION_ASSIGNMENT ( #140, #109, ( #271 ) ) ;
#11 = DIRECTION ( 'NONE',  ( 0.000000000000000000, 0.000000000000000000, 1.000000000000000000 ) ) ;
#12 = CIRCLE ( 'NONE', #113, 0.1999999999999996503 ) ;
#13 = CARTESIAN_POINT ( 'NONE',  ( 0.000000000000000000, 0.000000000000000000, 5.000000000000000000 ) ) ;
#14 = CARTESIAN_POINT ( 'NONE',  ( -5.250000000000000888, 0.000000000000000000, 5.200000000000009948 ) ) ;
#15 = CARTESIAN_POINT ( 'NONE',  ( 0.000000000000000000, 0.000000000000000000, 0.000000000000000000 ) ) ;
#16 = CALENDAR_DATE ( 2022, 20, 6 ) ;
#17 = CIRCLE ( 'NONE', #59, 8.000000000000000000 ) ;
#18 = EDGE_CURVE ( 'NONE', #119, #180, #190, .T. ) ;
#19 = APPLICATION_PROTOCOL_DEFINITION ( 'international standard', 'config_control_design', 1994, #53 ) ;
#20 = AXIS2_PLACEMENT_3D ( 'NONE', #15, #9, #274 ) ;
#21 = PRODUCT_DEFINITION_FORMATION_WITH_SPECIFIED_SOURCE ( 'LIBOVOLNÝ', '', #117, .NOT_KNOWN. ) ;
#22 = CALENDAR_DATE ( 2022, 20, 6 ) ;
#23 = EDGE_CURVE ( 'NONE', #28, #157, #12, .T. ) ;
#24 = ORIENTED_EDGE ( 'NONE', *, *, #36, .T. ) ;
#25 = ORIENTED_EDGE ( 'NONE', *, *, #18, .F. ) ;
#26 = CIRCLE ( 'NONE', #129, 5.250000000000000888 ) ;
#27 = DATE_AND_TIME ( #121, #77 ) ;
#28 = VERTEX_POINT ( 'NONE', #98 ) ;
#29 = CARTESIAN_POINT ( 'NONE',  ( 8.000000000000000000, 9.797174393178825657E-16, 5.000000000000000000 ) ) ;
#30 = DESIGN_CONTEXT ( 'detailed design', #53, 'design' ) ;
#31 = ORIENTED_EDGE ( 'NONE', *, *, #171, .F. ) ;
#32 = AXIS2_PLACEMENT_3D ( 'NONE', #269, #209, #297 ) ;
#33 = CARTESIAN_POINT ( 'NONE',  ( 8.000000000000000000, 9.797174393178825657E-16, 5.000000000000000000 ) ) ;
#34 = CYLINDRICAL_SURFACE ( 'NONE', #183, 5.250000000000000888 ) ;
#35 = DIRECTION ( 'NONE',  ( 0.000000000000000000, 0.000000000000000000, 1.000000000000000000 ) ) ;
#36 = EDGE_CURVE ( 'NONE', #287, #100, #17, .T. ) ;
#37 = CIRCLE ( 'NONE', #256, 5.250000000000000888 ) ;
#38 = DIRECTION ( 'NONE',  ( 1.000000000000000000, 0.000000000000000000, 0.000000000000000000 ) ) ;
#39 = DIRECTION ( 'NONE',  ( -0.000000000000000000, -0.000000000000000000, -1.000000000000000000 ) ) ;
#40 = DIRECTION ( 'NONE',  ( 1.000000000000000000, 0.000000000000000000, 0.000000000000000000 ) ) ;
#41 = DATE_AND_TIME ( #16, #71 ) ;
#42 = TOROIDAL_SURFACE ( 'NONE', #276, 5.450000000000001066, 0.2000000000000000111 ) ;
#43 = CC_DESIGN_APPROVAL ( #88, ( #114 ) ) ;
#44 = VERTEX_POINT ( 'NONE', #285 ) ;
#45 = LINE ( 'NONE', #278, #81 ) ;
#46 = AXIS2_PLACEMENT_3D ( 'NONE', #84, #253, #206 ) ;
#47 = ORIENTED_EDGE ( 'NONE', *, *, #171, .T. ) ;
#48 = CARTESIAN_POINT ( 'NONE',  ( 5.450000000000001066, 0.000000000000000000, 5.200000000000009948 ) ) ;
#49 = LINE ( 'NONE', #29, #288 ) ;
#50 = CC_DESIGN_APPROVAL ( #263, ( #21 ) ) ;
#51 = EDGE_LOOP ( 'NONE', ( #24, #70 ) ) ;
#52 = EDGE_LOOP ( 'NONE', ( #200, #4, #221, #31 ) ) ;
#53 = APPLICATION_CONTEXT ( 'configuration controlled 3d designs of mechanical parts and assemblies' ) ;
#54 = EDGE_CURVE ( 'NONE', #100, #44, #49, .T. ) ;
#55 = DIRECTION ( 'NONE',  ( 1.000000000000000000, 0.000000000000000000, 0.000000000000000000 ) ) ;
#56 = CARTESIAN_POINT ( 'NONE',  ( -5.250000000000000888, 0.000000000000000000, 205.0000000000000284 ) ) ;
#57 = CARTESIAN_POINT ( 'NONE',  ( -5.250000000000000888, 0.000000000000000000, 205.0000000000000284 ) ) ;
#58 = DIRECTION ( 'NONE',  ( 0.000000000000000000, 0.000000000000000000, 1.000000000000000000 ) ) ;
#59 = AXIS2_PLACEMENT_3D ( 'NONE', #242, #198, #266 ) ;
#60 = LINE ( 'NONE', #184, #294 ) ;
#61 = CARTESIAN_POINT ( 'NONE',  ( 0.000000000000000000, 0.000000000000000000, 5.200000000000009948 ) ) ;
#62 = ADVANCED_FACE ( 'NONE', ( #222, #6 ), #201, .T. ) ;
#63 = DIRECTION ( 'NONE',  ( 0.000000000000000000, 0.000000000000000000, 1.000000000000000000 ) ) ;
#64 = COORDINATED_UNIVERSAL_TIME_OFFSET ( 1, 0, .AHEAD. ) ;
#65 = AXIS2_PLACEMENT_3D ( 'NONE', #245, #58, #295 ) ;
#66 = LOCAL_TIME ( 11, 37, 29.00000000000000000, #124 ) ;
#67 = DIRECTION ( 'NONE',  ( 0.000000000000000000, 0.000000000000000000, 1.000000000000000000 ) ) ;
#68 = APPROVAL_STATUS ( 'not_yet_approved' ) ;
#69 = PERSON_AND_ORGANIZATION ( #5, #246 ) ;
#70 = ORIENTED_EDGE ( 'NONE', *, *, #106, .T. ) ;
#71 = LOCAL_TIME ( 11, 37, 29.00000000000000000, #233 ) ;
#72 = ORIENTED_EDGE ( 'NONE', *, *, #283, .F. ) ;
#73 = ORIENTED_EDGE ( 'NONE', *, *, #204, .T. ) ;
#74 = DATE_TIME_ROLE ( 'classification_date' ) ;
#75 = ORIENTED_EDGE ( 'NONE', *, *, #207, .F. ) ;
#76 = AXIS2_PLACEMENT_3D ( 'NONE', #181, #182, #102 ) ;
#77 = LOCAL_TIME ( 11, 37, 29.00000000000000000, #149 ) ;
#78 = ORIENTED_EDGE ( 'NONE', *, *, #54, .F. ) ;
#79 = ADVANCED_FACE ( 'NONE', ( #159 ), #164, .F. ) ;
#80 = CARTESIAN_POINT ( 'NONE',  ( 0.000000000000000000, 0.000000000000000000, 205.0000000000000284 ) ) ;
#81 = VECTOR ( 'NONE', #112, 1000.000000000000000 ) ;
#82 = PRODUCT_RELATED_PRODUCT_CATEGORY ( 'detail', '', ( #117 ) ) ;
#83 = DIRECTION ( 'NONE',  ( 1.000000000000000000, 0.000000000000000000, 0.000000000000000000 ) ) ;
#84 = CARTESIAN_POINT ( 'NONE',  ( 0.000000000000000000, 0.000000000000000000, 5.000000000000000000 ) ) ;
#85 = CARTESIAN_POINT ( 'NONE',  ( 5.250000000000000888, 6.429395695523605139E-16, 205.0000000000000284 ) ) ;
#86 = CIRCLE ( 'NONE', #76, 5.250000000000000888 ) ;
#87 = CARTESIAN_POINT ( 'NONE',  ( -8.000000000000000000, 0.000000000000000000, 5.000000000000000000 ) ) ;
#88 = APPROVAL ( #116, 'NEURÈENÝ' ) ;
#89 = DATE_AND_TIME ( #211, #108 ) ;
#90 = APPLICATION_PROTOCOL_DEFINITION ( 'international standard', 'config_control_design', 1994, #143 ) ;
#91 =( NAMED_UNIT ( * ) SI_UNIT ( $, .STERADIAN. ) SOLID_ANGLE_UNIT ( ) );
#92 = ADVANCED_FACE ( 'NONE', ( #291 ), #195, .F. ) ;
#93 = COORDINATED_UNIVERSAL_TIME_OFFSET ( 1, 0, .AHEAD. ) ;
#94 = ORIENTED_EDGE ( 'NONE', *, *, #228, .F. ) ;
#95 = AXIS2_PLACEMENT_3D ( 'NONE', #227, #293, #38 ) ;
#96 = APPROVAL_ROLE ( '' ) ;
#97 = DIRECTION ( 'NONE',  ( 0.000000000000000000, -1.000000000000000000, 0.000000000000000000 ) ) ;
#98 = CARTESIAN_POINT ( 'NONE',  ( 5.250000000000000888, 6.429395695523605139E-16, 5.200000000000009948 ) ) ;
#99 = ORIENTED_EDGE ( 'NONE', *, *, #207, .T. ) ;
#100 = VERTEX_POINT ( 'NONE', #33 ) ;
#101 = DIRECTION ( 'NONE',  ( 1.000000000000000000, 0.000000000000000000, -0.000000000000000000 ) ) ;
#102 = DIRECTION ( 'NONE',  ( 1.000000000000000000, 0.000000000000000000, 0.000000000000000000 ) ) ;
#103 = AXIS2_PLACEMENT_3D ( 'NONE', #302, #110, #215 ) ;
#104 = CYLINDRICAL_SURFACE ( 'NONE', #251, 8.000000000000000000 ) ;
#105 = PLANE ( 'NONE',  #270 ) ;
#106 = EDGE_CURVE ( 'NONE', #100, #287, #167, .T. ) ;
#107 = UNCERTAINTY_MEASURE_WITH_UNIT (LENGTH_MEASURE( 1.000000000000000082E-05 ), #300, 'distance_accuracy_value', 'NONE');
#108 = LOCAL_TIME ( 11, 37, 29.00000000000000000, #64 ) ;
#109 = PERSON_AND_ORGANIZATION_ROLE ( 'creator' ) ;
#110 = DIRECTION ( 'NONE',  ( -0.000000000000000000, -0.000000000000000000, -1.000000000000000000 ) ) ;
#111 = CYLINDRICAL_SURFACE ( 'NONE', #103, 8.000000000000000000 ) ;
#112 = DIRECTION ( 'NONE',  ( -0.000000000000000000, -0.000000000000000000, -1.000000000000000000 ) ) ;
#113 = AXIS2_PLACEMENT_3D ( 'NONE', #48, #97, #236 ) ;
#114 = SECURITY_CLASSIFICATION ( '', '', #199 ) ;
#115 = ORIENTED_EDGE ( 'NONE', *, *, #225, .F. ) ;
#116 = APPROVAL_STATUS ( 'not_yet_approved' ) ;
#117 = PRODUCT ( 'ed7a', 'ed7a', '', ( #192 ) ) ;
#118 = PERSON_AND_ORGANIZATION_ROLE ( 'classification_officer' ) ;
#119 = VERTEX_POINT ( 'NONE', #14 ) ;
#120 = EDGE_CURVE ( 'NONE', #157, #180, #304, .T. ) ;
#121 = CALENDAR_DATE ( 2022, 20, 6 ) ;
#122 = ORIENTED_EDGE ( 'NONE', *, *, #237, .F. ) ;
#123 = CLOSED_SHELL ( 'NONE', ( #254, #193, #292, #248, #62, #79, #243, #197, #92 ) ) ;
#124 = COORDINATED_UNIVERSAL_TIME_OFFSET ( 1, 0, .AHEAD. ) ;
#125 = ORIENTED_EDGE ( 'NONE', *, *, #120, .T. ) ;
#126 = PRODUCT_DEFINITION_SHAPE ( 'NONE', 'NONE',  #271 ) ;
#127 = EDGE_LOOP ( 'NONE', ( #175, #151, #128, #94 ) ) ;
#128 = ORIENTED_EDGE ( 'NONE', *, *, #237, .T. ) ;
#129 = AXIS2_PLACEMENT_3D ( 'NONE', #257, #189, #234 ) ;
#130 = CC_DESIGN_APPROVAL ( #150, ( #271 ) ) ;
#131 = DIRECTION ( 'NONE',  ( 1.000000000000000000, 0.000000000000000000, 0.000000000000000000 ) ) ;
#132 = CC_DESIGN_PERSON_AND_ORGANIZATION_ASSIGNMENT ( #139, #169, ( #117 ) ) ;
#133 = CARTESIAN_POINT ( 'NONE',  ( 0.000000000000000000, 0.000000000000000000, 205.0000000000000284 ) ) ;
#134 = FACE_OUTER_BOUND ( 'NONE', #244, .T. ) ;
#135 = AXIS2_PLACEMENT_3D ( 'NONE', #163, #138, #203 ) ;
#136 = DIRECTION ( 'NONE',  ( -0.000000000000000000, -0.000000000000000000, -1.000000000000000000 ) ) ;
#137 = CC_DESIGN_PERSON_AND_ORGANIZATION_ASSIGNMENT ( #238, #217, ( #21 ) ) ;
#138 = DIRECTION ( 'NONE',  ( -0.000000000000000000, -0.000000000000000000, -1.000000000000000000 ) ) ;
#139 = PERSON_AND_ORGANIZATION ( #5, #246 ) ;
#140 = PERSON_AND_ORGANIZATION ( #5, #246 ) ;
#141 = CC_DESIGN_PERSON_AND_ORGANIZATION_ASSIGNMENT ( #152, #118, ( #114 ) ) ;
#142 = PERSON_AND_ORGANIZATION ( #5, #246 ) ;
#143 = APPLICATION_CONTEXT ( 'configuration controlled 3d designs of mechanical parts and assemblies' ) ;
#144 = DIRECTION ( 'NONE',  ( 1.000000000000000000, 0.000000000000000000, 0.000000000000000000 ) ) ;
#145 = EDGE_LOOP ( 'NONE', ( #125, #73 ) ) ;
#146 = FACE_OUTER_BOUND ( 'NONE', #127, .T. ) ;
#147 = AXIS2_PLACEMENT_3D ( 'NONE', #61, #63, #165 ) ;
#148 = AXIS2_PLACEMENT_3D ( 'NONE', #213, #67, #144 ) ;
#149 = COORDINATED_UNIVERSAL_TIME_OFFSET ( 1, 0, .AHEAD. ) ;
#150 = APPROVAL ( #68, 'NEURÈENÝ' ) ;
#151 = ORIENTED_EDGE ( 'NONE', *, *, #54, .T. ) ;
#152 = PERSON_AND_ORGANIZATION ( #5, #246 ) ;
#153 = ORIENTED_EDGE ( 'NONE', *, *, #23, .F. ) ;
#154 = DIRECTION ( 'NONE',  ( -0.000000000000000000, -0.000000000000000000, -1.000000000000000000 ) ) ;
#155 =( GEOMETRIC_REPRESENTATION_CONTEXT ( 3 ) GLOBAL_UNCERTAINTY_ASSIGNED_CONTEXT ( ( #107 ) ) GLOBAL_UNIT_ASSIGNED_CONTEXT ( ( #300, #299, #91 ) ) REPRESENTATION_CONTEXT ( 'NONE', 'WORKASPACE' ) );
#156 = CALENDAR_DATE ( 2022, 20, 6 ) ;
#157 = VERTEX_POINT ( 'NONE', #273 ) ;
#158 = CARTESIAN_POINT ( 'NONE',  ( -5.450000000000001066, 6.674325055353076224E-16, 5.200000000000009948 ) ) ;
#159 = FACE_OUTER_BOUND ( 'NONE', #290, .T. ) ;
#160 = AXIS2_PLACEMENT_3D ( 'NONE', #13, #275, #55 ) ;
#161 = CARTESIAN_POINT ( 'NONE',  ( 0.000000000000000000, 0.000000000000000000, 205.0000000000000284 ) ) ;
#162 = CARTESIAN_POINT ( 'NONE',  ( 0.000000000000000000, 0.000000000000000000, 5.200000000000009948 ) ) ;
#163 = CARTESIAN_POINT ( 'NONE',  ( 0.000000000000000000, 0.000000000000000000, 5.000000000000000000 ) ) ;
#164 = PLANE ( 'NONE',  #20 ) ;
#165 = DIRECTION ( 'NONE',  ( 1.000000000000000000, 0.000000000000000000, 0.000000000000000000 ) ) ;
#166 = EDGE_CURVE ( 'NONE', #281, #44, #223, .T. ) ;
#167 = CIRCLE ( 'NONE', #46, 8.000000000000000000 ) ;
#168 = PERSON_AND_ORGANIZATION ( #5, #246 ) ;
#169 = PERSON_AND_ORGANIZATION_ROLE ( 'design_owner' ) ;
#170 = APPROVAL_DATE_TIME ( #41, #150 ) ;
#171 = EDGE_CURVE ( 'NONE', #239, #119, #205, .T. ) ;
#172 = SHAPE_DEFINITION_REPRESENTATION ( #126, #307 ) ;
#173 = ORIENTED_EDGE ( 'NONE', *, *, #225, .T. ) ;
#174 = ORIENTED_EDGE ( 'NONE', *, *, #18, .T. ) ;
#175 = ORIENTED_EDGE ( 'NONE', *, *, #106, .F. ) ;
#176 = DATE_AND_TIME ( #156, #66 ) ;
#177 = ORIENTED_EDGE ( 'NONE', *, *, #306, .T. ) ;
#178 = AXIS2_PLACEMENT_3D ( 'NONE', #80, #39, #296 ) ;
#179 = APPROVAL_PERSON_ORGANIZATION ( #261, #88, #96 ) ;
#180 = VERTEX_POINT ( 'NONE', #231 ) ;
#181 = CARTESIAN_POINT ( 'NONE',  ( 0.000000000000000000, 0.000000000000000000, 205.0000000000000284 ) ) ;
#182 = DIRECTION ( 'NONE',  ( 0.000000000000000000, 0.000000000000000000, 1.000000000000000000 ) ) ;
#183 = AXIS2_PLACEMENT_3D ( 'NONE', #133, #186, #249 ) ;
#184 = CARTESIAN_POINT ( 'NONE',  ( -8.000000000000000000, 0.000000000000000000, 5.000000000000000000 ) ) ;
#185 = DIRECTION ( 'NONE',  ( 0.000000000000000000, 0.000000000000000000, 1.000000000000000000 ) ) ;
#186 = DIRECTION ( 'NONE',  ( -0.000000000000000000, -0.000000000000000000, -1.000000000000000000 ) ) ;
#187 = AXIS2_PLACEMENT_3D ( 'NONE', #158, #196, #264 ) ;
#188 = DIRECTION ( 'NONE',  ( -0.000000000000000000, -0.000000000000000000, -1.000000000000000000 ) ) ;
#189 = DIRECTION ( 'NONE',  ( 0.000000000000000000, 0.000000000000000000, 1.000000000000000000 ) ) ;
#190 = CIRCLE ( 'NONE', #187, 0.1999999999999996503 ) ;
#191 = DIRECTION ( 'NONE',  ( 0.000000000000000000, 0.000000000000000000, 1.000000000000000000 ) ) ;
#192 = MECHANICAL_CONTEXT ( 'NONE', #143, 'mechanical' ) ;
#193 = ADVANCED_FACE ( 'NONE', ( #230 ), #226, .T. ) ;
#194 = APPROVAL_STATUS ( 'not_yet_approved' ) ;
#195 = TOROIDAL_SURFACE ( 'NONE', #95, 5.450000000000001066, 0.2000000000000000111 ) ;
#196 = DIRECTION ( 'NONE',  ( 1.224646799147353207E-16, 1.000000000000000000, -0.000000000000000000 ) ) ;
#197 = ADVANCED_FACE ( 'NONE', ( #134 ), #105, .T. ) ;
#198 = DIRECTION ( 'NONE',  ( 0.000000000000000000, 0.000000000000000000, 1.000000000000000000 ) ) ;
#199 = SECURITY_CLASSIFICATION_LEVEL ( 'unclassified' ) ;
#200 = ORIENTED_EDGE ( 'NONE', *, *, #306, .F. ) ;
#201 = PLANE ( 'NONE',  #65 ) ;
#202 = VECTOR ( 'NONE', #136, 1000.000000000000000 ) ;
#203 = DIRECTION ( 'NONE',  ( 1.000000000000000000, 0.000000000000000000, 0.000000000000000000 ) ) ;
#204 = EDGE_CURVE ( 'NONE', #180, #157, #240, .T. ) ;
#205 = LINE ( 'NONE', #57, #202 ) ;
#206 = DIRECTION ( 'NONE',  ( 1.000000000000000000, 0.000000000000000000, 0.000000000000000000 ) ) ;
#207 = EDGE_CURVE ( 'NONE', #239, #241, #86, .T. ) ;
#208 = CARTESIAN_POINT ( 'NONE',  ( 0.000000000000000000, 0.000000000000000000, 5.000000000000000000 ) ) ;
#209 = DIRECTION ( 'NONE',  ( 0.000000000000000000, 0.000000000000000000, 1.000000000000000000 ) ) ;
#210 = DIRECTION ( 'NONE',  ( -1.000000000000000000, 0.000000000000000000, 0.000000000000000000 ) ) ;
#211 = CALENDAR_DATE ( 2022, 20, 6 ) ;
#212 = CC_DESIGN_PERSON_AND_ORGANIZATION_ASSIGNMENT ( #69, #265, ( #21 ) ) ;
#213 = CARTESIAN_POINT ( 'NONE',  ( 0.000000000000000000, 0.000000000000000000, 0.000000000000000000 ) ) ;
#214 = LOCAL_TIME ( 11, 37, 29.00000000000000000, #93 ) ;
#215 = DIRECTION ( 'NONE',  ( -1.000000000000000000, 0.000000000000000000, 0.000000000000000000 ) ) ;
#216 = APPROVAL_DATE_TIME ( #176, #88 ) ;
#217 = PERSON_AND_ORGANIZATION_ROLE ( 'design_supplier' ) ;
#218 = ORIENTED_EDGE ( 'NONE', *, *, #204, .F. ) ;
#219 = CIRCLE ( 'NONE', #32, 8.000000000000000000 ) ;
#220 = EDGE_LOOP ( 'NONE', ( #115, #174, #267, #153 ) ) ;
#221 = ORIENTED_EDGE ( 'NONE', *, *, #301, .T. ) ;
#222 = FACE_BOUND ( 'NONE', #145, .T. ) ;
#223 = CIRCLE ( 'NONE', #7, 8.000000000000000000 ) ;
#224 = EDGE_LOOP ( 'NONE', ( #25, #258, #2, #218 ) ) ;
#225 = EDGE_CURVE ( 'NONE', #119, #28, #37, .T. ) ;
#226 = CYLINDRICAL_SURFACE ( 'NONE', #178, 5.250000000000000888 ) ;
#227 = CARTESIAN_POINT ( 'NONE',  ( 0.000000000000000000, 0.000000000000000000, 5.200000000000009948 ) ) ;
#228 = EDGE_CURVE ( 'NONE', #287, #281, #60, .T. ) ;
#229 = FACE_OUTER_BOUND ( 'NONE', #3, .T. ) ;
#230 = FACE_OUTER_BOUND ( 'NONE', #52, .T. ) ;
#231 = CARTESIAN_POINT ( 'NONE',  ( -5.450000000000001066, 6.674325055353076224E-16, 5.000000000000005329 ) ) ;
#232 = MANIFOLD_SOLID_BREP ( 'Zaoblit1', #123 ) ;
#233 = COORDINATED_UNIVERSAL_TIME_OFFSET ( 1, 0, .AHEAD. ) ;
#234 = DIRECTION ( 'NONE',  ( 1.000000000000000000, 0.000000000000000000, 0.000000000000000000 ) ) ;
#235 = FACE_OUTER_BOUND ( 'NONE', #220, .T. ) ;
#236 = DIRECTION ( 'NONE',  ( 0.000000000000000000, 0.000000000000000000, -1.000000000000000000 ) ) ;
#237 = EDGE_CURVE ( 'NONE', #44, #281, #219, .T. ) ;
#238 = PERSON_AND_ORGANIZATION ( #5, #246 ) ;
#239 = VERTEX_POINT ( 'NONE', #56 ) ;
#240 = CIRCLE ( 'NONE', #135, 5.450000000000001066 ) ;
#241 = VERTEX_POINT ( 'NONE', #85 ) ;
#242 = CARTESIAN_POINT ( 'NONE',  ( 0.000000000000000000, 0.000000000000000000, 5.000000000000000000 ) ) ;
#243 = ADVANCED_FACE ( 'NONE', ( #247 ), #34, .T. ) ;
#244 = EDGE_LOOP ( 'NONE', ( #99, #177 ) ) ;
#245 = CARTESIAN_POINT ( 'NONE',  ( 0.000000000000000000, 0.000000000000000000, 5.000000000000000000 ) ) ;
#246 = ORGANIZATION ( 'NEURÈENÝ', 'NEURÈENÝ', '' ) ;
#247 = FACE_OUTER_BOUND ( 'NONE', #8, .T. ) ;
#248 = ADVANCED_FACE ( 'NONE', ( #229 ), #104, .T. ) ;
#249 = DIRECTION ( 'NONE',  ( -1.000000000000000000, 0.000000000000000000, 0.000000000000000000 ) ) ;
#250 = CARTESIAN_POINT ( 'NONE',  ( 0.000000000000000000, 0.000000000000000000, 0.000000000000000000 ) ) ;
#251 = AXIS2_PLACEMENT_3D ( 'NONE', #208, #188, #210 ) ;
#252 = APPROVAL_PERSON_ORGANIZATION ( #168, #263, #1 ) ;
#253 = DIRECTION ( 'NONE',  ( 0.000000000000000000, 0.000000000000000000, 1.000000000000000000 ) ) ;
#254 = ADVANCED_FACE ( 'NONE', ( #235 ), #42, .F. ) ;
#255 = APPROVAL_ROLE ( '' ) ;
#256 = AXIS2_PLACEMENT_3D ( 'NONE', #162, #35, #83 ) ;
#257 = CARTESIAN_POINT ( 'NONE',  ( 0.000000000000000000, 0.000000000000000000, 205.0000000000000284 ) ) ;
#258 = ORIENTED_EDGE ( 'NONE', *, *, #301, .F. ) ;
#259 = CARTESIAN_POINT ( 'NONE',  ( 0.000000000000000000, 0.000000000000000000, 5.200000000000009948 ) ) ;
#260 = CIRCLE ( 'NONE', #147, 5.250000000000000888 ) ;
#261 = PERSON_AND_ORGANIZATION ( #5, #246 ) ;
#262 = ORIENTED_EDGE ( 'NONE', *, *, #166, .T. ) ;
#263 = APPROVAL ( #194, 'NEURÈENÝ' ) ;
#264 = DIRECTION ( 'NONE',  ( -1.000000000000000000, 1.224646799147353454E-16, 0.000000000000000000 ) ) ;
#265 = PERSON_AND_ORGANIZATION_ROLE ( 'creator' ) ;
#266 = DIRECTION ( 'NONE',  ( 1.000000000000000000, 0.000000000000000000, 0.000000000000000000 ) ) ;
#267 = ORIENTED_EDGE ( 'NONE', *, *, #120, .F. ) ;
#268 = ORIENTED_EDGE ( 'NONE', *, *, #228, .T. ) ;
#269 = CARTESIAN_POINT ( 'NONE',  ( 0.000000000000000000, 0.000000000000000000, 0.000000000000000000 ) ) ;
#270 = AXIS2_PLACEMENT_3D ( 'NONE', #161, #185, #101 ) ;
#271 = PRODUCT_DEFINITION ( 'NEZNÁMÝ', '', #21, #30 ) ;
#272 = DIRECTION ( 'NONE',  ( -0.000000000000000000, -0.000000000000000000, -1.000000000000000000 ) ) ;
#273 = CARTESIAN_POINT ( 'NONE',  ( 5.450000000000001066, 0.000000000000000000, 5.000000000000005329 ) ) ;
#274 = DIRECTION ( 'NONE',  ( 1.000000000000000000, 0.000000000000000000, -0.000000000000000000 ) ) ;
#275 = DIRECTION ( 'NONE',  ( -0.000000000000000000, -0.000000000000000000, -1.000000000000000000 ) ) ;
#276 = AXIS2_PLACEMENT_3D ( 'NONE', #259, #191, #40 ) ;
#277 = CC_DESIGN_DATE_AND_TIME_ASSIGNMENT ( #305, #74, ( #114 ) ) ;
#278 = CARTESIAN_POINT ( 'NONE',  ( 5.250000000000000888, 6.429395695523605139E-16, 205.0000000000000284 ) ) ;
#279 = DATE_TIME_ROLE ( 'creation_date' ) ;
#280 = CARTESIAN_POINT ( 'NONE',  ( -8.000000000000000000, 0.000000000000000000, 0.000000000000000000 ) ) ;
#281 = VERTEX_POINT ( 'NONE', #280 ) ;
#282 = CC_DESIGN_SECURITY_CLASSIFICATION ( #114, ( #21 ) ) ;
#283 = EDGE_CURVE ( 'NONE', #241, #28, #45, .T. ) ;
#284 = ORIENTED_EDGE ( 'NONE', *, *, #36, .F. ) ;
#285 = CARTESIAN_POINT ( 'NONE',  ( 8.000000000000000000, 9.797174393178825657E-16, 0.000000000000000000 ) ) ;
#286 = APPROVAL_DATE_TIME ( #27, #263 ) ;
#287 = VERTEX_POINT ( 'NONE', #87 ) ;
#288 = VECTOR ( 'NONE', #154, 1000.000000000000000 ) ;
#289 = APPROVAL_PERSON_ORGANIZATION ( #142, #150, #255 ) ;
#290 = EDGE_LOOP ( 'NONE', ( #303, #122 ) ) ;
#291 = FACE_OUTER_BOUND ( 'NONE', #224, .T. ) ;
#292 = ADVANCED_FACE ( 'NONE', ( #146 ), #111, .T. ) ;
#293 = DIRECTION ( 'NONE',  ( 0.000000000000000000, 0.000000000000000000, 1.000000000000000000 ) ) ;
#294 = VECTOR ( 'NONE', #272, 1000.000000000000000 ) ;
#295 = DIRECTION ( 'NONE',  ( 1.000000000000000000, 0.000000000000000000, -0.000000000000000000 ) ) ;
#296 = DIRECTION ( 'NONE',  ( -1.000000000000000000, 0.000000000000000000, 0.000000000000000000 ) ) ;
#297 = DIRECTION ( 'NONE',  ( 1.000000000000000000, 0.000000000000000000, 0.000000000000000000 ) ) ;
#298 = CC_DESIGN_DATE_AND_TIME_ASSIGNMENT ( #89, #279, ( #271 ) ) ;
#299 =( NAMED_UNIT ( * ) PLANE_ANGLE_UNIT ( ) SI_UNIT ( $, .RADIAN. ) );
#300 =( LENGTH_UNIT ( ) NAMED_UNIT ( * ) SI_UNIT ( .MILLI., .METRE. ) );
#301 = EDGE_CURVE ( 'NONE', #28, #119, #260, .T. ) ;
#302 = CARTESIAN_POINT ( 'NONE',  ( 0.000000000000000000, 0.000000000000000000, 5.000000000000000000 ) ) ;
#303 = ORIENTED_EDGE ( 'NONE', *, *, #166, .F. ) ;
#304 = CIRCLE ( 'NONE', #160, 5.450000000000001066 ) ;
#305 = DATE_AND_TIME ( #22, #214 ) ;
#306 = EDGE_CURVE ( 'NONE', #241, #239, #26, .T. ) ;
#307 = ADVANCED_BREP_SHAPE_REPRESENTATION ( 'ed7a', ( #232, #148 ), #155 ) ;
ENDSEC;
END-ISO-10303-21;
