ISO-10303-21;
HEADER;
FILE_DESCRIPTION (( 'STEP AP203' ),
    '1' );
FILE_NAME ('b54f.STEP',
    '2022-06-20T10:04:58',
    ( '' ),
    ( '' ),
    'SwSTEP 2.0',
    'SolidWorks 2019',
    '' );
FILE_SCHEMA (( 'CONFIG_CONTROL_DESIGN' ));
ENDSEC;

DATA;
#1 = CARTESIAN_POINT ( 'NONE',  ( 4.000000000000000000, 4.898587196589412829E-16, 3.000000000000000000 ) ) ;
#2 = APPROVAL_ROLE ( '' ) ;
#3 = SECURITY_CLASSIFICATION_LEVEL ( 'unclassified' ) ;
#4 = AXIS2_PLACEMENT_3D ( 'NONE', #275, #109, #281 ) ;
#5 = APPROVAL_DATE_TIME ( #149, #48 ) ;
#6 = EDGE_CURVE ( 'NONE', #17, #42, #75, .T. ) ;
#7 = COORDINATED_UNIVERSAL_TIME_OFFSET ( 1, 0, .AHEAD. ) ;
#8 = APPROVAL_DATE_TIME ( #128, #92 ) ;
#9 = EDGE_CURVE ( 'NONE', #302, #118, #178, .T. ) ;
#10 = CIRCLE ( 'NONE', #33, 2.250000000000000000 ) ;
#11 = DIRECTION ( 'NONE',  ( 0.000000000000000000, 0.000000000000000000, 1.000000000000000000 ) ) ;
#12 = CARTESIAN_POINT ( 'NONE',  ( 4.000000000000000000, 4.898587196589412829E-16, 3.000000000000000000 ) ) ;
#13 = CARTESIAN_POINT ( 'NONE',  ( 0.000000000000000000, 0.000000000000000000, 3.000000000000000000 ) ) ;
#14 = CARTESIAN_POINT ( 'NONE',  ( -4.000000000000000000, 0.000000000000000000, 3.000000000000000000 ) ) ;
#15 = ORIENTED_EDGE ( 'NONE', *, *, #250, .T. ) ;
#16 = FACE_OUTER_BOUND ( 'NONE', #180, .T. ) ;
#17 = VERTEX_POINT ( 'NONE', #294 ) ;
#18 = DIRECTION ( 'NONE',  ( -0.000000000000000000, -0.000000000000000000, -1.000000000000000000 ) ) ;
#19 = EDGE_CURVE ( 'NONE', #279, #296, #111, .T. ) ;
#20 = ORIENTED_EDGE ( 'NONE', *, *, #6, .F. ) ;
#21 = DIRECTION ( 'NONE',  ( 1.000000000000000000, 0.000000000000000000, 0.000000000000000000 ) ) ;
#22 = DIRECTION ( 'NONE',  ( 1.000000000000000000, 0.000000000000000000, 0.000000000000000000 ) ) ;
#23 = DIRECTION ( 'NONE',  ( 0.000000000000000000, 0.000000000000000000, 1.000000000000000000 ) ) ;
#24 = DIRECTION ( 'NONE',  ( 1.000000000000000000, 0.000000000000000000, -0.000000000000000000 ) ) ;
#25 = EDGE_CURVE ( 'NONE', #296, #42, #39, .T. ) ;
#26 = DATE_AND_TIME ( #291, #107 ) ;
#27 = EDGE_CURVE ( 'NONE', #139, #183, #262, .T. ) ;
#28 = CALENDAR_DATE ( 2022, 20, 6 ) ;
#29 = LOCAL_TIME ( 12, 4, 58.00000000000000000, #104 ) ;
#30 = ORIENTED_EDGE ( 'NONE', *, *, #19, .F. ) ;
#31 = DIRECTION ( 'NONE',  ( 1.000000000000000000, 0.000000000000000000, 0.000000000000000000 ) ) ;
#32 = CARTESIAN_POINT ( 'NONE',  ( 0.000000000000000000, 0.000000000000000000, 503.0000000000000000 ) ) ;
#33 = AXIS2_PLACEMENT_3D ( 'NONE', #32, #195, #179 ) ;
#34 = CC_DESIGN_SECURITY_CLASSIFICATION ( #207, ( #76 ) ) ;
#35 = CYLINDRICAL_SURFACE ( 'NONE', #158, 2.250000000000000000 ) ;
#36 = CARTESIAN_POINT ( 'NONE',  ( 0.000000000000000000, 0.000000000000000000, 3.199999999999980638 ) ) ;
#37 = EDGE_CURVE ( 'NONE', #42, #296, #166, .T. ) ;
#38 = ORIENTED_EDGE ( 'NONE', *, *, #9, .F. ) ;
#39 = CIRCLE ( 'NONE', #103, 2.449999999999999734 ) ;
#40 = ORIENTED_EDGE ( 'NONE', *, *, #105, .T. ) ;
#41 = DIRECTION ( 'NONE',  ( 0.000000000000000000, 0.000000000000000000, -1.000000000000000000 ) ) ;
#42 = VERTEX_POINT ( 'NONE', #136 ) ;
#43 = CARTESIAN_POINT ( 'NONE',  ( -2.250000000000000000, 0.000000000000000000, 503.0000000000000000 ) ) ;
#44 = ORIENTED_EDGE ( 'NONE', *, *, #25, .T. ) ;
#45 = DIRECTION ( 'NONE',  ( 0.000000000000000000, 0.000000000000000000, 1.000000000000000000 ) ) ;
#46 = LINE ( 'NONE', #43, #153 ) ;
#47 = FACE_OUTER_BOUND ( 'NONE', #120, .T. ) ;
#48 = APPROVAL ( #102, 'NEURÈENÝ' ) ;
#49 = FACE_OUTER_BOUND ( 'NONE', #93, .T. ) ;
#50 = PERSON_AND_ORGANIZATION_ROLE ( 'creator' ) ;
#51 = CIRCLE ( 'NONE', #288, 4.000000000000000000 ) ;
#52 = PRODUCT_DEFINITION_SHAPE ( 'NONE', 'NONE',  #58 ) ;
#53 = SHAPE_DEFINITION_REPRESENTATION ( #52, #194 ) ;
#54 = PERSON_AND_ORGANIZATION_ROLE ( 'design_owner' ) ;
#55 = AXIS2_PLACEMENT_3D ( 'NONE', #181, #255, #138 ) ;
#56 = VECTOR ( 'NONE', #18, 1000.000000000000000 ) ;
#57 = AXIS2_PLACEMENT_3D ( 'NONE', #119, #97, #237 ) ;
#58 = PRODUCT_DEFINITION ( 'NEZNÁMÝ', '', #76, #96 ) ;
#59 = PERSON_AND_ORGANIZATION_ROLE ( 'classification_officer' ) ;
#60 = DIRECTION ( 'NONE',  ( 1.000000000000000000, 0.000000000000000000, 0.000000000000000000 ) ) ;
#61 =( GEOMETRIC_REPRESENTATION_CONTEXT ( 3 ) GLOBAL_UNCERTAINTY_ASSIGNED_CONTEXT ( ( #258 ) ) GLOBAL_UNIT_ASSIGNED_CONTEXT ( ( #185, #303, #165 ) ) REPRESENTATION_CONTEXT ( 'NONE', 'WORKASPACE' ) );
#62 = ORIENTED_EDGE ( 'NONE', *, *, #37, .T. ) ;
#63 = FACE_OUTER_BOUND ( 'NONE', #137, .T. ) ;
#64 = VERTEX_POINT ( 'NONE', #12 ) ;
#65 = FACE_BOUND ( 'NONE', #257, .T. ) ;
#66 = ORIENTED_EDGE ( 'NONE', *, *, #212, .F. ) ;
#67 = CYLINDRICAL_SURFACE ( 'NONE', #4, 4.000000000000000000 ) ;
#68 = CLOSED_SHELL ( 'NONE', ( #101, #150, #82, #307, #78, #280, #293, #245, #224 ) ) ;
#69 = ORIENTED_EDGE ( 'NONE', *, *, #25, .F. ) ;
#70 = AXIS2_PLACEMENT_3D ( 'NONE', #209, #45, #142 ) ;
#71 = CC_DESIGN_PERSON_AND_ORGANIZATION_ASSIGNMENT ( #129, #59, ( #207 ) ) ;
#72 = DIRECTION ( 'NONE',  ( 0.000000000000000000, 0.000000000000000000, 1.000000000000000000 ) ) ;
#73 = ORIENTED_EDGE ( 'NONE', *, *, #19, .T. ) ;
#74 = DIRECTION ( 'NONE',  ( 1.000000000000000000, 0.000000000000000000, -0.000000000000000000 ) ) ;
#75 = CIRCLE ( 'NONE', #147, 0.2000000000000000944 ) ;
#76 = PRODUCT_DEFINITION_FORMATION_WITH_SPECIFIED_SOURCE ( 'LIBOVOLNÝ', '', #241, .NOT_KNOWN. ) ;
#77 = CARTESIAN_POINT ( 'NONE',  ( -2.449999999999999734, 3.000384657911015370E-16, 2.999999999999990674 ) ) ;
#78 = ADVANCED_FACE ( 'NONE', ( #65, #151 ), #231, .T. ) ;
#79 = PERSON_AND_ORGANIZATION ( #246, #86 ) ;
#80 = AXIS2_PLACEMENT_3D ( 'NONE', #193, #222, #60 ) ;
#81 = COORDINATED_UNIVERSAL_TIME_OFFSET ( 1, 0, .AHEAD. ) ;
#82 = ADVANCED_FACE ( 'NONE', ( #16 ), #67, .T. ) ;
#83 = PERSON_AND_ORGANIZATION ( #246, #86 ) ;
#84 = COORDINATED_UNIVERSAL_TIME_OFFSET ( 1, 0, .AHEAD. ) ;
#85 = CALENDAR_DATE ( 2022, 20, 6 ) ;
#86 = ORGANIZATION ( 'NEURÈENÝ', 'NEURÈENÝ', '' ) ;
#87 = DIRECTION ( 'NONE',  ( 1.000000000000000000, 0.000000000000000000, -0.000000000000000000 ) ) ;
#88 = EDGE_CURVE ( 'NONE', #279, #17, #213, .T. ) ;
#89 = DIRECTION ( 'NONE',  ( 0.000000000000000000, 0.000000000000000000, 1.000000000000000000 ) ) ;
#90 = DIRECTION ( 'NONE',  ( -0.000000000000000000, -0.000000000000000000, -1.000000000000000000 ) ) ;
#91 = DIRECTION ( 'NONE',  ( 1.000000000000000000, 0.000000000000000000, 0.000000000000000000 ) ) ;
#92 = APPROVAL ( #269, 'NEURÈENÝ' ) ;
#93 = EDGE_LOOP ( 'NONE', ( #161, #156, #253, #135 ) ) ;
#94 = ORIENTED_EDGE ( 'NONE', *, *, #268, .F. ) ;
#95 = ORIENTED_EDGE ( 'NONE', *, *, #105, .F. ) ;
#96 = DESIGN_CONTEXT ( 'detailed design', #98, 'design' ) ;
#97 = DIRECTION ( 'NONE',  ( 0.000000000000000000, 0.000000000000000000, 1.000000000000000000 ) ) ;
#98 = APPLICATION_CONTEXT ( 'configuration controlled 3d designs of mechanical parts and assemblies' ) ;
#99 = LOCAL_TIME ( 12, 4, 58.00000000000000000, #7 ) ;
#100 = PLANE ( 'NONE',  #226 ) ;
#101 = ADVANCED_FACE ( 'NONE', ( #63 ), #171, .F. ) ;
#102 = APPROVAL_STATUS ( 'not_yet_approved' ) ;
#103 = AXIS2_PLACEMENT_3D ( 'NONE', #249, #297, #201 ) ;
#104 = COORDINATED_UNIVERSAL_TIME_OFFSET ( 1, 0, .AHEAD. ) ;
#105 = EDGE_CURVE ( 'NONE', #152, #118, #125, .T. ) ;
#106 = DATE_AND_TIME ( #85, #282 ) ;
#107 = LOCAL_TIME ( 12, 4, 58.00000000000000000, #81 ) ;
#108 = DIRECTION ( 'NONE',  ( -0.000000000000000000, -0.000000000000000000, -1.000000000000000000 ) ) ;
#109 = DIRECTION ( 'NONE',  ( -0.000000000000000000, -0.000000000000000000, -1.000000000000000000 ) ) ;
#110 = EDGE_LOOP ( 'NONE', ( #203, #230 ) ) ;
#111 = CIRCLE ( 'NONE', #55, 0.2000000000000000944 ) ;
#112 = CARTESIAN_POINT ( 'NONE',  ( 0.000000000000000000, 0.000000000000000000, 503.0000000000000000 ) ) ;
#113 = APPROVAL_PERSON_ORGANIZATION ( #83, #92, #2 ) ;
#114 = CC_DESIGN_APPROVAL ( #92, ( #76 ) ) ;
#115 = DIRECTION ( 'NONE',  ( 0.000000000000000000, -1.000000000000000000, 0.000000000000000000 ) ) ;
#116 = ORIENTED_EDGE ( 'NONE', *, *, #212, .T. ) ;
#117 = DIRECTION ( 'NONE',  ( -0.000000000000000000, -0.000000000000000000, -1.000000000000000000 ) ) ;
#118 = VERTEX_POINT ( 'NONE', #225 ) ;
#119 = CARTESIAN_POINT ( 'NONE',  ( 0.000000000000000000, 0.000000000000000000, 0.000000000000000000 ) ) ;
#120 = EDGE_LOOP ( 'NONE', ( #30, #132, #233, #69 ) ) ;
#121 = AXIS2_PLACEMENT_3D ( 'NONE', #263, #160, #21 ) ;
#122 = CC_DESIGN_PERSON_AND_ORGANIZATION_ASSIGNMENT ( #267, #54, ( #241 ) ) ;
#123 = PLANE ( 'NONE',  #163 ) ;
#124 = FACE_OUTER_BOUND ( 'NONE', #235, .T. ) ;
#125 = CIRCLE ( 'NONE', #148, 4.000000000000000000 ) ;
#126 = DIRECTION ( 'NONE',  ( 0.000000000000000000, 0.000000000000000000, 1.000000000000000000 ) ) ;
#127 = CC_DESIGN_PERSON_AND_ORGANIZATION_ASSIGNMENT ( #287, #266, ( #76 ) ) ;
#128 = DATE_AND_TIME ( #28, #228 ) ;
#129 = PERSON_AND_ORGANIZATION ( #246, #86 ) ;
#130 = APPROVAL_ROLE ( '' ) ;
#131 = EDGE_CURVE ( 'NONE', #183, #139, #10, .T. ) ;
#132 = ORIENTED_EDGE ( 'NONE', *, *, #250, .F. ) ;
#133 = ORIENTED_EDGE ( 'NONE', *, *, #175, .F. ) ;
#134 = DIRECTION ( 'NONE',  ( -1.000000000000000000, 0.000000000000000000, 0.000000000000000000 ) ) ;
#135 = ORIENTED_EDGE ( 'NONE', *, *, #88, .T. ) ;
#136 = CARTESIAN_POINT ( 'NONE',  ( 2.449999999999999734, 0.000000000000000000, 2.999999999999990674 ) ) ;
#137 = EDGE_LOOP ( 'NONE', ( #276, #73, #260, #20 ) ) ;
#138 = DIRECTION ( 'NONE',  ( -1.000000000000000000, 1.224646799147353207E-16, 0.000000000000000000 ) ) ;
#139 = VERTEX_POINT ( 'NONE', #295 ) ;
#140 = DIRECTION ( 'NONE',  ( -0.000000000000000000, -0.000000000000000000, -1.000000000000000000 ) ) ;
#141 = EDGE_LOOP ( 'NONE', ( #300, #208, #15, #159 ) ) ;
#142 = DIRECTION ( 'NONE',  ( 1.000000000000000000, 0.000000000000000000, 0.000000000000000000 ) ) ;
#143 = AXIS2_PLACEMENT_3D ( 'NONE', #36, #301, #157 ) ;
#144 = CARTESIAN_POINT ( 'NONE',  ( 0.000000000000000000, 0.000000000000000000, 503.0000000000000000 ) ) ;
#145 = CARTESIAN_POINT ( 'NONE',  ( 0.000000000000000000, 0.000000000000000000, 3.000000000000000000 ) ) ;
#146 = APPLICATION_PROTOCOL_DEFINITION ( 'international standard', 'config_control_design', 1994, #169 ) ;
#147 = AXIS2_PLACEMENT_3D ( 'NONE', #223, #115, #41 ) ;
#148 = AXIS2_PLACEMENT_3D ( 'NONE', #155, #199, #298 ) ;
#149 = DATE_AND_TIME ( #290, #99 ) ;
#150 = ADVANCED_FACE ( 'NONE', ( #154 ), #35, .T. ) ;
#151 = FACE_OUTER_BOUND ( 'NONE', #219, .T. ) ;
#152 = VERTEX_POINT ( 'NONE', #278 ) ;
#153 = VECTOR ( 'NONE', #140, 1000.000000000000000 ) ;
#154 = FACE_OUTER_BOUND ( 'NONE', #141, .T. ) ;
#155 = CARTESIAN_POINT ( 'NONE',  ( 0.000000000000000000, 0.000000000000000000, 0.000000000000000000 ) ) ;
#156 = ORIENTED_EDGE ( 'NONE', *, *, #27, .F. ) ;
#157 = DIRECTION ( 'NONE',  ( 1.000000000000000000, 0.000000000000000000, 0.000000000000000000 ) ) ;
#158 = AXIS2_PLACEMENT_3D ( 'NONE', #112, #117, #134 ) ;
#159 = ORIENTED_EDGE ( 'NONE', *, *, #304, .F. ) ;
#160 = DIRECTION ( 'NONE',  ( 0.000000000000000000, 0.000000000000000000, 1.000000000000000000 ) ) ;
#161 = ORIENTED_EDGE ( 'NONE', *, *, #188, .F. ) ;
#162 = DIRECTION ( 'NONE',  ( -0.000000000000000000, -0.000000000000000000, -1.000000000000000000 ) ) ;
#163 = AXIS2_PLACEMENT_3D ( 'NONE', #210, #126, #74 ) ;
#164 = DIRECTION ( 'NONE',  ( -0.000000000000000000, -0.000000000000000000, -1.000000000000000000 ) ) ;
#165 =( NAMED_UNIT ( * ) SI_UNIT ( $, .STERADIAN. ) SOLID_ANGLE_UNIT ( ) );
#166 = CIRCLE ( 'NONE', #274, 2.449999999999999734 ) ;
#167 = DATE_TIME_ROLE ( 'classification_date' ) ;
#168 = DIRECTION ( 'NONE',  ( 0.000000000000000000, 0.000000000000000000, 1.000000000000000000 ) ) ;
#169 = APPLICATION_CONTEXT ( 'configuration controlled 3d designs of mechanical parts and assemblies' ) ;
#170 = PERSON_AND_ORGANIZATION ( #246, #86 ) ;
#171 = TOROIDAL_SURFACE ( 'NONE', #254, 2.449999999999999734, 0.2000000000000000111 ) ;
#172 = AXIS2_PLACEMENT_3D ( 'NONE', #261, #164, #305 ) ;
#173 = APPROVAL_DATE_TIME ( #106, #272 ) ;
#174 = CIRCLE ( 'NONE', #182, 4.000000000000000000 ) ;
#175 = EDGE_CURVE ( 'NONE', #64, #302, #174, .T. ) ;
#176 = DIRECTION ( 'NONE',  ( 1.000000000000000000, 0.000000000000000000, 0.000000000000000000 ) ) ;
#177 = CC_DESIGN_APPROVAL ( #272, ( #207 ) ) ;
#178 = LINE ( 'NONE', #14, #204 ) ;
#179 = DIRECTION ( 'NONE',  ( 1.000000000000000000, 0.000000000000000000, 0.000000000000000000 ) ) ;
#180 = EDGE_LOOP ( 'NONE', ( #133, #200, #40, #38 ) ) ;
#181 = CARTESIAN_POINT ( 'NONE',  ( -2.449999999999999734, 3.000384657911015370E-16, 3.199999999999980638 ) ) ;
#182 = AXIS2_PLACEMENT_3D ( 'NONE', #251, #89, #176 ) ;
#183 = VERTEX_POINT ( 'NONE', #277 ) ;
#184 = APPROVAL_PERSON_ORGANIZATION ( #265, #272, #217 ) ;
#185 =( LENGTH_UNIT ( ) NAMED_UNIT ( * ) SI_UNIT ( .MILLI., .METRE. ) );
#186 = CARTESIAN_POINT ( 'NONE',  ( 0.000000000000000000, 0.000000000000000000, 503.0000000000000000 ) ) ;
#187 = DATE_AND_TIME ( #240, #29 ) ;
#188 = EDGE_CURVE ( 'NONE', #183, #17, #198, .T. ) ;
#189 = PERSON_AND_ORGANIZATION ( #246, #86 ) ;
#190 = MECHANICAL_CONTEXT ( 'NONE', #169, 'mechanical' ) ;
#191 = CC_DESIGN_DATE_AND_TIME_ASSIGNMENT ( #187, #289, ( #58 ) ) ;
#192 = ORIENTED_EDGE ( 'NONE', *, *, #268, .T. ) ;
#193 = CARTESIAN_POINT ( 'NONE',  ( 0.000000000000000000, 0.000000000000000000, 503.0000000000000000 ) ) ;
#194 = ADVANCED_BREP_SHAPE_REPRESENTATION ( 'b54f', ( #215, #197 ), #61 ) ;
#195 = DIRECTION ( 'NONE',  ( 0.000000000000000000, 0.000000000000000000, 1.000000000000000000 ) ) ;
#196 = ORIENTED_EDGE ( 'NONE', *, *, #232, .F. ) ;
#197 = AXIS2_PLACEMENT_3D ( 'NONE', #239, #168, #31 ) ;
#198 = LINE ( 'NONE', #284, #56 ) ;
#199 = DIRECTION ( 'NONE',  ( 0.000000000000000000, 0.000000000000000000, 1.000000000000000000 ) ) ;
#200 = ORIENTED_EDGE ( 'NONE', *, *, #232, .T. ) ;
#201 = DIRECTION ( 'NONE',  ( 1.000000000000000000, 0.000000000000000000, 0.000000000000000000 ) ) ;
#202 = CC_DESIGN_DATE_AND_TIME_ASSIGNMENT ( #26, #167, ( #207 ) ) ;
#203 = ORIENTED_EDGE ( 'NONE', *, *, #27, .T. ) ;
#204 = VECTOR ( 'NONE', #108, 1000.000000000000000 ) ;
#205 = DIRECTION ( 'NONE',  ( -1.000000000000000000, 0.000000000000000000, 0.000000000000000000 ) ) ;
#206 = CIRCLE ( 'NONE', #121, 2.250000000000000000 ) ;
#207 = SECURITY_CLASSIFICATION ( '', '', #3 ) ;
#208 = ORIENTED_EDGE ( 'NONE', *, *, #188, .T. ) ;
#209 = CARTESIAN_POINT ( 'NONE',  ( 0.000000000000000000, 0.000000000000000000, 3.199999999999980638 ) ) ;
#210 = CARTESIAN_POINT ( 'NONE',  ( 0.000000000000000000, 0.000000000000000000, 0.000000000000000000 ) ) ;
#211 = CYLINDRICAL_SURFACE ( 'NONE', #172, 4.000000000000000000 ) ;
#212 = EDGE_CURVE ( 'NONE', #118, #152, #229, .T. ) ;
#213 = CIRCLE ( 'NONE', #143, 2.250000000000000000 ) ;
#214 = DIRECTION ( 'NONE',  ( -0.000000000000000000, -0.000000000000000000, -1.000000000000000000 ) ) ;
#215 = MANIFOLD_SOLID_BREP ( 'Zaoblit1', #68 ) ;
#216 = PERSON_AND_ORGANIZATION_ROLE ( 'creator' ) ;
#217 = APPROVAL_ROLE ( '' ) ;
#218 = COORDINATED_UNIVERSAL_TIME_OFFSET ( 1, 0, .AHEAD. ) ;
#219 = EDGE_LOOP ( 'NONE', ( #192, #271 ) ) ;
#220 = PRODUCT_RELATED_PRODUCT_CATEGORY ( 'detail', '', ( #241 ) ) ;
#221 = VECTOR ( 'NONE', #214, 1000.000000000000000 ) ;
#222 = DIRECTION ( 'NONE',  ( 0.000000000000000000, 0.000000000000000000, 1.000000000000000000 ) ) ;
#223 = CARTESIAN_POINT ( 'NONE',  ( 2.449999999999999734, 0.000000000000000000, 3.199999999999980638 ) ) ;
#224 = ADVANCED_FACE ( 'NONE', ( #47 ), #292, .F. ) ;
#225 = CARTESIAN_POINT ( 'NONE',  ( -4.000000000000000000, 0.000000000000000000, 0.000000000000000000 ) ) ;
#226 = AXIS2_PLACEMENT_3D ( 'NONE', #186, #72, #24 ) ;
#227 = DIRECTION ( 'NONE',  ( 1.000000000000000000, 0.000000000000000000, 0.000000000000000000 ) ) ;
#228 = LOCAL_TIME ( 12, 4, 58.00000000000000000, #218 ) ;
#229 = CIRCLE ( 'NONE', #57, 4.000000000000000000 ) ;
#230 = ORIENTED_EDGE ( 'NONE', *, *, #131, .T. ) ;
#231 = PLANE ( 'NONE',  #248 ) ;
#232 = EDGE_CURVE ( 'NONE', #64, #152, #238, .T. ) ;
#233 = ORIENTED_EDGE ( 'NONE', *, *, #6, .T. ) ;
#234 = CYLINDRICAL_SURFACE ( 'NONE', #270, 2.250000000000000000 ) ;
#235 = EDGE_LOOP ( 'NONE', ( #66, #95 ) ) ;
#236 = FACE_OUTER_BOUND ( 'NONE', #110, .T. ) ;
#237 = DIRECTION ( 'NONE',  ( 1.000000000000000000, 0.000000000000000000, 0.000000000000000000 ) ) ;
#238 = LINE ( 'NONE', #1, #221 ) ;
#239 = CARTESIAN_POINT ( 'NONE',  ( 0.000000000000000000, 0.000000000000000000, 0.000000000000000000 ) ) ;
#240 = CALENDAR_DATE ( 2022, 20, 6 ) ;
#241 = PRODUCT ( 'b54f', 'b54f', '', ( #190 ) ) ;
#242 = APPROVAL_PERSON_ORGANIZATION ( #79, #48, #130 ) ;
#243 = APPLICATION_PROTOCOL_DEFINITION ( 'international standard', 'config_control_design', 1994, #98 ) ;
#244 = EDGE_LOOP ( 'NONE', ( #196, #94, #283, #116 ) ) ;
#245 = ADVANCED_FACE ( 'NONE', ( #236 ), #100, .T. ) ;
#246 = PERSON ( 'NEURÈENÝ', 'NEURÈENÝ', 'NEURÈENÝ', ('NEURÈENÝ'), ('NEURÈENÝ'), ('NEURÈENÝ') ) ;
#247 = DIRECTION ( 'NONE',  ( 0.000000000000000000, 0.000000000000000000, 1.000000000000000000 ) ) ;
#248 = AXIS2_PLACEMENT_3D ( 'NONE', #252, #11, #87 ) ;
#249 = CARTESIAN_POINT ( 'NONE',  ( 0.000000000000000000, 0.000000000000000000, 3.000000000000000000 ) ) ;
#250 = EDGE_CURVE ( 'NONE', #17, #279, #206, .T. ) ;
#251 = CARTESIAN_POINT ( 'NONE',  ( 0.000000000000000000, 0.000000000000000000, 3.000000000000000000 ) ) ;
#252 = CARTESIAN_POINT ( 'NONE',  ( 0.000000000000000000, 0.000000000000000000, 3.000000000000000000 ) ) ;
#253 = ORIENTED_EDGE ( 'NONE', *, *, #304, .T. ) ;
#254 = AXIS2_PLACEMENT_3D ( 'NONE', #273, #247, #91 ) ;
#255 = DIRECTION ( 'NONE',  ( 1.224646799147353207E-16, 1.000000000000000000, -0.000000000000000000 ) ) ;
#256 = CC_DESIGN_APPROVAL ( #48, ( #58 ) ) ;
#257 = EDGE_LOOP ( 'NONE', ( #62, #44 ) ) ;
#258 = UNCERTAINTY_MEASURE_WITH_UNIT (LENGTH_MEASURE( 1.000000000000000082E-05 ), #185, 'distance_accuracy_value', 'NONE');
#259 = CARTESIAN_POINT ( 'NONE',  ( -2.250000000000000000, 0.000000000000000000, 3.199999999999980638 ) ) ;
#260 = ORIENTED_EDGE ( 'NONE', *, *, #37, .F. ) ;
#261 = CARTESIAN_POINT ( 'NONE',  ( 0.000000000000000000, 0.000000000000000000, 3.000000000000000000 ) ) ;
#262 = CIRCLE ( 'NONE', #80, 2.250000000000000000 ) ;
#263 = CARTESIAN_POINT ( 'NONE',  ( 0.000000000000000000, 0.000000000000000000, 3.199999999999980638 ) ) ;
#264 = APPROVAL_STATUS ( 'not_yet_approved' ) ;
#265 = PERSON_AND_ORGANIZATION ( #246, #86 ) ;
#266 = PERSON_AND_ORGANIZATION_ROLE ( 'design_supplier' ) ;
#267 = PERSON_AND_ORGANIZATION ( #246, #86 ) ;
#268 = EDGE_CURVE ( 'NONE', #302, #64, #51, .T. ) ;
#269 = APPROVAL_STATUS ( 'not_yet_approved' ) ;
#270 = AXIS2_PLACEMENT_3D ( 'NONE', #144, #162, #205 ) ;
#271 = ORIENTED_EDGE ( 'NONE', *, *, #175, .T. ) ;
#272 = APPROVAL ( #264, 'NEURÈENÝ' ) ;
#273 = CARTESIAN_POINT ( 'NONE',  ( 0.000000000000000000, 0.000000000000000000, 3.199999999999980638 ) ) ;
#274 = AXIS2_PLACEMENT_3D ( 'NONE', #13, #90, #227 ) ;
#275 = CARTESIAN_POINT ( 'NONE',  ( 0.000000000000000000, 0.000000000000000000, 3.000000000000000000 ) ) ;
#276 = ORIENTED_EDGE ( 'NONE', *, *, #88, .F. ) ;
#277 = CARTESIAN_POINT ( 'NONE',  ( 2.250000000000000000, 2.755455298081544285E-16, 503.0000000000000000 ) ) ;
#278 = CARTESIAN_POINT ( 'NONE',  ( 4.000000000000000000, 4.898587196589412829E-16, 0.000000000000000000 ) ) ;
#279 = VERTEX_POINT ( 'NONE', #259 ) ;
#280 = ADVANCED_FACE ( 'NONE', ( #124 ), #123, .F. ) ;
#281 = DIRECTION ( 'NONE',  ( -1.000000000000000000, 0.000000000000000000, 0.000000000000000000 ) ) ;
#282 = LOCAL_TIME ( 12, 4, 58.00000000000000000, #84 ) ;
#283 = ORIENTED_EDGE ( 'NONE', *, *, #9, .T. ) ;
#284 = CARTESIAN_POINT ( 'NONE',  ( 2.250000000000000000, 2.755455298081544285E-16, 503.0000000000000000 ) ) ;
#285 = FACE_OUTER_BOUND ( 'NONE', #244, .T. ) ;
#286 = CC_DESIGN_PERSON_AND_ORGANIZATION_ASSIGNMENT ( #189, #216, ( #76 ) ) ;
#287 = PERSON_AND_ORGANIZATION ( #246, #86 ) ;
#288 = AXIS2_PLACEMENT_3D ( 'NONE', #145, #23, #22 ) ;
#289 = DATE_TIME_ROLE ( 'creation_date' ) ;
#290 = CALENDAR_DATE ( 2022, 20, 6 ) ;
#291 = CALENDAR_DATE ( 2022, 20, 6 ) ;
#292 = TOROIDAL_SURFACE ( 'NONE', #70, 2.449999999999999734, 0.2000000000000000111 ) ;
#293 = ADVANCED_FACE ( 'NONE', ( #49 ), #234, .T. ) ;
#294 = CARTESIAN_POINT ( 'NONE',  ( 2.250000000000000000, 2.755455298081544285E-16, 3.199999999999980638 ) ) ;
#295 = CARTESIAN_POINT ( 'NONE',  ( -2.250000000000000000, 0.000000000000000000, 503.0000000000000000 ) ) ;
#296 = VERTEX_POINT ( 'NONE', #77 ) ;
#297 = DIRECTION ( 'NONE',  ( -0.000000000000000000, -0.000000000000000000, -1.000000000000000000 ) ) ;
#298 = DIRECTION ( 'NONE',  ( 1.000000000000000000, 0.000000000000000000, 0.000000000000000000 ) ) ;
#299 = CC_DESIGN_PERSON_AND_ORGANIZATION_ASSIGNMENT ( #170, #50, ( #58 ) ) ;
#300 = ORIENTED_EDGE ( 'NONE', *, *, #131, .F. ) ;
#301 = DIRECTION ( 'NONE',  ( 0.000000000000000000, 0.000000000000000000, 1.000000000000000000 ) ) ;
#302 = VERTEX_POINT ( 'NONE', #306 ) ;
#303 =( NAMED_UNIT ( * ) PLANE_ANGLE_UNIT ( ) SI_UNIT ( $, .RADIAN. ) );
#304 = EDGE_CURVE ( 'NONE', #139, #279, #46, .T. ) ;
#305 = DIRECTION ( 'NONE',  ( -1.000000000000000000, 0.000000000000000000, 0.000000000000000000 ) ) ;
#306 = CARTESIAN_POINT ( 'NONE',  ( -4.000000000000000000, 0.000000000000000000, 3.000000000000000000 ) ) ;
#307 = ADVANCED_FACE ( 'NONE', ( #285 ), #211, .T. ) ;
ENDSEC;
END-ISO-10303-21;
