ISO-10303-21;
HEADER;
FILE_DESCRIPTION (( 'STEP AP203' ),
    '1' );
FILE_NAME ('ca7c.STEP',
    '2022-06-20T10:21:59',
    ( '' ),
    ( '' ),
    'SwSTEP 2.0',
    'SolidWorks 2019',
    '' );
FILE_SCHEMA (( 'CONFIG_CONTROL_DESIGN' ));
ENDSEC;

DATA;
#1 = FACE_OUTER_BOUND ( 'NONE', #175, .T. ) ;
#2 = CARTESIAN_POINT ( 'NONE',  ( 0.000000000000000000, 0.000000000000000000, 1.500000000000000000 ) ) ;
#3 = DATE_AND_TIME ( #130, #152 ) ;
#4 = DIRECTION ( 'NONE',  ( 1.000000000000000000, 0.000000000000000000, 0.000000000000000000 ) ) ;
#5 = PERSON_AND_ORGANIZATION ( #74, #276 ) ;
#6 = CARTESIAN_POINT ( 'NONE',  ( 0.000000000000000000, 0.000000000000000000, 1.700000000000007061 ) ) ;
#7 = CIRCLE ( 'NONE', #227, 1.050000000000000044 ) ;
#8 = AXIS2_PLACEMENT_3D ( 'NONE', #264, #149, #35 ) ;
#9 = DIRECTION ( 'NONE',  ( -1.000000000000000000, 0.000000000000000000, 0.000000000000000000 ) ) ;
#10 = FACE_OUTER_BOUND ( 'NONE', #115, .T. ) ;
#11 = CC_DESIGN_DATE_AND_TIME_ASSIGNMENT ( #99, #174, ( #180 ) ) ;
#12 = DIRECTION ( 'NONE',  ( 0.000000000000000000, 0.000000000000000000, 1.000000000000000000 ) ) ;
#13 = AXIS2_PLACEMENT_3D ( 'NONE', #2, #289, #33 ) ;
#14 = DIRECTION ( 'NONE',  ( -1.000000000000000000, 1.224646799147353207E-16, 0.000000000000000000 ) ) ;
#15 = CARTESIAN_POINT ( 'NONE',  ( -2.000000000000000000, 0.000000000000000000, 1.500000000000000000 ) ) ;
#16 = DIRECTION ( 'NONE',  ( -0.000000000000000000, -0.000000000000000000, -1.000000000000000000 ) ) ;
#17 = CARTESIAN_POINT ( 'NONE',  ( 0.000000000000000000, 0.000000000000000000, 0.000000000000000000 ) ) ;
#18 = VERTEX_POINT ( 'NONE', #52 ) ;
#19 = VERTEX_POINT ( 'NONE', #225 ) ;
#20 = VERTEX_POINT ( 'NONE', #286 ) ;
#21 = CIRCLE ( 'NONE', #76, 0.8499999999999999778 ) ;
#22 = DIRECTION ( 'NONE',  ( 1.000000000000000000, 0.000000000000000000, 0.000000000000000000 ) ) ;
#23 = TOROIDAL_SURFACE ( 'NONE', #209, 1.050000000000000044, 0.2000000000000000111 ) ;
#24 = PERSON_AND_ORGANIZATION ( #74, #276 ) ;
#25 = VERTEX_POINT ( 'NONE', #147 ) ;
#26 = EDGE_CURVE ( 'NONE', #237, #25, #120, .T. ) ;
#27 = CIRCLE ( 'NONE', #122, 0.2000000000000000944 ) ;
#28 = CYLINDRICAL_SURFACE ( 'NONE', #8, 2.000000000000000000 ) ;
#29 = FACE_OUTER_BOUND ( 'NONE', #219, .T. ) ;
#30 = ORIENTED_EDGE ( 'NONE', *, *, #148, .T. ) ;
#31 = PERSON_AND_ORGANIZATION ( #74, #276 ) ;
#32 = CC_DESIGN_DATE_AND_TIME_ASSIGNMENT ( #288, #125, ( #36 ) ) ;
#33 = DIRECTION ( 'NONE',  ( 1.000000000000000000, 0.000000000000000000, 0.000000000000000000 ) ) ;
#34 = APPROVAL_DATE_TIME ( #3, #93 ) ;
#35 = DIRECTION ( 'NONE',  ( -1.000000000000000000, 0.000000000000000000, 0.000000000000000000 ) ) ;
#36 = SECURITY_CLASSIFICATION ( '', '', #224 ) ;
#37 = AXIS2_PLACEMENT_3D ( 'NONE', #220, #249, #195 ) ;
#38 = PERSON_AND_ORGANIZATION_ROLE ( 'creator' ) ;
#39 = DIRECTION ( 'NONE',  ( -0.000000000000000000, -0.000000000000000000, -1.000000000000000000 ) ) ;
#40 = ADVANCED_FACE ( 'NONE', ( #103 ), #28, .T. ) ;
#41 = DIRECTION ( 'NONE',  ( 0.000000000000000000, 0.000000000000000000, 1.000000000000000000 ) ) ;
#42 = CARTESIAN_POINT ( 'NONE',  ( 1.050000000000000044, 0.000000000000000000, 1.700000000000007061 ) ) ;
#43 = APPROVAL_PERSON_ORGANIZATION ( #143, #139, #303 ) ;
#44 = CARTESIAN_POINT ( 'NONE',  ( 0.000000000000000000, 0.000000000000000000, 161.5000000000000000 ) ) ;
#45 = DIRECTION ( 'NONE',  ( 1.224646799147353207E-16, 1.000000000000000000, -0.000000000000000000 ) ) ;
#46 = MECHANICAL_CONTEXT ( 'NONE', #133, 'mechanical' ) ;
#47 = CC_DESIGN_APPROVAL ( #246, ( #110 ) ) ;
#48 = ORIENTED_EDGE ( 'NONE', *, *, #104, .F. ) ;
#49 = ORIENTED_EDGE ( 'NONE', *, *, #85, .T. ) ;
#50 = CIRCLE ( 'NONE', #203, 2.000000000000000000 ) ;
#51 = CIRCLE ( 'NONE', #111, 0.8499999999999999778 ) ;
#52 = CARTESIAN_POINT ( 'NONE',  ( 2.000000000000000000, 2.449293598294706414E-16, 1.500000000000000000 ) ) ;
#53 = CARTESIAN_POINT ( 'NONE',  ( 0.000000000000000000, 0.000000000000000000, 1.500000000000000000 ) ) ;
#54 = APPROVAL_DATE_TIME ( #280, #139 ) ;
#55 = ORIENTED_EDGE ( 'NONE', *, *, #165, .F. ) ;
#56 = CARTESIAN_POINT ( 'NONE',  ( 0.000000000000000000, 0.000000000000000000, 1.700000000000007061 ) ) ;
#57 = SHAPE_DEFINITION_REPRESENTATION ( #72, #62 ) ;
#58 = EDGE_CURVE ( 'NONE', #167, #304, #142, .T. ) ;
#59 = CARTESIAN_POINT ( 'NONE',  ( 0.000000000000000000, 0.000000000000000000, 0.000000000000000000 ) ) ;
#60 = APPROVAL_ROLE ( '' ) ;
#61 = PLANE ( 'NONE',  #160 ) ;
#62 = ADVANCED_BREP_SHAPE_REPRESENTATION ( 'ca7c', ( #222, #102 ), #242 ) ;
#63 = FACE_OUTER_BOUND ( 'NONE', #137, .T. ) ;
#64 = VECTOR ( 'NONE', #136, 1000.000000000000000 ) ;
#65 = VECTOR ( 'NONE', #244, 1000.000000000000000 ) ;
#66 = ORIENTED_EDGE ( 'NONE', *, *, #26, .F. ) ;
#67 = EDGE_LOOP ( 'NONE', ( #166, #48, #68, #89 ) ) ;
#68 = ORIENTED_EDGE ( 'NONE', *, *, #26, .T. ) ;
#69 = VERTEX_POINT ( 'NONE', #287 ) ;
#70 = ADVANCED_FACE ( 'NONE', ( #1 ), #75, .F. ) ;
#71 = ORIENTED_EDGE ( 'NONE', *, *, #212, .F. ) ;
#72 = PRODUCT_DEFINITION_SHAPE ( 'NONE', 'NONE',  #180 ) ;
#73 = FACE_OUTER_BOUND ( 'NONE', #213, .T. ) ;
#74 = PERSON ( 'NEURÈENÝ', 'NEURÈENÝ', 'NEURÈENÝ', ('NEURÈENÝ'), ('NEURÈENÝ'), ('NEURÈENÝ') ) ;
#75 = PLANE ( 'NONE',  #78 ) ;
#76 = AXIS2_PLACEMENT_3D ( 'NONE', #235, #205, #153 ) ;
#77 = DIRECTION ( 'NONE',  ( 1.000000000000000000, 0.000000000000000000, 0.000000000000000000 ) ) ;
#78 = AXIS2_PLACEMENT_3D ( 'NONE', #171, #248, #124 ) ;
#79 = AXIS2_PLACEMENT_3D ( 'NONE', #146, #126, #245 ) ;
#80 = APPROVAL_ROLE ( '' ) ;
#81 = EDGE_LOOP ( 'NONE', ( #292, #306, #307, #211 ) ) ;
#82 = PERSON_AND_ORGANIZATION_ROLE ( 'classification_officer' ) ;
#83 = DIRECTION ( 'NONE',  ( -0.000000000000000000, -0.000000000000000000, -1.000000000000000000 ) ) ;
#84 = CARTESIAN_POINT ( 'NONE',  ( -0.8499999999999999778, 0.000000000000000000, 161.5000000000000000 ) ) ;
#85 = EDGE_CURVE ( 'NONE', #193, #69, #116, .T. ) ;
#86 = DIRECTION ( 'NONE',  ( 1.000000000000000000, 0.000000000000000000, -0.000000000000000000 ) ) ;
#87 = LOCAL_TIME ( 12, 21, 59.00000000000000000, #301 ) ;
#88 = EDGE_CURVE ( 'NONE', #25, #19, #206, .T. ) ;
#89 = ORIENTED_EDGE ( 'NONE', *, *, #88, .T. ) ;
#90 = APPLICATION_CONTEXT ( 'configuration controlled 3d designs of mechanical parts and assemblies' ) ;
#91 = AXIS2_PLACEMENT_3D ( 'NONE', #53, #250, #226 ) ;
#92 = APPROVAL_STATUS ( 'not_yet_approved' ) ;
#93 = APPROVAL ( #105, 'NEURÈENÝ' ) ;
#94 = UNCERTAINTY_MEASURE_WITH_UNIT (LENGTH_MEASURE( 1.000000000000000082E-05 ), #298, 'distance_accuracy_value', 'NONE');
#95 = CC_DESIGN_APPROVAL ( #93, ( #36 ) ) ;
#96 = DIRECTION ( 'NONE',  ( 0.000000000000000000, 0.000000000000000000, 1.000000000000000000 ) ) ;
#97 = ADVANCED_FACE ( 'NONE', ( #73 ), #100, .T. ) ;
#98 = DIRECTION ( 'NONE',  ( -0.000000000000000000, -0.000000000000000000, -1.000000000000000000 ) ) ;
#99 = DATE_AND_TIME ( #101, #179 ) ;
#100 = CYLINDRICAL_SURFACE ( 'NONE', #297, 0.8499999999999999778 ) ;
#101 = CALENDAR_DATE ( 2022, 20, 6 ) ;
#102 = AXIS2_PLACEMENT_3D ( 'NONE', #17, #241, #22 ) ;
#103 = FACE_OUTER_BOUND ( 'NONE', #67, .T. ) ;
#104 = EDGE_CURVE ( 'NONE', #237, #18, #247, .T. ) ;
#105 = APPROVAL_STATUS ( 'not_yet_approved' ) ;
#106 = CARTESIAN_POINT ( 'NONE',  ( -0.8499999999999999778, 0.000000000000000000, 1.700000000000007061 ) ) ;
#107 = CALENDAR_DATE ( 2022, 20, 6 ) ;
#108 = CYLINDRICAL_SURFACE ( 'NONE', #168, 2.000000000000000000 ) ;
#109 = DIRECTION ( 'NONE',  ( 1.000000000000000000, 0.000000000000000000, 0.000000000000000000 ) ) ;
#110 = PRODUCT_DEFINITION_FORMATION_WITH_SPECIFIED_SOURCE ( 'LIBOVOLNÝ', '', #119, .NOT_KNOWN. ) ;
#111 = AXIS2_PLACEMENT_3D ( 'NONE', #56, #199, #77 ) ;
#112 = LINE ( 'NONE', #84, #214 ) ;
#113 = CARTESIAN_POINT ( 'NONE',  ( 2.000000000000000000, 2.449293598294706414E-16, 1.500000000000000000 ) ) ;
#114 = APPLICATION_PROTOCOL_DEFINITION ( 'international standard', 'config_control_design', 1994, #90 ) ;
#115 = EDGE_LOOP ( 'NONE', ( #239, #240 ) ) ;
#116 = CIRCLE ( 'NONE', #260, 1.050000000000000044 ) ;
#117 = ORIENTED_EDGE ( 'NONE', *, *, #218, .T. ) ;
#118 = DATE_AND_TIME ( #107, #184 ) ;
#119 = PRODUCT ( 'ca7c', 'ca7c', '', ( #46 ) ) ;
#120 = LINE ( 'NONE', #145, #65 ) ;
#121 = CC_DESIGN_PERSON_AND_ORGANIZATION_ASSIGNMENT ( #24, #252, ( #180 ) ) ;
#122 = AXIS2_PLACEMENT_3D ( 'NONE', #42, #230, #251 ) ;
#123 = CYLINDRICAL_SURFACE ( 'NONE', #291, 0.8499999999999999778 ) ;
#124 = DIRECTION ( 'NONE',  ( 1.000000000000000000, 0.000000000000000000, -0.000000000000000000 ) ) ;
#125 = DATE_TIME_ROLE ( 'classification_date' ) ;
#126 = DIRECTION ( 'NONE',  ( 0.000000000000000000, 0.000000000000000000, 1.000000000000000000 ) ) ;
#127 = CC_DESIGN_PERSON_AND_ORGANIZATION_ASSIGNMENT ( #155, #82, ( #36 ) ) ;
#128 = COORDINATED_UNIVERSAL_TIME_OFFSET ( 1, 0, .AHEAD. ) ;
#129 = CARTESIAN_POINT ( 'NONE',  ( 0.000000000000000000, 0.000000000000000000, 161.5000000000000000 ) ) ;
#130 = CALENDAR_DATE ( 2022, 20, 6 ) ;
#131 = DIRECTION ( 'NONE',  ( 1.000000000000000000, 0.000000000000000000, 0.000000000000000000 ) ) ;
#132 = CARTESIAN_POINT ( 'NONE',  ( 0.000000000000000000, 0.000000000000000000, 1.500000000000000000 ) ) ;
#133 = APPLICATION_CONTEXT ( 'configuration controlled 3d designs of mechanical parts and assemblies' ) ;
#134 = CIRCLE ( 'NONE', #79, 0.8499999999999999778 ) ;
#135 = DIRECTION ( 'NONE',  ( 0.000000000000000000, 0.000000000000000000, 1.000000000000000000 ) ) ;
#136 = DIRECTION ( 'NONE',  ( -0.000000000000000000, -0.000000000000000000, -1.000000000000000000 ) ) ;
#137 = EDGE_LOOP ( 'NONE', ( #71, #302, #263, #138 ) ) ;
#138 = ORIENTED_EDGE ( 'NONE', *, *, #285, .F. ) ;
#139 = APPROVAL ( #92, 'NEURÈENÝ' ) ;
#140 = ORIENTED_EDGE ( 'NONE', *, *, #281, .F. ) ;
#141 = APPROVAL_PERSON_ORGANIZATION ( #5, #246, #60 ) ;
#142 = CIRCLE ( 'NONE', #37, 0.8499999999999999778 ) ;
#143 = PERSON_AND_ORGANIZATION ( #74, #276 ) ;
#144 = ORIENTED_EDGE ( 'NONE', *, *, #161, .T. ) ;
#145 = CARTESIAN_POINT ( 'NONE',  ( -2.000000000000000000, 0.000000000000000000, 1.500000000000000000 ) ) ;
#146 = CARTESIAN_POINT ( 'NONE',  ( 0.000000000000000000, 0.000000000000000000, 161.5000000000000000 ) ) ;
#147 = CARTESIAN_POINT ( 'NONE',  ( -2.000000000000000000, 0.000000000000000000, 0.000000000000000000 ) ) ;
#148 = EDGE_CURVE ( 'NONE', #304, #167, #51, .T. ) ;
#149 = DIRECTION ( 'NONE',  ( -0.000000000000000000, -0.000000000000000000, -1.000000000000000000 ) ) ;
#150 = PERSON_AND_ORGANIZATION ( #74, #276 ) ;
#151 = DIRECTION ( 'NONE',  ( 1.000000000000000000, 0.000000000000000000, 0.000000000000000000 ) ) ;
#152 = LOCAL_TIME ( 12, 21, 59.00000000000000000, #229 ) ;
#153 = DIRECTION ( 'NONE',  ( 1.000000000000000000, 0.000000000000000000, 0.000000000000000000 ) ) ;
#154 = ADVANCED_FACE ( 'NONE', ( #172 ), #282, .F. ) ;
#155 = PERSON_AND_ORGANIZATION ( #74, #276 ) ;
#156 = DIRECTION ( 'NONE',  ( -1.000000000000000000, 0.000000000000000000, 0.000000000000000000 ) ) ;
#157 = VECTOR ( 'NONE', #83, 1000.000000000000000 ) ;
#158 = CARTESIAN_POINT ( 'NONE',  ( 1.050000000000000044, 0.000000000000000000, 1.500000000000003553 ) ) ;
#159 = CLOSED_SHELL ( 'NONE', ( #154, #97, #208, #40, #173, #70, #170, #228, #192 ) ) ;
#160 = AXIS2_PLACEMENT_3D ( 'NONE', #256, #41, #86 ) ;
#161 = EDGE_CURVE ( 'NONE', #18, #237, #234, .T. ) ;
#162 = FACE_OUTER_BOUND ( 'NONE', #279, .T. ) ;
#163 = ORIENTED_EDGE ( 'NONE', *, *, #285, .T. ) ;
#164 = ORIENTED_EDGE ( 'NONE', *, *, #104, .T. ) ;
#165 = EDGE_CURVE ( 'NONE', #20, #186, #134, .T. ) ;
#166 = ORIENTED_EDGE ( 'NONE', *, *, #266, .F. ) ;
#167 = VERTEX_POINT ( 'NONE', #106 ) ;
#168 = AXIS2_PLACEMENT_3D ( 'NONE', #132, #16, #233 ) ;
#169 = DESIGN_CONTEXT ( 'detailed design', #90, 'design' ) ;
#170 = ADVANCED_FACE ( 'NONE', ( #29 ), #123, .T. ) ;
#171 = CARTESIAN_POINT ( 'NONE',  ( 0.000000000000000000, 0.000000000000000000, 0.000000000000000000 ) ) ;
#172 = FACE_OUTER_BOUND ( 'NONE', #81, .T. ) ;
#173 = ADVANCED_FACE ( 'NONE', ( #185, #183 ), #61, .T. ) ;
#174 = DATE_TIME_ROLE ( 'creation_date' ) ;
#175 = EDGE_LOOP ( 'NONE', ( #188, #190 ) ) ;
#176 = CARTESIAN_POINT ( 'NONE',  ( 0.000000000000000000, 0.000000000000000000, 1.500000000000000000 ) ) ;
#177 = COORDINATED_UNIVERSAL_TIME_OFFSET ( 1, 0, .AHEAD. ) ;
#178 = DIRECTION ( 'NONE',  ( -0.000000000000000000, -0.000000000000000000, -1.000000000000000000 ) ) ;
#179 = LOCAL_TIME ( 12, 21, 59.00000000000000000, #198 ) ;
#180 = PRODUCT_DEFINITION ( 'NEZNÁMÝ', '', #110, #169 ) ;
#181 = LINE ( 'NONE', #113, #64 ) ;
#182 = DIRECTION ( 'NONE',  ( -0.000000000000000000, -0.000000000000000000, -1.000000000000000000 ) ) ;
#183 = FACE_OUTER_BOUND ( 'NONE', #217, .T. ) ;
#184 = LOCAL_TIME ( 12, 21, 59.00000000000000000, #128 ) ;
#185 = FACE_BOUND ( 'NONE', #258, .T. ) ;
#186 = VERTEX_POINT ( 'NONE', #201 ) ;
#187 = CC_DESIGN_PERSON_AND_ORGANIZATION_ASSIGNMENT ( #150, #38, ( #110 ) ) ;
#188 = ORIENTED_EDGE ( 'NONE', *, *, #88, .F. ) ;
#189 = AXIS2_PLACEMENT_3D ( 'NONE', #6, #265, #151 ) ;
#190 = ORIENTED_EDGE ( 'NONE', *, *, #218, .F. ) ;
#191 = ORIENTED_EDGE ( 'NONE', *, *, #232, .F. ) ;
#192 = ADVANCED_FACE ( 'NONE', ( #63 ), #23, .F. ) ;
#193 = VERTEX_POINT ( 'NONE', #158 ) ;
#194 = ORIENTED_EDGE ( 'NONE', *, *, #281, .T. ) ;
#195 = DIRECTION ( 'NONE',  ( 1.000000000000000000, 0.000000000000000000, 0.000000000000000000 ) ) ;
#196 = CARTESIAN_POINT ( 'NONE',  ( 0.000000000000000000, 0.000000000000000000, 161.5000000000000000 ) ) ;
#197 = AXIS2_PLACEMENT_3D ( 'NONE', #44, #135, #275 ) ;
#198 = COORDINATED_UNIVERSAL_TIME_OFFSET ( 1, 0, .AHEAD. ) ;
#199 = DIRECTION ( 'NONE',  ( 0.000000000000000000, 0.000000000000000000, 1.000000000000000000 ) ) ;
#200 = APPROVAL_DATE_TIME ( #118, #246 ) ;
#201 = CARTESIAN_POINT ( 'NONE',  ( 0.8499999999999999778, 1.040949779275250140E-16, 161.5000000000000000 ) ) ;
#202 = EDGE_CURVE ( 'NONE', #304, #193, #27, .T. ) ;
#203 = AXIS2_PLACEMENT_3D ( 'NONE', #59, #277, #109 ) ;
#204 = PRODUCT_RELATED_PRODUCT_CATEGORY ( 'detail', '', ( #119 ) ) ;
#205 = DIRECTION ( 'NONE',  ( 0.000000000000000000, 0.000000000000000000, 1.000000000000000000 ) ) ;
#206 = CIRCLE ( 'NONE', #300, 2.000000000000000000 ) ;
#207 = LINE ( 'NONE', #236, #157 ) ;
#208 = ADVANCED_FACE ( 'NONE', ( #162 ), #108, .T. ) ;
#209 = AXIS2_PLACEMENT_3D ( 'NONE', #299, #12, #131 ) ;
#210 = CC_DESIGN_PERSON_AND_ORGANIZATION_ASSIGNMENT ( #293, #296, ( #110 ) ) ;
#211 = ORIENTED_EDGE ( 'NONE', *, *, #202, .F. ) ;
#212 = EDGE_CURVE ( 'NONE', #167, #69, #290, .T. ) ;
#213 = EDGE_LOOP ( 'NONE', ( #261, #194, #30, #191 ) ) ;
#214 = VECTOR ( 'NONE', #182, 1000.000000000000000 ) ;
#215 = ORIENTED_EDGE ( 'NONE', *, *, #232, .T. ) ;
#216 = PERSON_AND_ORGANIZATION ( #74, #276 ) ;
#217 = EDGE_LOOP ( 'NONE', ( #164, #144 ) ) ;
#218 = EDGE_CURVE ( 'NONE', #19, #25, #50, .T. ) ;
#219 = EDGE_LOOP ( 'NONE', ( #140, #55, #215, #243 ) ) ;
#220 = CARTESIAN_POINT ( 'NONE',  ( 0.000000000000000000, 0.000000000000000000, 1.700000000000007061 ) ) ;
#221 = APPROVAL_PERSON_ORGANIZATION ( #31, #93, #80 ) ;
#222 = MANIFOLD_SOLID_BREP ( 'Zaoblit1', #159 ) ;
#223 = DIRECTION ( 'NONE',  ( 1.000000000000000000, 0.000000000000000000, 0.000000000000000000 ) ) ;
#224 = SECURITY_CLASSIFICATION_LEVEL ( 'unclassified' ) ;
#225 = CARTESIAN_POINT ( 'NONE',  ( 2.000000000000000000, 2.449293598294706414E-16, 0.000000000000000000 ) ) ;
#226 = DIRECTION ( 'NONE',  ( 1.000000000000000000, 0.000000000000000000, 0.000000000000000000 ) ) ;
#227 = AXIS2_PLACEMENT_3D ( 'NONE', #294, #178, #272 ) ;
#228 = ADVANCED_FACE ( 'NONE', ( #10 ), #295, .T. ) ;
#229 = COORDINATED_UNIVERSAL_TIME_OFFSET ( 1, 0, .AHEAD. ) ;
#230 = DIRECTION ( 'NONE',  ( 0.000000000000000000, -1.000000000000000000, 0.000000000000000000 ) ) ;
#231 =( NAMED_UNIT ( * ) SI_UNIT ( $, .STERADIAN. ) SOLID_ANGLE_UNIT ( ) );
#232 = EDGE_CURVE ( 'NONE', #20, #167, #112, .T. ) ;
#233 = DIRECTION ( 'NONE',  ( -1.000000000000000000, 0.000000000000000000, 0.000000000000000000 ) ) ;
#234 = CIRCLE ( 'NONE', #91, 2.000000000000000000 ) ;
#235 = CARTESIAN_POINT ( 'NONE',  ( 0.000000000000000000, 0.000000000000000000, 161.5000000000000000 ) ) ;
#236 = CARTESIAN_POINT ( 'NONE',  ( 0.8499999999999999778, 1.040949779275250140E-16, 161.5000000000000000 ) ) ;
#237 = VERTEX_POINT ( 'NONE', #15 ) ;
#238 = CC_DESIGN_PERSON_AND_ORGANIZATION_ASSIGNMENT ( #216, #305, ( #119 ) ) ;
#239 = ORIENTED_EDGE ( 'NONE', *, *, #165, .T. ) ;
#240 = ORIENTED_EDGE ( 'NONE', *, *, #257, .T. ) ;
#241 = DIRECTION ( 'NONE',  ( 0.000000000000000000, 0.000000000000000000, 1.000000000000000000 ) ) ;
#242 =( GEOMETRIC_REPRESENTATION_CONTEXT ( 3 ) GLOBAL_UNCERTAINTY_ASSIGNED_CONTEXT ( ( #94 ) ) GLOBAL_UNIT_ASSIGNED_CONTEXT ( ( #298, #274, #231 ) ) REPRESENTATION_CONTEXT ( 'NONE', 'WORKASPACE' ) );
#243 = ORIENTED_EDGE ( 'NONE', *, *, #58, .T. ) ;
#244 = DIRECTION ( 'NONE',  ( -0.000000000000000000, -0.000000000000000000, -1.000000000000000000 ) ) ;
#245 = DIRECTION ( 'NONE',  ( 1.000000000000000000, 0.000000000000000000, 0.000000000000000000 ) ) ;
#246 = APPROVAL ( #269, 'NEURÈENÝ' ) ;
#247 = CIRCLE ( 'NONE', #13, 2.000000000000000000 ) ;
#248 = DIRECTION ( 'NONE',  ( 0.000000000000000000, 0.000000000000000000, 1.000000000000000000 ) ) ;
#249 = DIRECTION ( 'NONE',  ( 0.000000000000000000, 0.000000000000000000, 1.000000000000000000 ) ) ;
#250 = DIRECTION ( 'NONE',  ( 0.000000000000000000, 0.000000000000000000, 1.000000000000000000 ) ) ;
#251 = DIRECTION ( 'NONE',  ( 0.000000000000000000, 0.000000000000000000, -1.000000000000000000 ) ) ;
#252 = PERSON_AND_ORGANIZATION_ROLE ( 'creator' ) ;
#253 = CARTESIAN_POINT ( 'NONE',  ( 0.8499999999999999778, 1.040949779275250140E-16, 1.700000000000007061 ) ) ;
#254 = LOCAL_TIME ( 12, 21, 59.00000000000000000, #177 ) ;
#255 = CARTESIAN_POINT ( 'NONE',  ( -1.050000000000000044, 1.285879139104720732E-16, 1.700000000000007061 ) ) ;
#256 = CARTESIAN_POINT ( 'NONE',  ( 0.000000000000000000, 0.000000000000000000, 1.500000000000000000 ) ) ;
#257 = EDGE_CURVE ( 'NONE', #186, #20, #21, .T. ) ;
#258 = EDGE_LOOP ( 'NONE', ( #49, #163 ) ) ;
#259 = CC_DESIGN_SECURITY_CLASSIFICATION ( #36, ( #110 ) ) ;
#260 = AXIS2_PLACEMENT_3D ( 'NONE', #176, #98, #223 ) ;
#261 = ORIENTED_EDGE ( 'NONE', *, *, #257, .F. ) ;
#262 = APPLICATION_PROTOCOL_DEFINITION ( 'international standard', 'config_control_design', 1994, #133 ) ;
#263 = ORIENTED_EDGE ( 'NONE', *, *, #202, .T. ) ;
#264 = CARTESIAN_POINT ( 'NONE',  ( 0.000000000000000000, 0.000000000000000000, 1.500000000000000000 ) ) ;
#265 = DIRECTION ( 'NONE',  ( 0.000000000000000000, 0.000000000000000000, 1.000000000000000000 ) ) ;
#266 = EDGE_CURVE ( 'NONE', #18, #19, #181, .T. ) ;
#267 = CC_DESIGN_APPROVAL ( #139, ( #180 ) ) ;
#268 = CARTESIAN_POINT ( 'NONE',  ( 0.000000000000000000, 0.000000000000000000, 0.000000000000000000 ) ) ;
#269 = APPROVAL_STATUS ( 'not_yet_approved' ) ;
#270 = DIRECTION ( 'NONE',  ( -0.000000000000000000, -0.000000000000000000, -1.000000000000000000 ) ) ;
#271 = CALENDAR_DATE ( 2022, 20, 6 ) ;
#272 = DIRECTION ( 'NONE',  ( 1.000000000000000000, 0.000000000000000000, 0.000000000000000000 ) ) ;
#273 = AXIS2_PLACEMENT_3D ( 'NONE', #255, #45, #14 ) ;
#274 =( NAMED_UNIT ( * ) PLANE_ANGLE_UNIT ( ) SI_UNIT ( $, .RADIAN. ) );
#275 = DIRECTION ( 'NONE',  ( 1.000000000000000000, 0.000000000000000000, -0.000000000000000000 ) ) ;
#276 = ORGANIZATION ( 'NEURÈENÝ', 'NEURÈENÝ', '' ) ;
#277 = DIRECTION ( 'NONE',  ( 0.000000000000000000, 0.000000000000000000, 1.000000000000000000 ) ) ;
#278 = CALENDAR_DATE ( 2022, 20, 6 ) ;
#279 = EDGE_LOOP ( 'NONE', ( #283, #284, #117, #66 ) ) ;
#280 = DATE_AND_TIME ( #278, #87 ) ;
#281 = EDGE_CURVE ( 'NONE', #186, #304, #207, .T. ) ;
#282 = TOROIDAL_SURFACE ( 'NONE', #189, 1.050000000000000044, 0.2000000000000000111 ) ;
#283 = ORIENTED_EDGE ( 'NONE', *, *, #161, .F. ) ;
#284 = ORIENTED_EDGE ( 'NONE', *, *, #266, .T. ) ;
#285 = EDGE_CURVE ( 'NONE', #69, #193, #7, .T. ) ;
#286 = CARTESIAN_POINT ( 'NONE',  ( -0.8499999999999999778, 0.000000000000000000, 161.5000000000000000 ) ) ;
#287 = CARTESIAN_POINT ( 'NONE',  ( -1.050000000000000044, 1.285879139104720732E-16, 1.500000000000003553 ) ) ;
#288 = DATE_AND_TIME ( #271, #254 ) ;
#289 = DIRECTION ( 'NONE',  ( 0.000000000000000000, 0.000000000000000000, 1.000000000000000000 ) ) ;
#290 = CIRCLE ( 'NONE', #273, 0.2000000000000000944 ) ;
#291 = AXIS2_PLACEMENT_3D ( 'NONE', #129, #39, #156 ) ;
#292 = ORIENTED_EDGE ( 'NONE', *, *, #58, .F. ) ;
#293 = PERSON_AND_ORGANIZATION ( #74, #276 ) ;
#294 = CARTESIAN_POINT ( 'NONE',  ( 0.000000000000000000, 0.000000000000000000, 1.500000000000000000 ) ) ;
#295 = PLANE ( 'NONE',  #197 ) ;
#296 = PERSON_AND_ORGANIZATION_ROLE ( 'design_supplier' ) ;
#297 = AXIS2_PLACEMENT_3D ( 'NONE', #196, #270, #9 ) ;
#298 =( LENGTH_UNIT ( ) NAMED_UNIT ( * ) SI_UNIT ( .MILLI., .METRE. ) );
#299 = CARTESIAN_POINT ( 'NONE',  ( 0.000000000000000000, 0.000000000000000000, 1.700000000000007061 ) ) ;
#300 = AXIS2_PLACEMENT_3D ( 'NONE', #268, #96, #4 ) ;
#301 = COORDINATED_UNIVERSAL_TIME_OFFSET ( 1, 0, .AHEAD. ) ;
#302 = ORIENTED_EDGE ( 'NONE', *, *, #148, .F. ) ;
#303 = APPROVAL_ROLE ( '' ) ;
#304 = VERTEX_POINT ( 'NONE', #253 ) ;
#305 = PERSON_AND_ORGANIZATION_ROLE ( 'design_owner' ) ;
#306 = ORIENTED_EDGE ( 'NONE', *, *, #212, .T. ) ;
#307 = ORIENTED_EDGE ( 'NONE', *, *, #85, .F. ) ;
ENDSEC;
END-ISO-10303-21;
