ISO-10303-21;
HEADER;
FILE_DESCRIPTION (( 'STEP AP203' ),
    '1' );
FILE_NAME ('5e9c.STEP',
    '2022-06-20T10:24:20',
    ( '' ),
    ( '' ),
    'SwSTEP 2.0',
    'SolidWorks 2019',
    '' );
FILE_SCHEMA (( 'CONFIG_CONTROL_DESIGN' ));
ENDSEC;

DATA;
#1 = ORIENTED_EDGE ( 'NONE', *, *, #119, .F. ) ;
#2 = PERSON_AND_ORGANIZATION ( #133, #170 ) ;
#3 = MECHANICAL_CONTEXT ( 'NONE', #276, 'mechanical' ) ;
#4 = ORIENTED_EDGE ( 'NONE', *, *, #281, .F. ) ;
#5 = DATE_AND_TIME ( #27, #11 ) ;
#6 = ORIENTED_EDGE ( 'NONE', *, *, #119, .T. ) ;
#7 = ADVANCED_FACE ( 'NONE', ( #54 ), #248, .F. ) ;
#8 = PERSON_AND_ORGANIZATION_ROLE ( 'design_supplier' ) ;
#9 = AXIS2_PLACEMENT_3D ( 'NONE', #283, #305, #118 ) ;
#10 = APPROVAL_PERSON_ORGANIZATION ( #2, #299, #223 ) ;
#11 = LOCAL_TIME ( 12, 24, 20.00000000000000000, #74 ) ;
#12 = CLOSED_SHELL ( 'NONE', ( #7, #60, #101, #229, #224, #227, #172, #244, #43 ) ) ;
#13 = LINE ( 'NONE', #68, #52 ) ;
#14 = DIRECTION ( 'NONE',  ( 1.000000000000000000, 0.000000000000000000, -0.000000000000000000 ) ) ;
#15 = PLANE ( 'NONE',  #56 ) ;
#16 = EDGE_CURVE ( 'NONE', #217, #169, #103, .T. ) ;
#17 = DIRECTION ( 'NONE',  ( -1.000000000000000000, 0.000000000000000000, 0.000000000000000000 ) ) ;
#18 = CARTESIAN_POINT ( 'NONE',  ( 0.000000000000000000, 0.000000000000000000, 1.700000000000007061 ) ) ;
#19 = DIRECTION ( 'NONE',  ( -1.000000000000000000, 1.224646799147352714E-16, 0.000000000000000000 ) ) ;
#20 = ORIENTED_EDGE ( 'NONE', *, *, #281, .T. ) ;
#21 = CALENDAR_DATE ( 2022, 20, 6 ) ;
#22 = CARTESIAN_POINT ( 'NONE',  ( 0.000000000000000000, 0.000000000000000000, 0.000000000000000000 ) ) ;
#23 = CIRCLE ( 'NONE', #183, 1.500000000000000222 ) ;
#24 = PRODUCT_DEFINITION_FORMATION_WITH_SPECIFIED_SOURCE ( 'LIBOVOLNÝ', '', #25, .NOT_KNOWN. ) ;
#25 = PRODUCT ( '5e9c', '5e9c', '', ( #3 ) ) ;
#26 = EDGE_LOOP ( 'NONE', ( #80, #99 ) ) ;
#27 = CALENDAR_DATE ( 2022, 20, 6 ) ;
#28 = EDGE_CURVE ( 'NONE', #169, #217, #167, .T. ) ;
#29 = EDGE_LOOP ( 'NONE', ( #48, #174, #44, #20 ) ) ;
#30 = AXIS2_PLACEMENT_3D ( 'NONE', #112, #157, #84 ) ;
#31 = ORIENTED_EDGE ( 'NONE', *, *, #32, .T. ) ;
#32 = EDGE_CURVE ( 'NONE', #142, #241, #13, .T. ) ;
#33 = LOCAL_TIME ( 12, 24, 20.00000000000000000, #293 ) ;
#34 = DIRECTION ( 'NONE',  ( 0.000000000000000000, 0.000000000000000000, -1.000000000000000000 ) ) ;
#35 = DIRECTION ( 'NONE',  ( 0.000000000000000000, 0.000000000000000000, 1.000000000000000000 ) ) ;
#36 = EDGE_CURVE ( 'NONE', #142, #124, #225, .T. ) ;
#37 = DIRECTION ( 'NONE',  ( -1.000000000000000000, 0.000000000000000000, 0.000000000000000000 ) ) ;
#38 = DIRECTION ( 'NONE',  ( 1.000000000000000000, 0.000000000000000000, 0.000000000000000000 ) ) ;
#39 = DIRECTION ( 'NONE',  ( 1.000000000000000000, 0.000000000000000000, -0.000000000000000000 ) ) ;
#40 = CARTESIAN_POINT ( 'NONE',  ( -0.6500000000000000222, 0.000000000000000000, 126.5000000000000000 ) ) ;
#41 = DIRECTION ( 'NONE',  ( 1.000000000000000000, 0.000000000000000000, 0.000000000000000000 ) ) ;
#42 = AXIS2_PLACEMENT_3D ( 'NONE', #209, #67, #182 ) ;
#43 = ADVANCED_FACE ( 'NONE', ( #86 ), #228, .F. ) ;
#44 = ORIENTED_EDGE ( 'NONE', *, *, #50, .T. ) ;
#45 = AXIS2_PLACEMENT_3D ( 'NONE', #61, #189, #212 ) ;
#46 = EDGE_LOOP ( 'NONE', ( #4, #267 ) ) ;
#47 = APPLICATION_PROTOCOL_DEFINITION ( 'international standard', 'config_control_design', 1994, #276 ) ;
#48 = ORIENTED_EDGE ( 'NONE', *, *, #32, .F. ) ;
#49 = APPROVAL_DATE_TIME ( #287, #299 ) ;
#50 = EDGE_CURVE ( 'NONE', #124, #51, #137, .T. ) ;
#51 = VERTEX_POINT ( 'NONE', #210 ) ;
#52 = VECTOR ( 'NONE', #278, 1000.000000000000000 ) ;
#53 = CALENDAR_DATE ( 2022, 20, 6 ) ;
#54 = FACE_OUTER_BOUND ( 'NONE', #246, .T. ) ;
#55 = APPROVAL_STATUS ( 'not_yet_approved' ) ;
#56 = AXIS2_PLACEMENT_3D ( 'NONE', #165, #279, #158 ) ;
#57 = CC_DESIGN_APPROVAL ( #296, ( #164 ) ) ;
#58 = DIRECTION ( 'NONE',  ( 0.000000000000000000, 0.000000000000000000, 1.000000000000000000 ) ) ;
#59 = ORIENTED_EDGE ( 'NONE', *, *, #151, .T. ) ;
#60 = ADVANCED_FACE ( 'NONE', ( #199 ), #90, .T. ) ;
#61 = CARTESIAN_POINT ( 'NONE',  ( 0.000000000000000000, 0.000000000000000000, 1.500000000000000000 ) ) ;
#62 = CARTESIAN_POINT ( 'NONE',  ( 0.000000000000000000, 0.000000000000000000, 1.500000000000000000 ) ) ;
#63 = CARTESIAN_POINT ( 'NONE',  ( 0.6500000000000000222, 7.960204194457795477E-17, 126.5000000000000000 ) ) ;
#64 = EDGE_CURVE ( 'NONE', #239, #140, #255, .T. ) ;
#65 = CARTESIAN_POINT ( 'NONE',  ( -0.8499999999999999778, 1.040949779275250140E-16, 1.500000000000003553 ) ) ;
#66 = DIRECTION ( 'NONE',  ( 1.000000000000000000, 0.000000000000000000, 0.000000000000000000 ) ) ;
#67 = DIRECTION ( 'NONE',  ( 0.000000000000000000, 0.000000000000000000, 1.000000000000000000 ) ) ;
#68 = CARTESIAN_POINT ( 'NONE',  ( 1.500000000000000222, 1.836970198721030181E-16, 1.500000000000000000 ) ) ;
#69 = DIRECTION ( 'NONE',  ( 0.000000000000000000, 0.000000000000000000, 1.000000000000000000 ) ) ;
#70 = EDGE_LOOP ( 'NONE', ( #236, #6 ) ) ;
#71 = AXIS2_PLACEMENT_3D ( 'NONE', #256, #284, #37 ) ;
#72 = FACE_OUTER_BOUND ( 'NONE', #70, .T. ) ;
#73 = EDGE_LOOP ( 'NONE', ( #192, #110 ) ) ;
#74 = COORDINATED_UNIVERSAL_TIME_OFFSET ( 1, 0, .AHEAD. ) ;
#75 = ORIENTED_EDGE ( 'NONE', *, *, #257, .F. ) ;
#76 = PERSON_AND_ORGANIZATION_ROLE ( 'classification_officer' ) ;
#77 =( NAMED_UNIT ( * ) PLANE_ANGLE_UNIT ( ) SI_UNIT ( $, .RADIAN. ) );
#78 = VECTOR ( 'NONE', #87, 1000.000000000000000 ) ;
#79 = CC_DESIGN_APPROVAL ( #219, ( #24 ) ) ;
#80 = ORIENTED_EDGE ( 'NONE', *, *, #28, .T. ) ;
#81 = DATE_AND_TIME ( #53, #131 ) ;
#82 = CALENDAR_DATE ( 2022, 20, 6 ) ;
#83 = ORIENTED_EDGE ( 'NONE', *, *, #16, .F. ) ;
#84 = DIRECTION ( 'NONE',  ( 1.000000000000000000, 0.000000000000000000, 0.000000000000000000 ) ) ;
#85 = CARTESIAN_POINT ( 'NONE',  ( 0.000000000000000000, 0.000000000000000000, 1.700000000000007061 ) ) ;
#86 = FACE_OUTER_BOUND ( 'NONE', #163, .T. ) ;
#87 = DIRECTION ( 'NONE',  ( -0.000000000000000000, -0.000000000000000000, -1.000000000000000000 ) ) ;
#88 = APPROVAL_PERSON_ORGANIZATION ( #191, #219, #242 ) ;
#89 = DIRECTION ( 'NONE',  ( 0.000000000000000000, 0.000000000000000000, 1.000000000000000000 ) ) ;
#90 = CYLINDRICAL_SURFACE ( 'NONE', #121, 0.6500000000000000222 ) ;
#91 = DIRECTION ( 'NONE',  ( 1.000000000000000000, 0.000000000000000000, 0.000000000000000000 ) ) ;
#92 = AXIS2_PLACEMENT_3D ( 'NONE', #18, #35, #38 ) ;
#93 = CARTESIAN_POINT ( 'NONE',  ( 0.8499999999999999778, 0.000000000000000000, 1.700000000000007061 ) ) ;
#94 = CC_DESIGN_PERSON_AND_ORGANIZATION_ASSIGNMENT ( #106, #76, ( #164 ) ) ;
#95 = DIRECTION ( 'NONE',  ( 0.000000000000000000, 0.000000000000000000, 1.000000000000000000 ) ) ;
#96 = ORIENTED_EDGE ( 'NONE', *, *, #272, .T. ) ;
#97 = AXIS2_PLACEMENT_3D ( 'NONE', #187, #181, #91 ) ;
#98 = APPROVAL_STATUS ( 'not_yet_approved' ) ;
#99 = ORIENTED_EDGE ( 'NONE', *, *, #16, .T. ) ;
#100 = COORDINATED_UNIVERSAL_TIME_OFFSET ( 1, 0, .AHEAD. ) ;
#101 = ADVANCED_FACE ( 'NONE', ( #179 ), #273, .T. ) ;
#102 = ORIENTED_EDGE ( 'NONE', *, *, #177, .T. ) ;
#103 = CIRCLE ( 'NONE', #289, 0.8499999999999999778 ) ;
#104 = EDGE_LOOP ( 'NONE', ( #258, #31, #262, #260 ) ) ;
#105 = LOCAL_TIME ( 12, 24, 20.00000000000000000, #166 ) ;
#106 = PERSON_AND_ORGANIZATION ( #133, #170 ) ;
#107 = CARTESIAN_POINT ( 'NONE',  ( 0.000000000000000000, 0.000000000000000000, 1.500000000000000000 ) ) ;
#108 = CIRCLE ( 'NONE', #161, 0.6500000000000000222 ) ;
#109 = CC_DESIGN_PERSON_AND_ORGANIZATION_ASSIGNMENT ( #243, #8, ( #24 ) ) ;
#110 = ORIENTED_EDGE ( 'NONE', *, *, #36, .T. ) ;
#111 =( LENGTH_UNIT ( ) NAMED_UNIT ( * ) SI_UNIT ( .MILLI., .METRE. ) );
#112 = CARTESIAN_POINT ( 'NONE',  ( 0.000000000000000000, 0.000000000000000000, 1.500000000000000000 ) ) ;
#113 = FACE_OUTER_BOUND ( 'NONE', #203, .T. ) ;
#114 = CYLINDRICAL_SURFACE ( 'NONE', #178, 0.6500000000000000222 ) ;
#115 = DIRECTION ( 'NONE',  ( -0.000000000000000000, -0.000000000000000000, -1.000000000000000000 ) ) ;
#116 = AXIS2_PLACEMENT_3D ( 'NONE', #231, #89, #39 ) ;
#117 = PLANE ( 'NONE',  #116 ) ;
#118 = DIRECTION ( 'NONE',  ( 1.000000000000000000, 0.000000000000000000, 0.000000000000000000 ) ) ;
#119 = EDGE_CURVE ( 'NONE', #132, #239, #205, .T. ) ;
#120 = DIRECTION ( 'NONE',  ( 0.000000000000000000, 0.000000000000000000, 1.000000000000000000 ) ) ;
#121 = AXIS2_PLACEMENT_3D ( 'NONE', #159, #186, #298 ) ;
#122 = APPROVAL_DATE_TIME ( #168, #296 ) ;
#123 = EDGE_CURVE ( 'NONE', #194, #169, #222, .T. ) ;
#124 = VERTEX_POINT ( 'NONE', #206 ) ;
#125 = ORIENTED_EDGE ( 'NONE', *, *, #123, .F. ) ;
#126 = COORDINATED_UNIVERSAL_TIME_OFFSET ( 1, 0, .AHEAD. ) ;
#127 = ORIENTED_EDGE ( 'NONE', *, *, #64, .F. ) ;
#128 = DIRECTION ( 'NONE',  ( 1.000000000000000000, 0.000000000000000000, 0.000000000000000000 ) ) ;
#129 = AXIS2_PLACEMENT_3D ( 'NONE', #259, #139, #19 ) ;
#130 = AXIS2_PLACEMENT_3D ( 'NONE', #304, #232, #14 ) ;
#131 = LOCAL_TIME ( 12, 24, 20.00000000000000000, #100 ) ;
#132 = VERTEX_POINT ( 'NONE', #277 ) ;
#133 = PERSON ( 'NEURÈENÝ', 'NEURÈENÝ', 'NEURÈENÝ', ('NEURÈENÝ'), ('NEURÈENÝ'), ('NEURÈENÝ') ) ;
#134 = DIRECTION ( 'NONE',  ( -0.000000000000000000, -0.000000000000000000, -1.000000000000000000 ) ) ;
#135 = DIRECTION ( 'NONE',  ( 0.000000000000000000, 0.000000000000000000, 1.000000000000000000 ) ) ;
#136 = FACE_OUTER_BOUND ( 'NONE', #73, .T. ) ;
#137 = LINE ( 'NONE', #280, #173 ) ;
#138 = FACE_BOUND ( 'NONE', #26, .T. ) ;
#139 = DIRECTION ( 'NONE',  ( 1.224646799147353207E-16, 1.000000000000000000, -0.000000000000000000 ) ) ;
#140 = VERTEX_POINT ( 'NONE', #156 ) ;
#141 = CARTESIAN_POINT ( 'NONE',  ( 0.000000000000000000, 0.000000000000000000, 126.5000000000000000 ) ) ;
#142 = VERTEX_POINT ( 'NONE', #234 ) ;
#143 = PERSON_AND_ORGANIZATION_ROLE ( 'creator' ) ;
#144 = ORIENTED_EDGE ( 'NONE', *, *, #177, .F. ) ;
#145 =( GEOMETRIC_REPRESENTATION_CONTEXT ( 3 ) GLOBAL_UNCERTAINTY_ASSIGNED_CONTEXT ( ( #207 ) ) GLOBAL_UNIT_ASSIGNED_CONTEXT ( ( #111, #77, #237 ) ) REPRESENTATION_CONTEXT ( 'NONE', 'WORKASPACE' ) );
#146 = PERSON_AND_ORGANIZATION ( #133, #170 ) ;
#147 = APPROVAL_STATUS ( 'not_yet_approved' ) ;
#148 = PERSON_AND_ORGANIZATION_ROLE ( 'creator' ) ;
#149 = CC_DESIGN_PERSON_AND_ORGANIZATION_ASSIGNMENT ( #268, #148, ( #24 ) ) ;
#150 = APPROVAL_ROLE ( '' ) ;
#151 = EDGE_CURVE ( 'NONE', #140, #194, #108, .T. ) ;
#152 = CIRCLE ( 'NONE', #264, 0.6500000000000000222 ) ;
#153 = DIRECTION ( 'NONE',  ( 1.000000000000000000, 0.000000000000000000, 0.000000000000000000 ) ) ;
#154 = FACE_OUTER_BOUND ( 'NONE', #29, .T. ) ;
#155 = CIRCLE ( 'NONE', #271, 0.6500000000000000222 ) ;
#156 = CARTESIAN_POINT ( 'NONE',  ( -0.6500000000000000222, 0.000000000000000000, 1.700000000000007061 ) ) ;
#157 = DIRECTION ( 'NONE',  ( 0.000000000000000000, 0.000000000000000000, 1.000000000000000000 ) ) ;
#158 = DIRECTION ( 'NONE',  ( 1.000000000000000000, 0.000000000000000000, -0.000000000000000000 ) ) ;
#159 = CARTESIAN_POINT ( 'NONE',  ( 0.000000000000000000, 0.000000000000000000, 126.5000000000000000 ) ) ;
#160 = CYLINDRICAL_SURFACE ( 'NONE', #71, 1.500000000000000222 ) ;
#161 = AXIS2_PLACEMENT_3D ( 'NONE', #85, #120, #211 ) ;
#162 = APPROVAL_PERSON_ORGANIZATION ( #146, #296, #150 ) ;
#163 = EDGE_LOOP ( 'NONE', ( #269, #75, #171, #83 ) ) ;
#164 = SECURITY_CLASSIFICATION ( '', '', #196 ) ;
#165 = CARTESIAN_POINT ( 'NONE',  ( 0.000000000000000000, 0.000000000000000000, 126.5000000000000000 ) ) ;
#166 = COORDINATED_UNIVERSAL_TIME_OFFSET ( 1, 0, .AHEAD. ) ;
#167 = CIRCLE ( 'NONE', #306, 0.8499999999999999778 ) ;
#168 = DATE_AND_TIME ( #21, #105 ) ;
#169 = VERTEX_POINT ( 'NONE', #301 ) ;
#170 = ORGANIZATION ( 'NEURÈENÝ', 'NEURÈENÝ', '' ) ;
#171 = ORIENTED_EDGE ( 'NONE', *, *, #123, .T. ) ;
#172 = ADVANCED_FACE ( 'NONE', ( #113 ), #114, .T. ) ;
#173 = VECTOR ( 'NONE', #115, 1000.000000000000000 ) ;
#174 = ORIENTED_EDGE ( 'NONE', *, *, #197, .F. ) ;
#175 = DATE_AND_TIME ( #82, #33 ) ;
#176 = ORIENTED_EDGE ( 'NONE', *, *, #64, .T. ) ;
#177 = EDGE_CURVE ( 'NONE', #132, #194, #204, .T. ) ;
#178 = AXIS2_PLACEMENT_3D ( 'NONE', #230, #300, #17 ) ;
#179 = FACE_OUTER_BOUND ( 'NONE', #104, .T. ) ;
#180 = EDGE_CURVE ( 'NONE', #239, #132, #152, .T. ) ;
#181 = DIRECTION ( 'NONE',  ( 0.000000000000000000, 0.000000000000000000, 1.000000000000000000 ) ) ;
#182 = DIRECTION ( 'NONE',  ( 1.000000000000000000, 0.000000000000000000, 0.000000000000000000 ) ) ;
#183 = AXIS2_PLACEMENT_3D ( 'NONE', #307, #95, #274 ) ;
#184 = CC_DESIGN_DATE_AND_TIME_ASSIGNMENT ( #81, #288, ( #297 ) ) ;
#185 = CARTESIAN_POINT ( 'NONE',  ( 1.500000000000000222, 1.836970198721030181E-16, 0.000000000000000000 ) ) ;
#186 = DIRECTION ( 'NONE',  ( -0.000000000000000000, -0.000000000000000000, -1.000000000000000000 ) ) ;
#187 = CARTESIAN_POINT ( 'NONE',  ( 0.000000000000000000, 0.000000000000000000, 0.000000000000000000 ) ) ;
#188 = AXIS2_PLACEMENT_3D ( 'NONE', #245, #58, #66 ) ;
#189 = DIRECTION ( 'NONE',  ( -0.000000000000000000, -0.000000000000000000, -1.000000000000000000 ) ) ;
#190 = ORIENTED_EDGE ( 'NONE', *, *, #28, .F. ) ;
#191 = PERSON_AND_ORGANIZATION ( #133, #170 ) ;
#192 = ORIENTED_EDGE ( 'NONE', *, *, #197, .T. ) ;
#193 = DIRECTION ( 'NONE',  ( 0.000000000000000000, 0.000000000000000000, 1.000000000000000000 ) ) ;
#194 = VERTEX_POINT ( 'NONE', #253 ) ;
#195 = PERSON_AND_ORGANIZATION_ROLE ( 'design_owner' ) ;
#196 = SECURITY_CLASSIFICATION_LEVEL ( 'unclassified' ) ;
#197 = EDGE_CURVE ( 'NONE', #124, #142, #251, .T. ) ;
#198 = PRODUCT_RELATED_PRODUCT_CATEGORY ( 'detail', '', ( #25 ) ) ;
#199 = FACE_OUTER_BOUND ( 'NONE', #291, .T. ) ;
#200 = CC_DESIGN_PERSON_AND_ORGANIZATION_ASSIGNMENT ( #220, #195, ( #25 ) ) ;
#201 = CIRCLE ( 'NONE', #129, 0.1999999999999999833 ) ;
#202 = DIRECTION ( 'NONE',  ( -0.000000000000000000, -0.000000000000000000, -1.000000000000000000 ) ) ;
#203 = EDGE_LOOP ( 'NONE', ( #144, #215, #176, #59 ) ) ;
#204 = LINE ( 'NONE', #63, #78 ) ;
#205 = CIRCLE ( 'NONE', #9, 0.6500000000000000222 ) ;
#206 = CARTESIAN_POINT ( 'NONE',  ( -1.500000000000000222, 0.000000000000000000, 1.500000000000000000 ) ) ;
#207 = UNCERTAINTY_MEASURE_WITH_UNIT (LENGTH_MEASURE( 1.000000000000000082E-05 ), #111, 'distance_accuracy_value', 'NONE');
#208 = PRODUCT_DEFINITION_SHAPE ( 'NONE', 'NONE',  #297 ) ;
#209 = CARTESIAN_POINT ( 'NONE',  ( 0.000000000000000000, 0.000000000000000000, 1.500000000000000000 ) ) ;
#210 = CARTESIAN_POINT ( 'NONE',  ( -1.500000000000000222, 0.000000000000000000, 0.000000000000000000 ) ) ;
#211 = DIRECTION ( 'NONE',  ( 1.000000000000000000, 0.000000000000000000, 0.000000000000000000 ) ) ;
#212 = DIRECTION ( 'NONE',  ( -1.000000000000000000, 0.000000000000000000, 0.000000000000000000 ) ) ;
#213 = FACE_OUTER_BOUND ( 'NONE', #46, .T. ) ;
#214 = VECTOR ( 'NONE', #233, 1000.000000000000000 ) ;
#215 = ORIENTED_EDGE ( 'NONE', *, *, #180, .F. ) ;
#216 = PERSON_AND_ORGANIZATION ( #133, #170 ) ;
#217 = VERTEX_POINT ( 'NONE', #65 ) ;
#218 = MANIFOLD_SOLID_BREP ( 'Zaoblit1', #12 ) ;
#219 = APPROVAL ( #147, 'NEURÈENÝ' ) ;
#220 = PERSON_AND_ORGANIZATION ( #133, #170 ) ;
#221 = ORIENTED_EDGE ( 'NONE', *, *, #257, .T. ) ;
#222 = CIRCLE ( 'NONE', #238, 0.2000000000000000944 ) ;
#223 = APPROVAL_ROLE ( '' ) ;
#224 = ADVANCED_FACE ( 'NONE', ( #138, #136 ), #117, .T. ) ;
#225 = CIRCLE ( 'NONE', #30, 1.500000000000000222 ) ;
#226 = CC_DESIGN_SECURITY_CLASSIFICATION ( #164, ( #24 ) ) ;
#227 = ADVANCED_FACE ( 'NONE', ( #213 ), #252, .F. ) ;
#228 = TOROIDAL_SURFACE ( 'NONE', #92, 0.8499999999999999778, 0.2000000000000000111 ) ;
#229 = ADVANCED_FACE ( 'NONE', ( #154 ), #160, .T. ) ;
#230 = CARTESIAN_POINT ( 'NONE',  ( 0.000000000000000000, 0.000000000000000000, 126.5000000000000000 ) ) ;
#231 = CARTESIAN_POINT ( 'NONE',  ( 0.000000000000000000, 0.000000000000000000, 1.500000000000000000 ) ) ;
#232 = DIRECTION ( 'NONE',  ( 0.000000000000000000, 0.000000000000000000, 1.000000000000000000 ) ) ;
#233 = DIRECTION ( 'NONE',  ( -0.000000000000000000, -0.000000000000000000, -1.000000000000000000 ) ) ;
#234 = CARTESIAN_POINT ( 'NONE',  ( 1.500000000000000222, 1.836970198721030181E-16, 1.500000000000000000 ) ) ;
#235 = CARTESIAN_POINT ( 'NONE',  ( -0.6500000000000000222, 0.000000000000000000, 126.5000000000000000 ) ) ;
#236 = ORIENTED_EDGE ( 'NONE', *, *, #180, .T. ) ;
#237 =( NAMED_UNIT ( * ) SI_UNIT ( $, .STERADIAN. ) SOLID_ANGLE_UNIT ( ) );
#238 = AXIS2_PLACEMENT_3D ( 'NONE', #93, #250, #34 ) ;
#239 = VERTEX_POINT ( 'NONE', #235 ) ;
#240 = CC_DESIGN_PERSON_AND_ORGANIZATION_ASSIGNMENT ( #216, #143, ( #297 ) ) ;
#241 = VERTEX_POINT ( 'NONE', #185 ) ;
#242 = APPROVAL_ROLE ( '' ) ;
#243 = PERSON_AND_ORGANIZATION ( #133, #170 ) ;
#244 = ADVANCED_FACE ( 'NONE', ( #72 ), #15, .T. ) ;
#245 = CARTESIAN_POINT ( 'NONE',  ( 0.000000000000000000, 0.000000000000000000, 1.700000000000007061 ) ) ;
#246 = EDGE_LOOP ( 'NONE', ( #285, #96, #190, #125 ) ) ;
#247 = CIRCLE ( 'NONE', #97, 1.500000000000000222 ) ;
#248 = TOROIDAL_SURFACE ( 'NONE', #188, 0.8499999999999999778, 0.2000000000000000111 ) ;
#249 = EDGE_CURVE ( 'NONE', #241, #51, #247, .T. ) ;
#250 = DIRECTION ( 'NONE',  ( 0.000000000000000000, -1.000000000000000000, 0.000000000000000000 ) ) ;
#251 = CIRCLE ( 'NONE', #42, 1.500000000000000222 ) ;
#252 = PLANE ( 'NONE',  #130 ) ;
#253 = CARTESIAN_POINT ( 'NONE',  ( 0.6500000000000000222, 7.960204194457795477E-17, 1.700000000000007061 ) ) ;
#254 = DESIGN_CONTEXT ( 'detailed design', #286, 'design' ) ;
#255 = LINE ( 'NONE', #40, #214 ) ;
#256 = CARTESIAN_POINT ( 'NONE',  ( 0.000000000000000000, 0.000000000000000000, 1.500000000000000000 ) ) ;
#257 = EDGE_CURVE ( 'NONE', #194, #140, #155, .T. ) ;
#258 = ORIENTED_EDGE ( 'NONE', *, *, #36, .F. ) ;
#259 = CARTESIAN_POINT ( 'NONE',  ( -0.8499999999999999778, 1.040949779275250140E-16, 1.700000000000007061 ) ) ;
#260 = ORIENTED_EDGE ( 'NONE', *, *, #50, .F. ) ;
#261 = SHAPE_DEFINITION_REPRESENTATION ( #208, #295 ) ;
#262 = ORIENTED_EDGE ( 'NONE', *, *, #249, .T. ) ;
#263 = CALENDAR_DATE ( 2022, 20, 6 ) ;
#264 = AXIS2_PLACEMENT_3D ( 'NONE', #141, #135, #302 ) ;
#265 = CC_DESIGN_APPROVAL ( #299, ( #297 ) ) ;
#266 = APPLICATION_PROTOCOL_DEFINITION ( 'international standard', 'config_control_design', 1994, #286 ) ;
#267 = ORIENTED_EDGE ( 'NONE', *, *, #249, .F. ) ;
#268 = PERSON_AND_ORGANIZATION ( #133, #170 ) ;
#269 = ORIENTED_EDGE ( 'NONE', *, *, #272, .F. ) ;
#270 = DATE_TIME_ROLE ( 'classification_date' ) ;
#271 = AXIS2_PLACEMENT_3D ( 'NONE', #282, #69, #41 ) ;
#272 = EDGE_CURVE ( 'NONE', #140, #217, #201, .T. ) ;
#273 = CYLINDRICAL_SURFACE ( 'NONE', #45, 1.500000000000000222 ) ;
#274 = DIRECTION ( 'NONE',  ( 1.000000000000000000, 0.000000000000000000, 0.000000000000000000 ) ) ;
#275 = DIRECTION ( 'NONE',  ( 1.000000000000000000, 0.000000000000000000, 0.000000000000000000 ) ) ;
#276 = APPLICATION_CONTEXT ( 'configuration controlled 3d designs of mechanical parts and assemblies' ) ;
#277 = CARTESIAN_POINT ( 'NONE',  ( 0.6500000000000000222, 7.960204194457795477E-17, 126.5000000000000000 ) ) ;
#278 = DIRECTION ( 'NONE',  ( -0.000000000000000000, -0.000000000000000000, -1.000000000000000000 ) ) ;
#279 = DIRECTION ( 'NONE',  ( 0.000000000000000000, 0.000000000000000000, 1.000000000000000000 ) ) ;
#280 = CARTESIAN_POINT ( 'NONE',  ( -1.500000000000000222, 0.000000000000000000, 1.500000000000000000 ) ) ;
#281 = EDGE_CURVE ( 'NONE', #51, #241, #23, .T. ) ;
#282 = CARTESIAN_POINT ( 'NONE',  ( 0.000000000000000000, 0.000000000000000000, 1.700000000000007061 ) ) ;
#283 = CARTESIAN_POINT ( 'NONE',  ( 0.000000000000000000, 0.000000000000000000, 126.5000000000000000 ) ) ;
#284 = DIRECTION ( 'NONE',  ( -0.000000000000000000, -0.000000000000000000, -1.000000000000000000 ) ) ;
#285 = ORIENTED_EDGE ( 'NONE', *, *, #151, .F. ) ;
#286 = APPLICATION_CONTEXT ( 'configuration controlled 3d designs of mechanical parts and assemblies' ) ;
#287 = DATE_AND_TIME ( #263, #290 ) ;
#288 = DATE_TIME_ROLE ( 'creation_date' ) ;
#289 = AXIS2_PLACEMENT_3D ( 'NONE', #107, #202, #153 ) ;
#290 = LOCAL_TIME ( 12, 24, 20.00000000000000000, #126 ) ;
#291 = EDGE_LOOP ( 'NONE', ( #1, #102, #221, #127 ) ) ;
#292 = APPROVAL_DATE_TIME ( #5, #219 ) ;
#293 = COORDINATED_UNIVERSAL_TIME_OFFSET ( 1, 0, .AHEAD. ) ;
#294 = CC_DESIGN_DATE_AND_TIME_ASSIGNMENT ( #175, #270, ( #164 ) ) ;
#295 = ADVANCED_BREP_SHAPE_REPRESENTATION ( '5e9c', ( #218, #303 ), #145 ) ;
#296 = APPROVAL ( #55, 'NEURÈENÝ' ) ;
#297 = PRODUCT_DEFINITION ( 'NEZNÁMÝ', '', #24, #254 ) ;
#298 = DIRECTION ( 'NONE',  ( -1.000000000000000000, 0.000000000000000000, 0.000000000000000000 ) ) ;
#299 = APPROVAL ( #98, 'NEURÈENÝ' ) ;
#300 = DIRECTION ( 'NONE',  ( -0.000000000000000000, -0.000000000000000000, -1.000000000000000000 ) ) ;
#301 = CARTESIAN_POINT ( 'NONE',  ( 0.8499999999999999778, 0.000000000000000000, 1.500000000000003553 ) ) ;
#302 = DIRECTION ( 'NONE',  ( 1.000000000000000000, 0.000000000000000000, 0.000000000000000000 ) ) ;
#303 = AXIS2_PLACEMENT_3D ( 'NONE', #22, #193, #128 ) ;
#304 = CARTESIAN_POINT ( 'NONE',  ( 0.000000000000000000, 0.000000000000000000, 0.000000000000000000 ) ) ;
#305 = DIRECTION ( 'NONE',  ( 0.000000000000000000, 0.000000000000000000, 1.000000000000000000 ) ) ;
#306 = AXIS2_PLACEMENT_3D ( 'NONE', #62, #134, #275 ) ;
#307 = CARTESIAN_POINT ( 'NONE',  ( 0.000000000000000000, 0.000000000000000000, 0.000000000000000000 ) ) ;
ENDSEC;
END-ISO-10303-21;
