ISO-10303-21;
HEADER;
FILE_DESCRIPTION (( 'STEP AP203' ),
    '1' );
FILE_NAME ('e076.STEP',
    '2022-06-20T10:25:28',
    ( '' ),
    ( '' ),
    'SwSTEP 2.0',
    'SolidWorks 2019',
    '' );
FILE_SCHEMA (( 'CONFIG_CONTROL_DESIGN' ));
ENDSEC;

DATA;
#1 = CARTESIAN_POINT ( 'NONE',  ( -0.6999999999999999556, 8.572527594031473190E-17, 1.199999999999999289 ) ) ;
#2 = DIRECTION ( 'NONE',  ( -0.000000000000000000, -0.000000000000000000, -1.000000000000000000 ) ) ;
#3 = CC_DESIGN_PERSON_AND_ORGANIZATION_ASSIGNMENT ( #112, #278, ( #257 ) ) ;
#4 = DIRECTION ( 'NONE',  ( 1.000000000000000000, 0.000000000000000000, 0.000000000000000000 ) ) ;
#5 = FACE_OUTER_BOUND ( 'NONE', #9, .T. ) ;
#6 = EDGE_CURVE ( 'NONE', #52, #64, #277, .T. ) ;
#7 = CARTESIAN_POINT ( 'NONE',  ( 0.6999999999999999556, 0.000000000000000000, 1.399999999999998579 ) ) ;
#8 = ORIENTED_EDGE ( 'NONE', *, *, #60, .T. ) ;
#9 = EDGE_LOOP ( 'NONE', ( #270, #126, #269, #26 ) ) ;
#10 = ORIENTED_EDGE ( 'NONE', *, *, #121, .F. ) ;
#11 = CC_DESIGN_PERSON_AND_ORGANIZATION_ASSIGNMENT ( #274, #36, ( #297 ) ) ;
#12 = CIRCLE ( 'NONE', #189, 0.5000000000000000000 ) ;
#13 = DIRECTION ( 'NONE',  ( 1.000000000000000000, 0.000000000000000000, 0.000000000000000000 ) ) ;
#14 = PERSON_AND_ORGANIZATION ( #103, #306 ) ;
#15 = VERTEX_POINT ( 'NONE', #153 ) ;
#16 = CALENDAR_DATE ( 2022, 20, 6 ) ;
#17 = DIRECTION ( 'NONE',  ( 0.000000000000000000, 0.000000000000000000, 1.000000000000000000 ) ) ;
#18 = LINE ( 'NONE', #130, #263 ) ;
#19 = LOCAL_TIME ( 12, 25, 28.00000000000000000, #108 ) ;
#20 = EDGE_CURVE ( 'NONE', #146, #64, #193, .T. ) ;
#21 = CC_DESIGN_SECURITY_CLASSIFICATION ( #150, ( #297 ) ) ;
#22 = DIRECTION ( 'NONE',  ( 1.000000000000000000, 0.000000000000000000, 0.000000000000000000 ) ) ;
#23 = CARTESIAN_POINT ( 'NONE',  ( 0.000000000000000000, 0.000000000000000000, 126.2000000000000028 ) ) ;
#24 = LINE ( 'NONE', #167, #49 ) ;
#25 = DIRECTION ( 'NONE',  ( 0.000000000000000000, 0.000000000000000000, 1.000000000000000000 ) ) ;
#26 = ORIENTED_EDGE ( 'NONE', *, *, #244, .F. ) ;
#27 = AXIS2_PLACEMENT_3D ( 'NONE', #76, #168, #266 ) ;
#28 = CC_DESIGN_DATE_AND_TIME_ASSIGNMENT ( #85, #233, ( #150 ) ) ;
#29 = ORIENTED_EDGE ( 'NONE', *, *, #188, .F. ) ;
#30 = CIRCLE ( 'NONE', #55, 0.6999999999999999556 ) ;
#31 = ADVANCED_FACE ( 'NONE', ( #275 ), #34, .T. ) ;
#32 = EDGE_LOOP ( 'NONE', ( #227, #292 ) ) ;
#33 = COORDINATED_UNIVERSAL_TIME_OFFSET ( 1, 0, .AHEAD. ) ;
#34 = CYLINDRICAL_SURFACE ( 'NONE', #97, 1.250000000000000000 ) ;
#35 = CARTESIAN_POINT ( 'NONE',  ( 0.000000000000000000, 0.000000000000000000, 1.199999999999999956 ) ) ;
#36 = PERSON_AND_ORGANIZATION_ROLE ( 'design_supplier' ) ;
#37 = FACE_OUTER_BOUND ( 'NONE', #303, .T. ) ;
#38 = CALENDAR_DATE ( 2022, 20, 6 ) ;
#39 = LOCAL_TIME ( 12, 25, 28.00000000000000000, #280 ) ;
#40 = CARTESIAN_POINT ( 'NONE',  ( 0.000000000000000000, 0.000000000000000000, 1.399999999999998579 ) ) ;
#41 = DATE_AND_TIME ( #202, #44 ) ;
#42 = EDGE_CURVE ( 'NONE', #79, #15, #101, .T. ) ;
#43 = PLANE ( 'NONE',  #27 ) ;
#44 = LOCAL_TIME ( 12, 25, 28.00000000000000000, #33 ) ;
#45 = DIRECTION ( 'NONE',  ( 1.000000000000000000, 0.000000000000000000, 0.000000000000000000 ) ) ;
#46 = CIRCLE ( 'NONE', #89, 1.250000000000000000 ) ;
#47 = DIRECTION ( 'NONE',  ( 0.000000000000000000, 0.000000000000000000, 1.000000000000000000 ) ) ;
#48 = DIRECTION ( 'NONE',  ( -1.000000000000000000, 1.224646799147352714E-16, 0.000000000000000000 ) ) ;
#49 = VECTOR ( 'NONE', #2, 1000.000000000000000 ) ;
#50 = CC_DESIGN_PERSON_AND_ORGANIZATION_ASSIGNMENT ( #301, #260, ( #232 ) ) ;
#51 = ORIENTED_EDGE ( 'NONE', *, *, #122, .T. ) ;
#52 = VERTEX_POINT ( 'NONE', #208 ) ;
#53 = ORIENTED_EDGE ( 'NONE', *, *, #161, .T. ) ;
#54 = EDGE_LOOP ( 'NONE', ( #29, #151, #222, #107 ) ) ;
#55 = AXIS2_PLACEMENT_3D ( 'NONE', #216, #70, #4 ) ;
#56 = DIRECTION ( 'NONE',  ( -0.000000000000000000, -0.000000000000000000, -1.000000000000000000 ) ) ;
#57 = APPROVAL_STATUS ( 'not_yet_approved' ) ;
#58 = ORIENTED_EDGE ( 'NONE', *, *, #196, .F. ) ;
#59 = MECHANICAL_CONTEXT ( 'NONE', #128, 'mechanical' ) ;
#60 = EDGE_CURVE ( 'NONE', #125, #146, #18, .T. ) ;
#61 = AXIS2_PLACEMENT_3D ( 'NONE', #262, #214, #48 ) ;
#62 = CARTESIAN_POINT ( 'NONE',  ( 0.000000000000000000, 0.000000000000000000, 1.399999999999998579 ) ) ;
#63 = PERSON_AND_ORGANIZATION_ROLE ( 'creator' ) ;
#64 = VERTEX_POINT ( 'NONE', #115 ) ;
#65 = DATE_AND_TIME ( #186, #19 ) ;
#66 = EDGE_LOOP ( 'NONE', ( #170, #255 ) ) ;
#67 = CC_DESIGN_PERSON_AND_ORGANIZATION_ASSIGNMENT ( #156, #135, ( #150 ) ) ;
#68 = DIRECTION ( 'NONE',  ( 1.000000000000000000, 0.000000000000000000, 0.000000000000000000 ) ) ;
#69 = TOROIDAL_SURFACE ( 'NONE', #123, 0.6999999999999999556, 0.2000000000000000111 ) ;
#70 = DIRECTION ( 'NONE',  ( -0.000000000000000000, -0.000000000000000000, -1.000000000000000000 ) ) ;
#71 = DIRECTION ( 'NONE',  ( 0.000000000000000000, 0.000000000000000000, -1.000000000000000000 ) ) ;
#72 = PRODUCT_DEFINITION_SHAPE ( 'NONE', 'NONE',  #257 ) ;
#73 = CARTESIAN_POINT ( 'NONE',  ( 1.250000000000000000, 1.530808498934191571E-16, 0.000000000000000000 ) ) ;
#74 = CIRCLE ( 'NONE', #165, 0.5000000000000000000 ) ;
#75 = DIRECTION ( 'NONE',  ( 0.000000000000000000, 0.000000000000000000, 1.000000000000000000 ) ) ;
#76 = CARTESIAN_POINT ( 'NONE',  ( 0.000000000000000000, 0.000000000000000000, 0.000000000000000000 ) ) ;
#77 = ADVANCED_FACE ( 'NONE', ( #210 ), #90, .T. ) ;
#78 = VECTOR ( 'NONE', #157, 1000.000000000000000 ) ;
#79 = VERTEX_POINT ( 'NONE', #182 ) ;
#80 = ORIENTED_EDGE ( 'NONE', *, *, #121, .T. ) ;
#81 = ORIENTED_EDGE ( 'NONE', *, *, #147, .F. ) ;
#82 = ORIENTED_EDGE ( 'NONE', *, *, #60, .F. ) ;
#83 = DIRECTION ( 'NONE',  ( 0.000000000000000000, 0.000000000000000000, 1.000000000000000000 ) ) ;
#84 = DIRECTION ( 'NONE',  ( 0.000000000000000000, 0.000000000000000000, 1.000000000000000000 ) ) ;
#85 = DATE_AND_TIME ( #307, #247 ) ;
#86 = CC_DESIGN_PERSON_AND_ORGANIZATION_ASSIGNMENT ( #14, #63, ( #297 ) ) ;
#87 = CARTESIAN_POINT ( 'NONE',  ( -1.250000000000000000, 0.000000000000000000, 0.000000000000000000 ) ) ;
#88 = AXIS2_PLACEMENT_3D ( 'NONE', #62, #133, #113 ) ;
#89 = AXIS2_PLACEMENT_3D ( 'NONE', #220, #75, #120 ) ;
#90 = CYLINDRICAL_SURFACE ( 'NONE', #219, 1.250000000000000000 ) ;
#91 = APPROVAL_ROLE ( '' ) ;
#92 = AXIS2_PLACEMENT_3D ( 'NONE', #191, #47, #218 ) ;
#93 = APPROVAL ( #209, 'NEURÈENÝ' ) ;
#94 = FACE_OUTER_BOUND ( 'NONE', #66, .T. ) ;
#95 = SECURITY_CLASSIFICATION_LEVEL ( 'unclassified' ) ;
#96 = VERTEX_POINT ( 'NONE', #1 ) ;
#97 = AXIS2_PLACEMENT_3D ( 'NONE', #237, #56, #118 ) ;
#98 = DIRECTION ( 'NONE',  ( 0.000000000000000000, -1.000000000000000000, 0.000000000000000000 ) ) ;
#99 = TOROIDAL_SURFACE ( 'NONE', #183, 0.6999999999999999556, 0.2000000000000000111 ) ;
#100 = CYLINDRICAL_SURFACE ( 'NONE', #248, 0.5000000000000000000 ) ;
#101 = CIRCLE ( 'NONE', #268, 1.250000000000000000 ) ;
#102 = LINE ( 'NONE', #190, #229 ) ;
#103 = PERSON ( 'NEURÈENÝ', 'NEURÈENÝ', 'NEURÈENÝ', ('NEURÈENÝ'), ('NEURÈENÝ'), ('NEURÈENÝ') ) ;
#104 = DIRECTION ( 'NONE',  ( 0.000000000000000000, 0.000000000000000000, 1.000000000000000000 ) ) ;
#105 = ADVANCED_FACE ( 'NONE', ( #37 ), #69, .F. ) ;
#106 = AXIS2_PLACEMENT_3D ( 'NONE', #110, #132, #305 ) ;
#107 = ORIENTED_EDGE ( 'NONE', *, *, #109, .T. ) ;
#108 = COORDINATED_UNIVERSAL_TIME_OFFSET ( 1, 0, .AHEAD. ) ;
#109 = EDGE_CURVE ( 'NONE', #143, #223, #243, .T. ) ;
#110 = CARTESIAN_POINT ( 'NONE',  ( 0.000000000000000000, 0.000000000000000000, 1.199999999999999956 ) ) ;
#111 = DIRECTION ( 'NONE',  ( 1.000000000000000000, 0.000000000000000000, 0.000000000000000000 ) ) ;
#112 = PERSON_AND_ORGANIZATION ( #103, #306 ) ;
#113 = DIRECTION ( 'NONE',  ( 1.000000000000000000, 0.000000000000000000, 0.000000000000000000 ) ) ;
#114 = SHAPE_DEFINITION_REPRESENTATION ( #72, #184 ) ;
#115 = CARTESIAN_POINT ( 'NONE',  ( -0.5000000000000000000, 0.000000000000000000, 1.399999999999998579 ) ) ;
#116 = COORDINATED_UNIVERSAL_TIME_OFFSET ( 1, 0, .AHEAD. ) ;
#117 = APPROVAL_PERSON_ORGANIZATION ( #299, #138, #154 ) ;
#118 = DIRECTION ( 'NONE',  ( -1.000000000000000000, 0.000000000000000000, 0.000000000000000000 ) ) ;
#119 = CARTESIAN_POINT ( 'NONE',  ( 0.5000000000000000000, 6.123233995736766036E-17, 1.399999999999998579 ) ) ;
#120 = DIRECTION ( 'NONE',  ( 1.000000000000000000, 0.000000000000000000, 0.000000000000000000 ) ) ;
#121 = EDGE_CURVE ( 'NONE', #177, #96, #302, .T. ) ;
#122 = EDGE_CURVE ( 'NONE', #223, #143, #142, .T. ) ;
#123 = AXIS2_PLACEMENT_3D ( 'NONE', #40, #17, #148 ) ;
#124 = DIRECTION ( 'NONE',  ( 1.000000000000000000, 0.000000000000000000, 0.000000000000000000 ) ) ;
#125 = VERTEX_POINT ( 'NONE', #206 ) ;
#126 = ORIENTED_EDGE ( 'NONE', *, *, #20, .F. ) ;
#127 = AXIS2_PLACEMENT_3D ( 'NONE', #250, #134, #13 ) ;
#128 = APPLICATION_CONTEXT ( 'configuration controlled 3d designs of mechanical parts and assemblies' ) ;
#129 = ADVANCED_FACE ( 'NONE', ( #94 ), #185, .T. ) ;
#130 = CARTESIAN_POINT ( 'NONE',  ( 0.5000000000000000000, 6.123233995736766036E-17, 126.2000000000000028 ) ) ;
#131 = AXIS2_PLACEMENT_3D ( 'NONE', #23, #195, #22 ) ;
#132 = DIRECTION ( 'NONE',  ( -0.000000000000000000, -0.000000000000000000, -1.000000000000000000 ) ) ;
#133 = DIRECTION ( 'NONE',  ( 0.000000000000000000, 0.000000000000000000, 1.000000000000000000 ) ) ;
#134 = DIRECTION ( 'NONE',  ( 0.000000000000000000, 0.000000000000000000, 1.000000000000000000 ) ) ;
#135 = PERSON_AND_ORGANIZATION_ROLE ( 'classification_officer' ) ;
#136 = DIRECTION ( 'NONE',  ( 0.000000000000000000, 0.000000000000000000, 1.000000000000000000 ) ) ;
#137 = DATE_AND_TIME ( #16, #39 ) ;
#138 = APPROVAL ( #276, 'NEURÈENÝ' ) ;
#139 = CARTESIAN_POINT ( 'NONE',  ( 0.6999999999999999556, 0.000000000000000000, 1.199999999999999289 ) ) ;
#140 = CIRCLE ( 'NONE', #61, 0.1999999999999999833 ) ;
#141 = EDGE_CURVE ( 'NONE', #64, #146, #74, .T. ) ;
#142 = CIRCLE ( 'NONE', #169, 1.250000000000000000 ) ;
#143 = VERTEX_POINT ( 'NONE', #87 ) ;
#144 = ORIENTED_EDGE ( 'NONE', *, *, #221, .F. ) ;
#145 = ORIENTED_EDGE ( 'NONE', *, *, #42, .T. ) ;
#146 = VERTEX_POINT ( 'NONE', #119 ) ;
#147 = EDGE_CURVE ( 'NONE', #146, #177, #287, .T. ) ;
#148 = DIRECTION ( 'NONE',  ( 1.000000000000000000, 0.000000000000000000, 0.000000000000000000 ) ) ;
#149 = APPROVAL_DATE_TIME ( #137, #93 ) ;
#150 = SECURITY_CLASSIFICATION ( '', '', #95 ) ;
#151 = ORIENTED_EDGE ( 'NONE', *, *, #236, .F. ) ;
#152 = DATE_TIME_ROLE ( 'creation_date' ) ;
#153 = CARTESIAN_POINT ( 'NONE',  ( -1.250000000000000000, 0.000000000000000000, 1.199999999999999956 ) ) ;
#154 = APPROVAL_ROLE ( '' ) ;
#155 = DIRECTION ( 'NONE',  ( -0.000000000000000000, -0.000000000000000000, -1.000000000000000000 ) ) ;
#156 = PERSON_AND_ORGANIZATION ( #103, #306 ) ;
#157 = DIRECTION ( 'NONE',  ( -0.000000000000000000, -0.000000000000000000, -1.000000000000000000 ) ) ;
#158 = DESIGN_CONTEXT ( 'detailed design', #159, 'design' ) ;
#159 = APPLICATION_CONTEXT ( 'configuration controlled 3d designs of mechanical parts and assemblies' ) ;
#160 = FACE_OUTER_BOUND ( 'NONE', #245, .T. ) ;
#161 = EDGE_CURVE ( 'NONE', #64, #96, #140, .T. ) ;
#162 = APPROVAL_PERSON_ORGANIZATION ( #235, #175, #91 ) ;
#163 = CARTESIAN_POINT ( 'NONE',  ( 0.000000000000000000, 0.000000000000000000, 126.2000000000000028 ) ) ;
#164 = FACE_OUTER_BOUND ( 'NONE', #32, .T. ) ;
#165 = AXIS2_PLACEMENT_3D ( 'NONE', #179, #273, #300 ) ;
#166 = AXIS2_PLACEMENT_3D ( 'NONE', #258, #83, #68 ) ;
#167 = CARTESIAN_POINT ( 'NONE',  ( 1.250000000000000000, 1.530808498934191571E-16, 1.199999999999999956 ) ) ;
#168 = DIRECTION ( 'NONE',  ( 0.000000000000000000, 0.000000000000000000, 1.000000000000000000 ) ) ;
#169 = AXIS2_PLACEMENT_3D ( 'NONE', #203, #136, #111 ) ;
#170 = ORIENTED_EDGE ( 'NONE', *, *, #221, .T. ) ;
#171 = EDGE_CURVE ( 'NONE', #125, #52, #12, .T. ) ;
#172 = ORIENTED_EDGE ( 'NONE', *, *, #42, .F. ) ;
#173 = EDGE_LOOP ( 'NONE', ( #82, #144, #200, #181 ) ) ;
#174 = APPROVAL_PERSON_ORGANIZATION ( #296, #93, #271 ) ;
#175 = APPROVAL ( #57, 'NEURÈENÝ' ) ;
#176 = ORIENTED_EDGE ( 'NONE', *, *, #171, .F. ) ;
#177 = VERTEX_POINT ( 'NONE', #139 ) ;
#178 = APPROVAL_DATE_TIME ( #205, #175 ) ;
#179 = CARTESIAN_POINT ( 'NONE',  ( 0.000000000000000000, 0.000000000000000000, 1.399999999999998579 ) ) ;
#180 = COORDINATED_UNIVERSAL_TIME_OFFSET ( 1, 0, .AHEAD. ) ;
#181 = ORIENTED_EDGE ( 'NONE', *, *, #141, .T. ) ;
#182 = CARTESIAN_POINT ( 'NONE',  ( 1.250000000000000000, 1.530808498934191571E-16, 1.199999999999999956 ) ) ;
#183 = AXIS2_PLACEMENT_3D ( 'NONE', #242, #25, #124 ) ;
#184 = ADVANCED_BREP_SHAPE_REPRESENTATION ( 'e076', ( #217, #166 ), #225 ) ;
#185 = PLANE ( 'NONE',  #215 ) ;
#186 = CALENDAR_DATE ( 2022, 20, 6 ) ;
#187 = ORIENTED_EDGE ( 'NONE', *, *, #20, .T. ) ;
#188 = EDGE_CURVE ( 'NONE', #79, #223, #24, .T. ) ;
#189 = AXIS2_PLACEMENT_3D ( 'NONE', #163, #104, #45 ) ;
#190 = CARTESIAN_POINT ( 'NONE',  ( -1.250000000000000000, 0.000000000000000000, 1.199999999999999956 ) ) ;
#191 = CARTESIAN_POINT ( 'NONE',  ( 0.000000000000000000, 0.000000000000000000, 1.199999999999999956 ) ) ;
#192 = DIRECTION ( 'NONE',  ( -0.000000000000000000, -0.000000000000000000, -1.000000000000000000 ) ) ;
#193 = CIRCLE ( 'NONE', #88, 0.5000000000000000000 ) ;
#194 =( NAMED_UNIT ( * ) PLANE_ANGLE_UNIT ( ) SI_UNIT ( $, .RADIAN. ) );
#195 = DIRECTION ( 'NONE',  ( 0.000000000000000000, 0.000000000000000000, 1.000000000000000000 ) ) ;
#196 = EDGE_CURVE ( 'NONE', #15, #143, #102, .T. ) ;
#197 = CLOSED_SHELL ( 'NONE', ( #105, #289, #31, #77, #252, #294, #199, #129, #272 ) ) ;
#198 = AXIS2_PLACEMENT_3D ( 'NONE', #7, #98, #71 ) ;
#199 = ADVANCED_FACE ( 'NONE', ( #240 ), #288, .T. ) ;
#200 = ORIENTED_EDGE ( 'NONE', *, *, #6, .T. ) ;
#201 =( NAMED_UNIT ( * ) SI_UNIT ( $, .STERADIAN. ) SOLID_ANGLE_UNIT ( ) );
#202 = CALENDAR_DATE ( 2022, 20, 6 ) ;
#203 = CARTESIAN_POINT ( 'NONE',  ( 0.000000000000000000, 0.000000000000000000, 0.000000000000000000 ) ) ;
#204 = LOCAL_TIME ( 12, 25, 28.00000000000000000, #180 ) ;
#205 = DATE_AND_TIME ( #38, #204 ) ;
#206 = CARTESIAN_POINT ( 'NONE',  ( 0.5000000000000000000, 6.123233995736766036E-17, 126.2000000000000028 ) ) ;
#207 = APPLICATION_PROTOCOL_DEFINITION ( 'international standard', 'config_control_design', 1994, #159 ) ;
#208 = CARTESIAN_POINT ( 'NONE',  ( -0.5000000000000000000, 0.000000000000000000, 126.2000000000000028 ) ) ;
#209 = APPROVAL_STATUS ( 'not_yet_approved' ) ;
#210 = FACE_OUTER_BOUND ( 'NONE', #54, .T. ) ;
#211 = APPROVAL_DATE_TIME ( #41, #138 ) ;
#212 = CC_DESIGN_DATE_AND_TIME_ASSIGNMENT ( #65, #152, ( #257 ) ) ;
#213 = DIRECTION ( 'NONE',  ( -1.000000000000000000, 0.000000000000000000, 0.000000000000000000 ) ) ;
#214 = DIRECTION ( 'NONE',  ( 1.224646799147353207E-16, 1.000000000000000000, -0.000000000000000000 ) ) ;
#215 = AXIS2_PLACEMENT_3D ( 'NONE', #298, #84, #279 ) ;
#216 = CARTESIAN_POINT ( 'NONE',  ( 0.000000000000000000, 0.000000000000000000, 1.199999999999999956 ) ) ;
#217 = MANIFOLD_SOLID_BREP ( 'Zaoblit1', #197 ) ;
#218 = DIRECTION ( 'NONE',  ( 1.000000000000000000, 0.000000000000000000, -0.000000000000000000 ) ) ;
#219 = AXIS2_PLACEMENT_3D ( 'NONE', #228, #155, #213 ) ;
#220 = CARTESIAN_POINT ( 'NONE',  ( 0.000000000000000000, 0.000000000000000000, 1.199999999999999956 ) ) ;
#221 = EDGE_CURVE ( 'NONE', #52, #125, #239, .T. ) ;
#222 = ORIENTED_EDGE ( 'NONE', *, *, #196, .T. ) ;
#223 = VERTEX_POINT ( 'NONE', #73 ) ;
#224 = AXIS2_PLACEMENT_3D ( 'NONE', #281, #265, #241 ) ;
#225 =( GEOMETRIC_REPRESENTATION_CONTEXT ( 3 ) GLOBAL_UNCERTAINTY_ASSIGNED_CONTEXT ( ( #254 ) ) GLOBAL_UNIT_ASSIGNED_CONTEXT ( ( #291, #194, #201 ) ) REPRESENTATION_CONTEXT ( 'NONE', 'WORKASPACE' ) );
#226 = ORIENTED_EDGE ( 'NONE', *, *, #141, .F. ) ;
#227 = ORIENTED_EDGE ( 'NONE', *, *, #109, .F. ) ;
#228 = CARTESIAN_POINT ( 'NONE',  ( 0.000000000000000000, 0.000000000000000000, 1.199999999999999956 ) ) ;
#229 = VECTOR ( 'NONE', #238, 1000.000000000000000 ) ;
#230 = ORIENTED_EDGE ( 'NONE', *, *, #188, .T. ) ;
#231 = DIRECTION ( 'NONE',  ( 1.000000000000000000, 0.000000000000000000, 0.000000000000000000 ) ) ;
#232 = PRODUCT ( 'e076', 'e076', '', ( #59 ) ) ;
#233 = DATE_TIME_ROLE ( 'classification_date' ) ;
#234 = DIRECTION ( 'NONE',  ( -0.000000000000000000, -0.000000000000000000, -1.000000000000000000 ) ) ;
#235 = PERSON_AND_ORGANIZATION ( #103, #306 ) ;
#236 = EDGE_CURVE ( 'NONE', #15, #79, #46, .T. ) ;
#237 = CARTESIAN_POINT ( 'NONE',  ( 0.000000000000000000, 0.000000000000000000, 1.199999999999999956 ) ) ;
#238 = DIRECTION ( 'NONE',  ( -0.000000000000000000, -0.000000000000000000, -1.000000000000000000 ) ) ;
#239 = CIRCLE ( 'NONE', #131, 0.5000000000000000000 ) ;
#240 = FACE_OUTER_BOUND ( 'NONE', #173, .T. ) ;
#241 = DIRECTION ( 'NONE',  ( -1.000000000000000000, 0.000000000000000000, 0.000000000000000000 ) ) ;
#242 = CARTESIAN_POINT ( 'NONE',  ( 0.000000000000000000, 0.000000000000000000, 1.399999999999998579 ) ) ;
#243 = CIRCLE ( 'NONE', #127, 1.250000000000000000 ) ;
#244 = EDGE_CURVE ( 'NONE', #96, #177, #30, .T. ) ;
#245 = EDGE_LOOP ( 'NONE', ( #176, #8, #187, #267 ) ) ;
#246 = EDGE_LOOP ( 'NONE', ( #293, #145 ) ) ;
#247 = LOCAL_TIME ( 12, 25, 28.00000000000000000, #116 ) ;
#248 = AXIS2_PLACEMENT_3D ( 'NONE', #261, #192, #286 ) ;
#249 = ORIENTED_EDGE ( 'NONE', *, *, #244, .T. ) ;
#250 = CARTESIAN_POINT ( 'NONE',  ( 0.000000000000000000, 0.000000000000000000, 0.000000000000000000 ) ) ;
#251 = CC_DESIGN_APPROVAL ( #93, ( #150 ) ) ;
#252 = ADVANCED_FACE ( 'NONE', ( #285, #282 ), #264, .T. ) ;
#253 = DIRECTION ( 'NONE',  ( 0.000000000000000000, 0.000000000000000000, 1.000000000000000000 ) ) ;
#254 = UNCERTAINTY_MEASURE_WITH_UNIT (LENGTH_MEASURE( 1.000000000000000082E-05 ), #291, 'distance_accuracy_value', 'NONE');
#255 = ORIENTED_EDGE ( 'NONE', *, *, #171, .T. ) ;
#256 = CARTESIAN_POINT ( 'NONE',  ( -0.5000000000000000000, 0.000000000000000000, 126.2000000000000028 ) ) ;
#257 = PRODUCT_DEFINITION ( 'NEZNÁMÝ', '', #297, #158 ) ;
#258 = CARTESIAN_POINT ( 'NONE',  ( 0.000000000000000000, 0.000000000000000000, 0.000000000000000000 ) ) ;
#259 = EDGE_LOOP ( 'NONE', ( #172, #230, #51, #58 ) ) ;
#260 = PERSON_AND_ORGANIZATION_ROLE ( 'design_owner' ) ;
#261 = CARTESIAN_POINT ( 'NONE',  ( 0.000000000000000000, 0.000000000000000000, 126.2000000000000028 ) ) ;
#262 = CARTESIAN_POINT ( 'NONE',  ( -0.6999999999999999556, 8.572527594031471957E-17, 1.399999999999998579 ) ) ;
#263 = VECTOR ( 'NONE', #234, 1000.000000000000000 ) ;
#264 = PLANE ( 'NONE',  #92 ) ;
#265 = DIRECTION ( 'NONE',  ( -0.000000000000000000, -0.000000000000000000, -1.000000000000000000 ) ) ;
#266 = DIRECTION ( 'NONE',  ( 1.000000000000000000, 0.000000000000000000, -0.000000000000000000 ) ) ;
#267 = ORIENTED_EDGE ( 'NONE', *, *, #6, .F. ) ;
#268 = AXIS2_PLACEMENT_3D ( 'NONE', #35, #253, #231 ) ;
#269 = ORIENTED_EDGE ( 'NONE', *, *, #147, .T. ) ;
#270 = ORIENTED_EDGE ( 'NONE', *, *, #161, .F. ) ;
#271 = APPROVAL_ROLE ( '' ) ;
#272 = ADVANCED_FACE ( 'NONE', ( #5 ), #99, .F. ) ;
#273 = DIRECTION ( 'NONE',  ( 0.000000000000000000, 0.000000000000000000, 1.000000000000000000 ) ) ;
#274 = PERSON_AND_ORGANIZATION ( #103, #306 ) ;
#275 = FACE_OUTER_BOUND ( 'NONE', #259, .T. ) ;
#276 = APPROVAL_STATUS ( 'not_yet_approved' ) ;
#277 = LINE ( 'NONE', #256, #78 ) ;
#278 = PERSON_AND_ORGANIZATION_ROLE ( 'creator' ) ;
#279 = DIRECTION ( 'NONE',  ( 1.000000000000000000, 0.000000000000000000, -0.000000000000000000 ) ) ;
#280 = COORDINATED_UNIVERSAL_TIME_OFFSET ( 1, 0, .AHEAD. ) ;
#281 = CARTESIAN_POINT ( 'NONE',  ( 0.000000000000000000, 0.000000000000000000, 126.2000000000000028 ) ) ;
#282 = FACE_OUTER_BOUND ( 'NONE', #246, .T. ) ;
#283 = CC_DESIGN_APPROVAL ( #175, ( #297 ) ) ;
#284 = PRODUCT_RELATED_PRODUCT_CATEGORY ( 'detail', '', ( #232 ) ) ;
#285 = FACE_BOUND ( 'NONE', #295, .T. ) ;
#286 = DIRECTION ( 'NONE',  ( -1.000000000000000000, 0.000000000000000000, 0.000000000000000000 ) ) ;
#287 = CIRCLE ( 'NONE', #198, 0.2000000000000000944 ) ;
#288 = CYLINDRICAL_SURFACE ( 'NONE', #224, 0.5000000000000000000 ) ;
#289 = ADVANCED_FACE ( 'NONE', ( #160 ), #100, .T. ) ;
#290 = CC_DESIGN_APPROVAL ( #138, ( #257 ) ) ;
#291 =( LENGTH_UNIT ( ) NAMED_UNIT ( * ) SI_UNIT ( .MILLI., .METRE. ) );
#292 = ORIENTED_EDGE ( 'NONE', *, *, #122, .F. ) ;
#293 = ORIENTED_EDGE ( 'NONE', *, *, #236, .T. ) ;
#294 = ADVANCED_FACE ( 'NONE', ( #164 ), #43, .F. ) ;
#295 = EDGE_LOOP ( 'NONE', ( #80, #249 ) ) ;
#296 = PERSON_AND_ORGANIZATION ( #103, #306 ) ;
#297 = PRODUCT_DEFINITION_FORMATION_WITH_SPECIFIED_SOURCE ( 'LIBOVOLNÝ', '', #232, .NOT_KNOWN. ) ;
#298 = CARTESIAN_POINT ( 'NONE',  ( 0.000000000000000000, 0.000000000000000000, 126.2000000000000028 ) ) ;
#299 = PERSON_AND_ORGANIZATION ( #103, #306 ) ;
#300 = DIRECTION ( 'NONE',  ( 1.000000000000000000, 0.000000000000000000, 0.000000000000000000 ) ) ;
#301 = PERSON_AND_ORGANIZATION ( #103, #306 ) ;
#302 = CIRCLE ( 'NONE', #106, 0.6999999999999999556 ) ;
#303 = EDGE_LOOP ( 'NONE', ( #226, #53, #10, #81 ) ) ;
#304 = APPLICATION_PROTOCOL_DEFINITION ( 'international standard', 'config_control_design', 1994, #128 ) ;
#305 = DIRECTION ( 'NONE',  ( 1.000000000000000000, 0.000000000000000000, 0.000000000000000000 ) ) ;
#306 = ORGANIZATION ( 'NEURÈENÝ', 'NEURÈENÝ', '' ) ;
#307 = CALENDAR_DATE ( 2022, 20, 6 ) ;
ENDSEC;
END-ISO-10303-21;
