ISO-10303-21;
HEADER;
FILE_DESCRIPTION (( 'STEP AP203' ),
    '1' );
FILE_NAME ('2600.STEP',
    '2022-06-20T10:00:33',
    ( '' ),
    ( '' ),
    'SwSTEP 2.0',
    'SolidWorks 2019',
    '' );
FILE_SCHEMA (( 'CONFIG_CONTROL_DESIGN' ));
ENDSEC;

DATA;
#1 = DIRECTION ( 'NONE',  ( 0.000000000000000000, -1.000000000000000000, 0.000000000000000000 ) ) ;
#2 = CALENDAR_DATE ( 2022, 20, 6 ) ;
#3 = CARTESIAN_POINT ( 'NONE',  ( -2.750000000000000000, 0.000000000000000000, 3.199999999999994404 ) ) ;
#4 = EDGE_CURVE ( 'NONE', #15, #38, #102, .T. ) ;
#5 = ORIENTED_EDGE ( 'NONE', *, *, #169, .T. ) ;
#6 = CIRCLE ( 'NONE', #279, 2.949999999999999734 ) ;
#7 = LOCAL_TIME ( 12, 0, 33.00000000000000000, #141 ) ;
#8 = EDGE_LOOP ( 'NONE', ( #306, #267 ) ) ;
#9 = DIRECTION ( 'NONE',  ( -0.000000000000000000, -0.000000000000000000, -1.000000000000000000 ) ) ;
#10 = DIRECTION ( 'NONE',  ( 0.000000000000000000, 0.000000000000000000, 1.000000000000000000 ) ) ;
#11 = PRODUCT_RELATED_PRODUCT_CATEGORY ( 'detail', '', ( #193 ) ) ;
#12 = DIRECTION ( 'NONE',  ( 1.224646799147353207E-16, 1.000000000000000000, -0.000000000000000000 ) ) ;
#13 = CC_DESIGN_PERSON_AND_ORGANIZATION_ASSIGNMENT ( #281, #70, ( #193 ) ) ;
#14 = DIRECTION ( 'NONE',  ( -0.000000000000000000, -0.000000000000000000, -1.000000000000000000 ) ) ;
#15 = VERTEX_POINT ( 'NONE', #21 ) ;
#16 = DIRECTION ( 'NONE',  ( -1.000000000000000000, 0.000000000000000000, 0.000000000000000000 ) ) ;
#17 = APPROVAL_ROLE ( '' ) ;
#18 = MANIFOLD_SOLID_BREP ( 'Zaoblit1', #181 ) ;
#19 = CIRCLE ( 'NONE', #215, 0.2000000000000000944 ) ;
#20 = DIRECTION ( 'NONE',  ( 0.000000000000000000, 0.000000000000000000, 1.000000000000000000 ) ) ;
#21 = CARTESIAN_POINT ( 'NONE',  ( 5.000000000000000000, 6.123233995736766282E-16, 3.000000000000000000 ) ) ;
#22 = DIRECTION ( 'NONE',  ( -1.000000000000000000, 0.000000000000000000, 0.000000000000000000 ) ) ;
#23 = DIRECTION ( 'NONE',  ( 1.000000000000000000, 0.000000000000000000, 0.000000000000000000 ) ) ;
#24 = EDGE_CURVE ( 'NONE', #38, #186, #242, .T. ) ;
#25 = AXIS2_PLACEMENT_3D ( 'NONE', #262, #44, #142 ) ;
#26 = COORDINATED_UNIVERSAL_TIME_OFFSET ( 1, 0, .AHEAD. ) ;
#27 = CARTESIAN_POINT ( 'NONE',  ( 0.000000000000000000, 0.000000000000000000, 3.000000000000000000 ) ) ;
#28 = CARTESIAN_POINT ( 'NONE',  ( -5.000000000000000000, 0.000000000000000000, 3.000000000000000000 ) ) ;
#29 = ORIENTED_EDGE ( 'NONE', *, *, #91, .T. ) ;
#30 = PRODUCT_DEFINITION_FORMATION_WITH_SPECIFIED_SOURCE ( 'LIBOVOLNÝ', '', #193, .NOT_KNOWN. ) ;
#31 = DIRECTION ( 'NONE',  ( 0.000000000000000000, 0.000000000000000000, 1.000000000000000000 ) ) ;
#32 = CARTESIAN_POINT ( 'NONE',  ( 0.000000000000000000, 0.000000000000000000, 3.000000000000000000 ) ) ;
#33 = ADVANCED_FACE ( 'NONE', ( #196 ), #81, .F. ) ;
#34 = CC_DESIGN_PERSON_AND_ORGANIZATION_ASSIGNMENT ( #43, #104, ( #30 ) ) ;
#35 = CARTESIAN_POINT ( 'NONE',  ( -2.750000000000000000, 0.000000000000000000, 128.0000000000000000 ) ) ;
#36 = ORIENTED_EDGE ( 'NONE', *, *, #112, .T. ) ;
#37 = DIRECTION ( 'NONE',  ( 0.000000000000000000, 0.000000000000000000, 1.000000000000000000 ) ) ;
#38 = VERTEX_POINT ( 'NONE', #28 ) ;
#39 = EDGE_CURVE ( 'NONE', #38, #15, #58, .T. ) ;
#40 =( GEOMETRIC_REPRESENTATION_CONTEXT ( 3 ) GLOBAL_UNCERTAINTY_ASSIGNED_CONTEXT ( ( #140 ) ) GLOBAL_UNIT_ASSIGNED_CONTEXT ( ( #214, #121, #283 ) ) REPRESENTATION_CONTEXT ( 'NONE', 'WORKASPACE' ) );
#41 = DIRECTION ( 'NONE',  ( -0.000000000000000000, -0.000000000000000000, -1.000000000000000000 ) ) ;
#42 = ORIENTED_EDGE ( 'NONE', *, *, #169, .F. ) ;
#43 = PERSON_AND_ORGANIZATION ( #164, #96 ) ;
#44 = DIRECTION ( 'NONE',  ( 0.000000000000000000, 0.000000000000000000, 1.000000000000000000 ) ) ;
#45 = APPROVAL_DATE_TIME ( #68, #160 ) ;
#46 = DIRECTION ( 'NONE',  ( 1.000000000000000000, 0.000000000000000000, 0.000000000000000000 ) ) ;
#47 = ORIENTED_EDGE ( 'NONE', *, *, #204, .F. ) ;
#48 = VECTOR ( 'NONE', #192, 1000.000000000000000 ) ;
#49 = CARTESIAN_POINT ( 'NONE',  ( 2.750000000000000000, 3.367778697655221012E-16, 128.0000000000000000 ) ) ;
#50 = VERTEX_POINT ( 'NONE', #3 ) ;
#51 = CC_DESIGN_PERSON_AND_ORGANIZATION_ASSIGNMENT ( #149, #155, ( #220 ) ) ;
#52 = FACE_OUTER_BOUND ( 'NONE', #252, .T. ) ;
#53 = VECTOR ( 'NONE', #62, 1000.000000000000000 ) ;
#54 = EDGE_CURVE ( 'NONE', #84, #125, #19, .T. ) ;
#55 = CARTESIAN_POINT ( 'NONE',  ( 2.949999999999999734, 0.000000000000000000, 2.999999999999997335 ) ) ;
#56 = COORDINATED_UNIVERSAL_TIME_OFFSET ( 1, 0, .AHEAD. ) ;
#57 = APPROVAL ( #263, 'NEURÈENÝ' ) ;
#58 = CIRCLE ( 'NONE', #207, 5.000000000000000000 ) ;
#59 = VERTEX_POINT ( 'NONE', #98 ) ;
#60 = CARTESIAN_POINT ( 'NONE',  ( -5.000000000000000000, 0.000000000000000000, 0.000000000000000000 ) ) ;
#61 = EDGE_LOOP ( 'NONE', ( #150, #225 ) ) ;
#62 = DIRECTION ( 'NONE',  ( -0.000000000000000000, -0.000000000000000000, -1.000000000000000000 ) ) ;
#63 = CIRCLE ( 'NONE', #291, 5.000000000000000000 ) ;
#64 = APPLICATION_CONTEXT ( 'configuration controlled 3d designs of mechanical parts and assemblies' ) ;
#65 = CALENDAR_DATE ( 2022, 20, 6 ) ;
#66 = CARTESIAN_POINT ( 'NONE',  ( 0.000000000000000000, 0.000000000000000000, 3.000000000000000000 ) ) ;
#67 = AXIS2_PLACEMENT_3D ( 'NONE', #154, #41, #229 ) ;
#68 = DATE_AND_TIME ( #168, #227 ) ;
#69 = EDGE_LOOP ( 'NONE', ( #95, #159 ) ) ;
#70 = PERSON_AND_ORGANIZATION_ROLE ( 'design_owner' ) ;
#71 = ADVANCED_FACE ( 'NONE', ( #194, #73 ), #191, .T. ) ;
#72 = ORIENTED_EDGE ( 'NONE', *, *, #24, .T. ) ;
#73 = FACE_OUTER_BOUND ( 'NONE', #61, .T. ) ;
#74 = AXIS2_PLACEMENT_3D ( 'NONE', #253, #10, #295 ) ;
#75 = APPROVAL_DATE_TIME ( #124, #231 ) ;
#76 = ORIENTED_EDGE ( 'NONE', *, *, #260, .T. ) ;
#77 = CARTESIAN_POINT ( 'NONE',  ( 0.000000000000000000, 0.000000000000000000, 0.000000000000000000 ) ) ;
#78 = EDGE_CURVE ( 'NONE', #84, #50, #226, .T. ) ;
#79 = CYLINDRICAL_SURFACE ( 'NONE', #67, 5.000000000000000000 ) ;
#80 = SECURITY_CLASSIFICATION_LEVEL ( 'unclassified' ) ;
#81 = TOROIDAL_SURFACE ( 'NONE', #261, 2.949999999999999734, 0.2000000000000000111 ) ;
#82 = AXIS2_PLACEMENT_3D ( 'NONE', #230, #184, #271 ) ;
#83 = LINE ( 'NONE', #35, #302 ) ;
#84 = VERTEX_POINT ( 'NONE', #290 ) ;
#85 = FACE_OUTER_BOUND ( 'NONE', #211, .T. ) ;
#86 = ORIENTED_EDGE ( 'NONE', *, *, #288, .F. ) ;
#87 = FACE_OUTER_BOUND ( 'NONE', #241, .T. ) ;
#88 = EDGE_CURVE ( 'NONE', #161, #84, #266, .T. ) ;
#89 = VERTEX_POINT ( 'NONE', #289 ) ;
#90 = APPLICATION_PROTOCOL_DEFINITION ( 'international standard', 'config_control_design', 1994, #64 ) ;
#91 = EDGE_CURVE ( 'NONE', #50, #84, #92, .T. ) ;
#92 = CIRCLE ( 'NONE', #197, 2.750000000000000000 ) ;
#93 = FACE_OUTER_BOUND ( 'NONE', #278, .T. ) ;
#94 = PRODUCT_DEFINITION_SHAPE ( 'NONE', 'NONE',  #270 ) ;
#95 = ORIENTED_EDGE ( 'NONE', *, *, #288, .T. ) ;
#96 = ORGANIZATION ( 'NEURÈENÝ', 'NEURÈENÝ', '' ) ;
#97 = DATE_AND_TIME ( #307, #7 ) ;
#98 = CARTESIAN_POINT ( 'NONE',  ( 5.000000000000000000, 6.123233995736766282E-16, 0.000000000000000000 ) ) ;
#99 = SHAPE_DEFINITION_REPRESENTATION ( #94, #198 ) ;
#100 = DIRECTION ( 'NONE',  ( 0.000000000000000000, 0.000000000000000000, -1.000000000000000000 ) ) ;
#101 = ORIENTED_EDGE ( 'NONE', *, *, #88, .F. ) ;
#102 = CIRCLE ( 'NONE', #190, 5.000000000000000000 ) ;
#103 = ORIENTED_EDGE ( 'NONE', *, *, #112, .F. ) ;
#104 = PERSON_AND_ORGANIZATION_ROLE ( 'creator' ) ;
#105 = CARTESIAN_POINT ( 'NONE',  ( 0.000000000000000000, 0.000000000000000000, 3.000000000000000000 ) ) ;
#106 = DATE_TIME_ROLE ( 'classification_date' ) ;
#107 = CARTESIAN_POINT ( 'NONE',  ( 0.000000000000000000, 0.000000000000000000, 128.0000000000000000 ) ) ;
#108 = ADVANCED_FACE ( 'NONE', ( #52 ), #277, .T. ) ;
#109 = CARTESIAN_POINT ( 'NONE',  ( 2.750000000000000000, 3.367778697655221012E-16, 128.0000000000000000 ) ) ;
#110 = ORIENTED_EDGE ( 'NONE', *, *, #176, .T. ) ;
#111 = CIRCLE ( 'NONE', #128, 0.2000000000000000944 ) ;
#112 = EDGE_CURVE ( 'NONE', #15, #59, #138, .T. ) ;
#113 = CARTESIAN_POINT ( 'NONE',  ( 0.000000000000000000, 0.000000000000000000, 128.0000000000000000 ) ) ;
#114 = EDGE_LOOP ( 'NONE', ( #42, #239, #264, #47 ) ) ;
#115 = CC_DESIGN_PERSON_AND_ORGANIZATION_ASSIGNMENT ( #282, #165, ( #270 ) ) ;
#116 = CARTESIAN_POINT ( 'NONE',  ( -2.949999999999999734, 3.612708057484692097E-16, 3.199999999999994404 ) ) ;
#117 = AXIS2_PLACEMENT_3D ( 'NONE', #113, #210, #178 ) ;
#118 = ADVANCED_FACE ( 'NONE', ( #87 ), #272, .F. ) ;
#119 = DIRECTION ( 'NONE',  ( 1.000000000000000000, 0.000000000000000000, 0.000000000000000000 ) ) ;
#120 = DIRECTION ( 'NONE',  ( -0.000000000000000000, -0.000000000000000000, -1.000000000000000000 ) ) ;
#121 =( NAMED_UNIT ( * ) PLANE_ANGLE_UNIT ( ) SI_UNIT ( $, .RADIAN. ) );
#122 = DIRECTION ( 'NONE',  ( 1.000000000000000000, 0.000000000000000000, 0.000000000000000000 ) ) ;
#123 = AXIS2_PLACEMENT_3D ( 'NONE', #32, #134, #16 ) ;
#124 = DATE_AND_TIME ( #273, #303 ) ;
#125 = VERTEX_POINT ( 'NONE', #55 ) ;
#126 = ORIENTED_EDGE ( 'NONE', *, *, #78, .T. ) ;
#127 = CARTESIAN_POINT ( 'NONE',  ( 2.949999999999999734, 0.000000000000000000, 3.199999999999994404 ) ) ;
#128 = AXIS2_PLACEMENT_3D ( 'NONE', #116, #12, #251 ) ;
#129 = LOCAL_TIME ( 12, 0, 33.00000000000000000, #56 ) ;
#130 = DIRECTION ( 'NONE',  ( 1.000000000000000000, 0.000000000000000000, 0.000000000000000000 ) ) ;
#131 = DIRECTION ( 'NONE',  ( 1.000000000000000000, 0.000000000000000000, 0.000000000000000000 ) ) ;
#132 = AXIS2_PLACEMENT_3D ( 'NONE', #236, #37, #300 ) ;
#133 = APPROVAL_PERSON_ORGANIZATION ( #221, #231, #249 ) ;
#134 = DIRECTION ( 'NONE',  ( -0.000000000000000000, -0.000000000000000000, -1.000000000000000000 ) ) ;
#135 = ORIENTED_EDGE ( 'NONE', *, *, #39, .F. ) ;
#136 = CARTESIAN_POINT ( 'NONE',  ( 0.000000000000000000, 0.000000000000000000, 128.0000000000000000 ) ) ;
#137 = AXIS2_PLACEMENT_3D ( 'NONE', #212, #301, #22 ) ;
#138 = LINE ( 'NONE', #185, #53 ) ;
#139 = ADVANCED_FACE ( 'NONE', ( #256 ), #79, .T. ) ;
#140 = UNCERTAINTY_MEASURE_WITH_UNIT (LENGTH_MEASURE( 1.000000000000000082E-05 ), #214, 'distance_accuracy_value', 'NONE');
#141 = COORDINATED_UNIVERSAL_TIME_OFFSET ( 1, 0, .AHEAD. ) ;
#142 = DIRECTION ( 'NONE',  ( 1.000000000000000000, 0.000000000000000000, -0.000000000000000000 ) ) ;
#143 = DIRECTION ( 'NONE',  ( 0.000000000000000000, 0.000000000000000000, 1.000000000000000000 ) ) ;
#144 = EDGE_CURVE ( 'NONE', #161, #89, #234, .T. ) ;
#145 = APPROVAL_ROLE ( '' ) ;
#146 = ORIENTED_EDGE ( 'NONE', *, *, #144, .F. ) ;
#147 = AXIS2_PLACEMENT_3D ( 'NONE', #286, #292, #46 ) ;
#148 = CARTESIAN_POINT ( 'NONE',  ( 0.000000000000000000, 0.000000000000000000, 3.199999999999994404 ) ) ;
#149 = PERSON_AND_ORGANIZATION ( #164, #96 ) ;
#150 = ORIENTED_EDGE ( 'NONE', *, *, #39, .T. ) ;
#151 = FACE_OUTER_BOUND ( 'NONE', #223, .T. ) ;
#152 = AXIS2_PLACEMENT_3D ( 'NONE', #105, #201, #240 ) ;
#153 = PERSON_AND_ORGANIZATION_ROLE ( 'design_supplier' ) ;
#154 = CARTESIAN_POINT ( 'NONE',  ( 0.000000000000000000, 0.000000000000000000, 3.000000000000000000 ) ) ;
#155 = PERSON_AND_ORGANIZATION_ROLE ( 'classification_officer' ) ;
#156 = DIRECTION ( 'NONE',  ( 0.000000000000000000, 0.000000000000000000, 1.000000000000000000 ) ) ;
#157 = ORIENTED_EDGE ( 'NONE', *, *, #176, .F. ) ;
#158 = CARTESIAN_POINT ( 'NONE',  ( 0.000000000000000000, 0.000000000000000000, 3.000000000000000000 ) ) ;
#159 = ORIENTED_EDGE ( 'NONE', *, *, #204, .T. ) ;
#160 = APPROVAL ( #237, 'NEURÈENÝ' ) ;
#161 = VERTEX_POINT ( 'NONE', #109 ) ;
#162 = VECTOR ( 'NONE', #120, 1000.000000000000000 ) ;
#163 = DATE_AND_TIME ( #65, #183 ) ;
#164 = PERSON ( 'NEURÈENÝ', 'NEURÈENÝ', 'NEURÈENÝ', ('NEURÈENÝ'), ('NEURÈENÝ'), ('NEURÈENÝ') ) ;
#165 = PERSON_AND_ORGANIZATION_ROLE ( 'creator' ) ;
#166 = AXIS2_PLACEMENT_3D ( 'NONE', #246, #31, #130 ) ;
#167 = DIRECTION ( 'NONE',  ( 0.000000000000000000, 0.000000000000000000, 1.000000000000000000 ) ) ;
#168 = CALENDAR_DATE ( 2022, 20, 6 ) ;
#169 = EDGE_CURVE ( 'NONE', #50, #243, #111, .T. ) ;
#170 = ORIENTED_EDGE ( 'NONE', *, *, #24, .F. ) ;
#171 = CC_DESIGN_DATE_AND_TIME_ASSIGNMENT ( #97, #259, ( #270 ) ) ;
#172 = ORIENTED_EDGE ( 'NONE', *, *, #91, .F. ) ;
#173 = DIRECTION ( 'NONE',  ( 1.000000000000000000, 0.000000000000000000, 0.000000000000000000 ) ) ;
#174 = APPROVAL_PERSON_ORGANIZATION ( #187, #160, #145 ) ;
#175 = CARTESIAN_POINT ( 'NONE',  ( 0.000000000000000000, 0.000000000000000000, 3.199999999999994404 ) ) ;
#176 = EDGE_CURVE ( 'NONE', #89, #50, #83, .T. ) ;
#177 = DIRECTION ( 'NONE',  ( 0.000000000000000000, 0.000000000000000000, 1.000000000000000000 ) ) ;
#178 = DIRECTION ( 'NONE',  ( 1.000000000000000000, 0.000000000000000000, -0.000000000000000000 ) ) ;
#179 = COORDINATED_UNIVERSAL_TIME_OFFSET ( 1, 0, .AHEAD. ) ;
#180 = ADVANCED_FACE ( 'NONE', ( #85 ), #208, .T. ) ;
#181 = CLOSED_SHELL ( 'NONE', ( #118, #108, #139, #180, #71, #205, #296, #213, #33 ) ) ;
#182 = DIRECTION ( 'NONE',  ( 1.000000000000000000, 0.000000000000000000, 0.000000000000000000 ) ) ;
#183 = LOCAL_TIME ( 12, 0, 33.00000000000000000, #26 ) ;
#184 = DIRECTION ( 'NONE',  ( -0.000000000000000000, -0.000000000000000000, -1.000000000000000000 ) ) ;
#185 = CARTESIAN_POINT ( 'NONE',  ( 5.000000000000000000, 6.123233995736766282E-16, 3.000000000000000000 ) ) ;
#186 = VERTEX_POINT ( 'NONE', #60 ) ;
#187 = PERSON_AND_ORGANIZATION ( #164, #96 ) ;
#188 = AXIS2_PLACEMENT_3D ( 'NONE', #107, #232, #276 ) ;
#189 = COORDINATED_UNIVERSAL_TIME_OFFSET ( 1, 0, .AHEAD. ) ;
#190 = AXIS2_PLACEMENT_3D ( 'NONE', #66, #167, #173 ) ;
#191 = PLANE ( 'NONE',  #25 ) ;
#192 = DIRECTION ( 'NONE',  ( -0.000000000000000000, -0.000000000000000000, -1.000000000000000000 ) ) ;
#193 = PRODUCT ( '2600', '2600', '', ( #216 ) ) ;
#194 = FACE_BOUND ( 'NONE', #69, .T. ) ;
#195 = APPLICATION_CONTEXT ( 'configuration controlled 3d designs of mechanical parts and assemblies' ) ;
#196 = FACE_OUTER_BOUND ( 'NONE', #114, .T. ) ;
#197 = AXIS2_PLACEMENT_3D ( 'NONE', #148, #156, #247 ) ;
#198 = ADVANCED_BREP_SHAPE_REPRESENTATION ( '2600', ( #18, #280 ), #40 ) ;
#199 = ORIENTED_EDGE ( 'NONE', *, *, #54, .F. ) ;
#200 = APPROVAL_STATUS ( 'not_yet_approved' ) ;
#201 = DIRECTION ( 'NONE',  ( -0.000000000000000000, -0.000000000000000000, -1.000000000000000000 ) ) ;
#202 = DIRECTION ( 'NONE',  ( 0.000000000000000000, 0.000000000000000000, 1.000000000000000000 ) ) ;
#203 = CC_DESIGN_SECURITY_CLASSIFICATION ( #220, ( #30 ) ) ;
#204 = EDGE_CURVE ( 'NONE', #243, #125, #6, .T. ) ;
#205 = ADVANCED_FACE ( 'NONE', ( #275 ), #294, .F. ) ;
#206 = EDGE_CURVE ( 'NONE', #89, #161, #250, .T. ) ;
#207 = AXIS2_PLACEMENT_3D ( 'NONE', #27, #222, #122 ) ;
#208 = CYLINDRICAL_SURFACE ( 'NONE', #123, 5.000000000000000000 ) ;
#209 = ORIENTED_EDGE ( 'NONE', *, *, #248, .T. ) ;
#210 = DIRECTION ( 'NONE',  ( 0.000000000000000000, 0.000000000000000000, 1.000000000000000000 ) ) ;
#211 = EDGE_LOOP ( 'NONE', ( #103, #135, #72, #209 ) ) ;
#212 = CARTESIAN_POINT ( 'NONE',  ( 0.000000000000000000, 0.000000000000000000, 128.0000000000000000 ) ) ;
#213 = ADVANCED_FACE ( 'NONE', ( #151 ), #235, .T. ) ;
#214 =( LENGTH_UNIT ( ) NAMED_UNIT ( * ) SI_UNIT ( .MILLI., .METRE. ) );
#215 = AXIS2_PLACEMENT_3D ( 'NONE', #127, #1, #100 ) ;
#216 = MECHANICAL_CONTEXT ( 'NONE', #64, 'mechanical' ) ;
#217 = ORIENTED_EDGE ( 'NONE', *, *, #206, .T. ) ;
#218 = CYLINDRICAL_SURFACE ( 'NONE', #137, 2.750000000000000000 ) ;
#219 = ORIENTED_EDGE ( 'NONE', *, *, #88, .T. ) ;
#220 = SECURITY_CLASSIFICATION ( '', '', #80 ) ;
#221 = PERSON_AND_ORGANIZATION ( #164, #96 ) ;
#222 = DIRECTION ( 'NONE',  ( 0.000000000000000000, 0.000000000000000000, 1.000000000000000000 ) ) ;
#223 = EDGE_LOOP ( 'NONE', ( #217, #254 ) ) ;
#224 = CC_DESIGN_DATE_AND_TIME_ASSIGNMENT ( #268, #106, ( #220 ) ) ;
#225 = ORIENTED_EDGE ( 'NONE', *, *, #4, .T. ) ;
#226 = CIRCLE ( 'NONE', #147, 2.750000000000000000 ) ;
#227 = LOCAL_TIME ( 12, 0, 33.00000000000000000, #189 ) ;
#228 = PERSON_AND_ORGANIZATION ( #164, #96 ) ;
#229 = DIRECTION ( 'NONE',  ( -1.000000000000000000, 0.000000000000000000, 0.000000000000000000 ) ) ;
#230 = CARTESIAN_POINT ( 'NONE',  ( 0.000000000000000000, 0.000000000000000000, 128.0000000000000000 ) ) ;
#231 = APPROVAL ( #200, 'NEURÈENÝ' ) ;
#232 = DIRECTION ( 'NONE',  ( 0.000000000000000000, 0.000000000000000000, 1.000000000000000000 ) ) ;
#233 = ORIENTED_EDGE ( 'NONE', *, *, #4, .F. ) ;
#234 = CIRCLE ( 'NONE', #188, 2.750000000000000000 ) ;
#235 = PLANE ( 'NONE',  #117 ) ;
#236 = CARTESIAN_POINT ( 'NONE',  ( 0.000000000000000000, 0.000000000000000000, 3.199999999999994404 ) ) ;
#237 = APPROVAL_STATUS ( 'not_yet_approved' ) ;
#238 = APPROVAL_PERSON_ORGANIZATION ( #287, #57, #17 ) ;
#239 = ORIENTED_EDGE ( 'NONE', *, *, #78, .F. ) ;
#240 = DIRECTION ( 'NONE',  ( 1.000000000000000000, 0.000000000000000000, 0.000000000000000000 ) ) ;
#241 = EDGE_LOOP ( 'NONE', ( #172, #5, #86, #199 ) ) ;
#242 = LINE ( 'NONE', #245, #162 ) ;
#243 = VERTEX_POINT ( 'NONE', #293 ) ;
#244 = CC_DESIGN_PERSON_AND_ORGANIZATION_ASSIGNMENT ( #228, #153, ( #30 ) ) ;
#245 = CARTESIAN_POINT ( 'NONE',  ( -5.000000000000000000, 0.000000000000000000, 3.000000000000000000 ) ) ;
#246 = CARTESIAN_POINT ( 'NONE',  ( 0.000000000000000000, 0.000000000000000000, 0.000000000000000000 ) ) ;
#247 = DIRECTION ( 'NONE',  ( 1.000000000000000000, 0.000000000000000000, 0.000000000000000000 ) ) ;
#248 = EDGE_CURVE ( 'NONE', #186, #59, #63, .T. ) ;
#249 = APPROVAL_ROLE ( '' ) ;
#250 = CIRCLE ( 'NONE', #274, 2.750000000000000000 ) ;
#251 = DIRECTION ( 'NONE',  ( -1.000000000000000000, 1.224646799147353207E-16, 0.000000000000000000 ) ) ;
#252 = EDGE_LOOP ( 'NONE', ( #146, #219, #126, #157 ) ) ;
#253 = CARTESIAN_POINT ( 'NONE',  ( 0.000000000000000000, 0.000000000000000000, 0.000000000000000000 ) ) ;
#254 = ORIENTED_EDGE ( 'NONE', *, *, #144, .T. ) ;
#255 = DESIGN_CONTEXT ( 'detailed design', #195, 'design' ) ;
#256 = FACE_OUTER_BOUND ( 'NONE', #257, .T. ) ;
#257 = EDGE_LOOP ( 'NONE', ( #233, #36, #76, #170 ) ) ;
#258 = APPROVAL_DATE_TIME ( #163, #57 ) ;
#259 = DATE_TIME_ROLE ( 'creation_date' ) ;
#260 = EDGE_CURVE ( 'NONE', #59, #186, #297, .T. ) ;
#261 = AXIS2_PLACEMENT_3D ( 'NONE', #175, #143, #23 ) ;
#262 = CARTESIAN_POINT ( 'NONE',  ( 0.000000000000000000, 0.000000000000000000, 3.000000000000000000 ) ) ;
#263 = APPROVAL_STATUS ( 'not_yet_approved' ) ;
#264 = ORIENTED_EDGE ( 'NONE', *, *, #54, .T. ) ;
#265 = CC_DESIGN_APPROVAL ( #160, ( #270 ) ) ;
#266 = LINE ( 'NONE', #49, #48 ) ;
#267 = ORIENTED_EDGE ( 'NONE', *, *, #260, .F. ) ;
#268 = DATE_AND_TIME ( #2, #129 ) ;
#269 = DIRECTION ( 'NONE',  ( 1.000000000000000000, 0.000000000000000000, 0.000000000000000000 ) ) ;
#270 = PRODUCT_DEFINITION ( 'NEZNÁMÝ', '', #30, #255 ) ;
#271 = DIRECTION ( 'NONE',  ( -1.000000000000000000, 0.000000000000000000, 0.000000000000000000 ) ) ;
#272 = TOROIDAL_SURFACE ( 'NONE', #132, 2.949999999999999734, 0.2000000000000000111 ) ;
#273 = CALENDAR_DATE ( 2022, 20, 6 ) ;
#274 = AXIS2_PLACEMENT_3D ( 'NONE', #136, #202, #182 ) ;
#275 = FACE_OUTER_BOUND ( 'NONE', #8, .T. ) ;
#276 = DIRECTION ( 'NONE',  ( 1.000000000000000000, 0.000000000000000000, 0.000000000000000000 ) ) ;
#277 = CYLINDRICAL_SURFACE ( 'NONE', #82, 2.750000000000000000 ) ;
#278 = EDGE_LOOP ( 'NONE', ( #101, #299, #110, #29 ) ) ;
#279 = AXIS2_PLACEMENT_3D ( 'NONE', #158, #14, #131 ) ;
#280 = AXIS2_PLACEMENT_3D ( 'NONE', #304, #20, #119 ) ;
#281 = PERSON_AND_ORGANIZATION ( #164, #96 ) ;
#282 = PERSON_AND_ORGANIZATION ( #164, #96 ) ;
#283 =( NAMED_UNIT ( * ) SI_UNIT ( $, .STERADIAN. ) SOLID_ANGLE_UNIT ( ) );
#284 = CIRCLE ( 'NONE', #152, 2.949999999999999734 ) ;
#285 = CC_DESIGN_APPROVAL ( #57, ( #30 ) ) ;
#286 = CARTESIAN_POINT ( 'NONE',  ( 0.000000000000000000, 0.000000000000000000, 3.199999999999994404 ) ) ;
#287 = PERSON_AND_ORGANIZATION ( #164, #96 ) ;
#288 = EDGE_CURVE ( 'NONE', #125, #243, #284, .T. ) ;
#289 = CARTESIAN_POINT ( 'NONE',  ( -2.750000000000000000, 0.000000000000000000, 128.0000000000000000 ) ) ;
#290 = CARTESIAN_POINT ( 'NONE',  ( 2.750000000000000000, 3.367778697655221012E-16, 3.199999999999994404 ) ) ;
#291 = AXIS2_PLACEMENT_3D ( 'NONE', #77, #177, #269 ) ;
#292 = DIRECTION ( 'NONE',  ( 0.000000000000000000, 0.000000000000000000, 1.000000000000000000 ) ) ;
#293 = CARTESIAN_POINT ( 'NONE',  ( -2.949999999999999734, 3.612708057484692097E-16, 2.999999999999997335 ) ) ;
#294 = PLANE ( 'NONE',  #74 ) ;
#295 = DIRECTION ( 'NONE',  ( 1.000000000000000000, 0.000000000000000000, -0.000000000000000000 ) ) ;
#296 = ADVANCED_FACE ( 'NONE', ( #93 ), #218, .T. ) ;
#297 = CIRCLE ( 'NONE', #166, 5.000000000000000000 ) ;
#298 = CC_DESIGN_APPROVAL ( #231, ( #220 ) ) ;
#299 = ORIENTED_EDGE ( 'NONE', *, *, #206, .F. ) ;
#300 = DIRECTION ( 'NONE',  ( 1.000000000000000000, 0.000000000000000000, 0.000000000000000000 ) ) ;
#301 = DIRECTION ( 'NONE',  ( -0.000000000000000000, -0.000000000000000000, -1.000000000000000000 ) ) ;
#302 = VECTOR ( 'NONE', #9, 1000.000000000000000 ) ;
#303 = LOCAL_TIME ( 12, 0, 33.00000000000000000, #179 ) ;
#304 = CARTESIAN_POINT ( 'NONE',  ( 0.000000000000000000, 0.000000000000000000, 0.000000000000000000 ) ) ;
#305 = APPLICATION_PROTOCOL_DEFINITION ( 'international standard', 'config_control_design', 1994, #195 ) ;
#306 = ORIENTED_EDGE ( 'NONE', *, *, #248, .F. ) ;
#307 = CALENDAR_DATE ( 2022, 20, 6 ) ;
ENDSEC;
END-ISO-10303-21;
