ISO-10303-21;
HEADER;
FILE_DESCRIPTION (( 'STEP AP203' ),
    '1' );
FILE_NAME ('1f81.STEP',
    '2022-06-20T10:18:25',
    ( '' ),
    ( '' ),
    'SwSTEP 2.0',
    'SolidWorks 2019',
    '' );
FILE_SCHEMA (( 'CONFIG_CONTROL_DESIGN' ));
ENDSEC;

DATA;
#1 = CARTESIAN_POINT ( 'NONE',  ( 1.100000000000000089, 1.347111479062088503E-16, 402.0000000000000000 ) ) ;
#2 = ADVANCED_FACE ( 'NONE', ( #127 ), #215, .T. ) ;
#3 = AXIS2_PLACEMENT_3D ( 'NONE', #43, #284, #209 ) ;
#4 = CALENDAR_DATE ( 2022, 20, 6 ) ;
#5 = ORIENTED_EDGE ( 'NONE', *, *, #214, .F. ) ;
#6 = LINE ( 'NONE', #1, #185 ) ;
#7 = AXIS2_PLACEMENT_3D ( 'NONE', #252, #89, #14 ) ;
#8 = EDGE_CURVE ( 'NONE', #50, #17, #6, .T. ) ;
#9 = ORIENTED_EDGE ( 'NONE', *, *, #214, .T. ) ;
#10 = DIRECTION ( 'NONE',  ( 0.000000000000000000, 0.000000000000000000, 1.000000000000000000 ) ) ;
#11 = DIRECTION ( 'NONE',  ( 1.000000000000000000, 0.000000000000000000, 0.000000000000000000 ) ) ;
#12 = CARTESIAN_POINT ( 'NONE',  ( 1.300000000000000266, 0.000000000000000000, 2.199999999999979750 ) ) ;
#13 = ORIENTED_EDGE ( 'NONE', *, *, #203, .F. ) ;
#14 = DIRECTION ( 'NONE',  ( 1.000000000000000000, 0.000000000000000000, 0.000000000000000000 ) ) ;
#15 = LOCAL_TIME ( 12, 18, 25.00000000000000000, #128 ) ;
#16 = CARTESIAN_POINT ( 'NONE',  ( -2.000000000000000000, 0.000000000000000000, 0.000000000000000000 ) ) ;
#17 = VERTEX_POINT ( 'NONE', #172 ) ;
#18 = EDGE_CURVE ( 'NONE', #26, #240, #96, .T. ) ;
#19 =( NAMED_UNIT ( * ) PLANE_ANGLE_UNIT ( ) SI_UNIT ( $, .RADIAN. ) );
#20 = AXIS2_PLACEMENT_3D ( 'NONE', #101, #70, #259 ) ;
#21 =( LENGTH_UNIT ( ) NAMED_UNIT ( * ) SI_UNIT ( .MILLI., .METRE. ) );
#22 = TOROIDAL_SURFACE ( 'NONE', #88, 1.300000000000000266, 0.2000000000000000111 ) ;
#23 = UNCERTAINTY_MEASURE_WITH_UNIT (LENGTH_MEASURE( 1.000000000000000082E-05 ), #21, 'distance_accuracy_value', 'NONE');
#24 = DIRECTION ( 'NONE',  ( -0.000000000000000000, -0.000000000000000000, -1.000000000000000000 ) ) ;
#25 = MANIFOLD_SOLID_BREP ( 'Zaoblit1', #69 ) ;
#26 = VERTEX_POINT ( 'NONE', #121 ) ;
#27 = PRODUCT_RELATED_PRODUCT_CATEGORY ( 'detail', '', ( #100 ) ) ;
#28 = PERSON ( 'NEURÈENÝ', 'NEURÈENÝ', 'NEURÈENÝ', ('NEURÈENÝ'), ('NEURÈENÝ'), ('NEURÈENÝ') ) ;
#29 = CARTESIAN_POINT ( 'NONE',  ( 0.000000000000000000, 0.000000000000000000, 0.000000000000000000 ) ) ;
#30 = ORIENTED_EDGE ( 'NONE', *, *, #254, .T. ) ;
#31 = ORIENTED_EDGE ( 'NONE', *, *, #71, .T. ) ;
#32 = APPROVAL_ROLE ( '' ) ;
#33 = EDGE_LOOP ( 'NONE', ( #143, #251, #42, #103 ) ) ;
#34 = DIRECTION ( 'NONE',  ( 1.000000000000000000, 0.000000000000000000, 0.000000000000000000 ) ) ;
#35 = LOCAL_TIME ( 12, 18, 25.00000000000000000, #232 ) ;
#36 = PERSON_AND_ORGANIZATION ( #28, #66 ) ;
#37 = PLANE ( 'NONE',  #80 ) ;
#38 = CIRCLE ( 'NONE', #286, 1.300000000000000266 ) ;
#39 = EDGE_CURVE ( 'NONE', #240, #79, #110, .T. ) ;
#40 = CARTESIAN_POINT ( 'NONE',  ( -1.100000000000000089, 0.000000000000000000, 2.199999999999979750 ) ) ;
#41 = ADVANCED_FACE ( 'NONE', ( #264 ), #235, .T. ) ;
#42 = ORIENTED_EDGE ( 'NONE', *, *, #294, .T. ) ;
#43 = CARTESIAN_POINT ( 'NONE',  ( 0.000000000000000000, 0.000000000000000000, 402.0000000000000000 ) ) ;
#44 = VERTEX_POINT ( 'NONE', #213 ) ;
#45 = FACE_OUTER_BOUND ( 'NONE', #46, .T. ) ;
#46 = EDGE_LOOP ( 'NONE', ( #61, #276 ) ) ;
#47 = PERSON_AND_ORGANIZATION ( #28, #66 ) ;
#48 = CARTESIAN_POINT ( 'NONE',  ( 2.000000000000000000, 2.449293598294706414E-16, 0.000000000000000000 ) ) ;
#49 = CALENDAR_DATE ( 2022, 20, 6 ) ;
#50 = VERTEX_POINT ( 'NONE', #199 ) ;
#51 = FACE_BOUND ( 'NONE', #123, .T. ) ;
#52 = PERSON_AND_ORGANIZATION_ROLE ( 'creator' ) ;
#53 = ORIENTED_EDGE ( 'NONE', *, *, #18, .T. ) ;
#54 = APPROVAL ( #187, 'NEURÈENÝ' ) ;
#55 = CARTESIAN_POINT ( 'NONE',  ( 0.000000000000000000, 0.000000000000000000, 2.000000000000000000 ) ) ;
#56 = DIRECTION ( 'NONE',  ( 1.000000000000000000, 0.000000000000000000, 0.000000000000000000 ) ) ;
#57 = VECTOR ( 'NONE', #149, 1000.000000000000000 ) ;
#58 = CARTESIAN_POINT ( 'NONE',  ( 0.000000000000000000, 0.000000000000000000, 402.0000000000000000 ) ) ;
#59 = ADVANCED_FACE ( 'NONE', ( #51, #146 ), #238, .T. ) ;
#60 = AXIS2_PLACEMENT_3D ( 'NONE', #126, #217, #289 ) ;
#61 = ORIENTED_EDGE ( 'NONE', *, *, #279, .T. ) ;
#62 = CARTESIAN_POINT ( 'NONE',  ( 0.000000000000000000, 0.000000000000000000, 2.000000000000000000 ) ) ;
#63 = CARTESIAN_POINT ( 'NONE',  ( 0.000000000000000000, 0.000000000000000000, 402.0000000000000000 ) ) ;
#64 = VERTEX_POINT ( 'NONE', #242 ) ;
#65 = COORDINATED_UNIVERSAL_TIME_OFFSET ( 1, 0, .AHEAD. ) ;
#66 = ORGANIZATION ( 'NEURÈENÝ', 'NEURÈENÝ', '' ) ;
#67 = PERSON_AND_ORGANIZATION_ROLE ( 'design_owner' ) ;
#68 = DATE_AND_TIME ( #49, #35 ) ;
#69 = CLOSED_SHELL ( 'NONE', ( #270, #136, #2, #268, #59, #234, #41, #160, #107 ) ) ;
#70 = DIRECTION ( 'NONE',  ( 1.224646799147353207E-16, 1.000000000000000000, -0.000000000000000000 ) ) ;
#71 = EDGE_CURVE ( 'NONE', #179, #44, #151, .T. ) ;
#72 = PRODUCT_DEFINITION ( 'NEZNÁMÝ', '', #93, #247 ) ;
#73 = CIRCLE ( 'NONE', #305, 2.000000000000000000 ) ;
#74 = ORIENTED_EDGE ( 'NONE', *, *, #258, .T. ) ;
#75 = APPROVAL_DATE_TIME ( #287, #165 ) ;
#76 = DIRECTION ( 'NONE',  ( -0.000000000000000000, -0.000000000000000000, -1.000000000000000000 ) ) ;
#77 = DIRECTION ( 'NONE',  ( -0.000000000000000000, -0.000000000000000000, -1.000000000000000000 ) ) ;
#78 = SECURITY_CLASSIFICATION_LEVEL ( 'unclassified' ) ;
#79 = VERTEX_POINT ( 'NONE', #48 ) ;
#80 = AXIS2_PLACEMENT_3D ( 'NONE', #139, #206, #296 ) ;
#81 = DATE_AND_TIME ( #4, #156 ) ;
#82 = DIRECTION ( 'NONE',  ( -0.000000000000000000, -0.000000000000000000, -1.000000000000000000 ) ) ;
#83 = CARTESIAN_POINT ( 'NONE',  ( -1.100000000000000089, 0.000000000000000000, 402.0000000000000000 ) ) ;
#84 = AXIS2_PLACEMENT_3D ( 'NONE', #63, #177, #229 ) ;
#85 = EDGE_CURVE ( 'NONE', #64, #44, #271, .T. ) ;
#86 = CARTESIAN_POINT ( 'NONE',  ( 0.000000000000000000, 0.000000000000000000, 2.000000000000000000 ) ) ;
#87 = EDGE_LOOP ( 'NONE', ( #285, #31, #116, #140 ) ) ;
#88 = AXIS2_PLACEMENT_3D ( 'NONE', #222, #135, #120 ) ;
#89 = DIRECTION ( 'NONE',  ( 0.000000000000000000, 0.000000000000000000, 1.000000000000000000 ) ) ;
#90 = DIRECTION ( 'NONE',  ( 0.000000000000000000, 0.000000000000000000, 1.000000000000000000 ) ) ;
#91 = CALENDAR_DATE ( 2022, 20, 6 ) ;
#92 = ORIENTED_EDGE ( 'NONE', *, *, #39, .T. ) ;
#93 = PRODUCT_DEFINITION_FORMATION_WITH_SPECIFIED_SOURCE ( 'LIBOVOLNÝ', '', #100, .NOT_KNOWN. ) ;
#94 = DIRECTION ( 'NONE',  ( 0.000000000000000000, 0.000000000000000000, 1.000000000000000000 ) ) ;
#95 = EDGE_CURVE ( 'NONE', #50, #188, #162, .T. ) ;
#96 = LINE ( 'NONE', #168, #57 ) ;
#97 = APPLICATION_PROTOCOL_DEFINITION ( 'international standard', 'config_control_design', 1994, #274 ) ;
#98 = ORIENTED_EDGE ( 'NONE', *, *, #203, .T. ) ;
#99 = APPLICATION_CONTEXT ( 'configuration controlled 3d designs of mechanical parts and assemblies' ) ;
#100 = PRODUCT ( '1f81', '1f81', '', ( #189 ) ) ;
#101 = CARTESIAN_POINT ( 'NONE',  ( -1.300000000000000266, 1.592040838891559342E-16, 2.199999999999979750 ) ) ;
#102 = PERSON_AND_ORGANIZATION_ROLE ( 'design_supplier' ) ;
#103 = ORIENTED_EDGE ( 'NONE', *, *, #258, .F. ) ;
#104 = EDGE_LOOP ( 'NONE', ( #13, #210, #53, #92 ) ) ;
#105 = LOCAL_TIME ( 12, 18, 25.00000000000000000, #190 ) ;
#106 = CYLINDRICAL_SURFACE ( 'NONE', #84, 1.100000000000000089 ) ;
#107 = ADVANCED_FACE ( 'NONE', ( #221 ), #133, .F. ) ;
#108 = PERSON_AND_ORGANIZATION ( #28, #66 ) ;
#109 = CARTESIAN_POINT ( 'NONE',  ( 0.000000000000000000, 0.000000000000000000, 2.199999999999979750 ) ) ;
#110 = CIRCLE ( 'NONE', #145, 2.000000000000000000 ) ;
#111 = AXIS2_PLACEMENT_3D ( 'NONE', #272, #301, #201 ) ;
#112 = CC_DESIGN_DATE_AND_TIME_ASSIGNMENT ( #68, #236, ( #72 ) ) ;
#113 = DIRECTION ( 'NONE',  ( 0.000000000000000000, 0.000000000000000000, -1.000000000000000000 ) ) ;
#114 = AXIS2_PLACEMENT_3D ( 'NONE', #153, #10, #34 ) ;
#115 = CARTESIAN_POINT ( 'NONE',  ( 0.000000000000000000, 0.000000000000000000, 2.199999999999979750 ) ) ;
#116 = ORIENTED_EDGE ( 'NONE', *, *, #85, .F. ) ;
#117 = EDGE_CURVE ( 'NONE', #79, #240, #197, .T. ) ;
#118 = CYLINDRICAL_SURFACE ( 'NONE', #291, 2.000000000000000000 ) ;
#119 = ORIENTED_EDGE ( 'NONE', *, *, #8, .F. ) ;
#120 = DIRECTION ( 'NONE',  ( 1.000000000000000000, 0.000000000000000000, 0.000000000000000000 ) ) ;
#121 = CARTESIAN_POINT ( 'NONE',  ( -2.000000000000000000, 0.000000000000000000, 2.000000000000000000 ) ) ;
#122 = APPROVAL_ROLE ( '' ) ;
#123 = EDGE_LOOP ( 'NONE', ( #129, #9 ) ) ;
#124 = AXIS2_PLACEMENT_3D ( 'NONE', #195, #77, #157 ) ;
#125 = CIRCLE ( 'NONE', #3, 1.100000000000000089 ) ;
#126 = CARTESIAN_POINT ( 'NONE',  ( 0.000000000000000000, 0.000000000000000000, 2.000000000000000000 ) ) ;
#127 = FACE_OUTER_BOUND ( 'NONE', #237, .T. ) ;
#128 = COORDINATED_UNIVERSAL_TIME_OFFSET ( 1, 0, .AHEAD. ) ;
#129 = ORIENTED_EDGE ( 'NONE', *, *, #85, .T. ) ;
#130 = DIRECTION ( 'NONE',  ( -0.000000000000000000, -0.000000000000000000, -1.000000000000000000 ) ) ;
#131 = AXIS2_PLACEMENT_3D ( 'NONE', #233, #94, #167 ) ;
#132 = FACE_OUTER_BOUND ( 'NONE', #87, .T. ) ;
#133 = TOROIDAL_SURFACE ( 'NONE', #303, 1.300000000000000266, 0.2000000000000000111 ) ;
#134 = DIRECTION ( 'NONE',  ( -1.000000000000000000, 0.000000000000000000, 0.000000000000000000 ) ) ;
#135 = DIRECTION ( 'NONE',  ( 0.000000000000000000, 0.000000000000000000, 1.000000000000000000 ) ) ;
#136 = ADVANCED_FACE ( 'NONE', ( #150 ), #106, .T. ) ;
#137 = CC_DESIGN_DATE_AND_TIME_ASSIGNMENT ( #269, #241, ( #207 ) ) ;
#138 = AXIS2_PLACEMENT_3D ( 'NONE', #115, #182, #250 ) ;
#139 = CARTESIAN_POINT ( 'NONE',  ( 0.000000000000000000, 0.000000000000000000, 0.000000000000000000 ) ) ;
#140 = ORIENTED_EDGE ( 'NONE', *, *, #223, .F. ) ;
#141 = APPROVAL_STATUS ( 'not_yet_approved' ) ;
#142 = APPROVAL_PERSON_ORGANIZATION ( #47, #165, #302 ) ;
#143 = ORIENTED_EDGE ( 'NONE', *, *, #95, .F. ) ;
#144 = ORIENTED_EDGE ( 'NONE', *, *, #71, .F. ) ;
#145 = AXIS2_PLACEMENT_3D ( 'NONE', #198, #263, #290 ) ;
#146 = FACE_OUTER_BOUND ( 'NONE', #288, .T. ) ;
#147 = DIRECTION ( 'NONE',  ( -1.000000000000000000, 0.000000000000000000, 0.000000000000000000 ) ) ;
#148 = PERSON_AND_ORGANIZATION_ROLE ( 'classification_officer' ) ;
#149 = DIRECTION ( 'NONE',  ( -0.000000000000000000, -0.000000000000000000, -1.000000000000000000 ) ) ;
#150 = FACE_OUTER_BOUND ( 'NONE', #33, .T. ) ;
#151 = CIRCLE ( 'NONE', #20, 0.2000000000000000944 ) ;
#152 = CALENDAR_DATE ( 2022, 20, 6 ) ;
#153 = CARTESIAN_POINT ( 'NONE',  ( 0.000000000000000000, 0.000000000000000000, 2.000000000000000000 ) ) ;
#154 = LOCAL_TIME ( 12, 18, 25.00000000000000000, #65 ) ;
#155 = APPROVAL_DATE_TIME ( #81, #166 ) ;
#156 = LOCAL_TIME ( 12, 18, 25.00000000000000000, #292 ) ;
#157 = DIRECTION ( 'NONE',  ( 1.000000000000000000, 0.000000000000000000, 0.000000000000000000 ) ) ;
#158 = VERTEX_POINT ( 'NONE', #176 ) ;
#159 = CARTESIAN_POINT ( 'NONE',  ( -1.100000000000000089, 0.000000000000000000, 402.0000000000000000 ) ) ;
#160 = ADVANCED_FACE ( 'NONE', ( #45 ), #200, .T. ) ;
#161 = FACE_OUTER_BOUND ( 'NONE', #104, .T. ) ;
#162 = CIRCLE ( 'NONE', #111, 1.100000000000000089 ) ;
#163 = ORIENTED_EDGE ( 'NONE', *, *, #117, .T. ) ;
#164 = DATE_AND_TIME ( #91, #154 ) ;
#165 = APPROVAL ( #141, 'NEURÈENÝ' ) ;
#166 = APPROVAL ( #295, 'NEURÈENÝ' ) ;
#167 = DIRECTION ( 'NONE',  ( 1.000000000000000000, 0.000000000000000000, 0.000000000000000000 ) ) ;
#168 = CARTESIAN_POINT ( 'NONE',  ( -2.000000000000000000, 0.000000000000000000, 2.000000000000000000 ) ) ;
#169 = CIRCLE ( 'NONE', #138, 1.100000000000000089 ) ;
#170 = ORIENTED_EDGE ( 'NONE', *, *, #186, .T. ) ;
#171 = PERSON_AND_ORGANIZATION ( #28, #66 ) ;
#172 = CARTESIAN_POINT ( 'NONE',  ( 1.100000000000000089, 1.347111479062088503E-16, 2.199999999999979750 ) ) ;
#173 = DIRECTION ( 'NONE',  ( -0.000000000000000000, -0.000000000000000000, -1.000000000000000000 ) ) ;
#174 = VECTOR ( 'NONE', #82, 1000.000000000000000 ) ;
#175 = ORIENTED_EDGE ( 'NONE', *, *, #18, .F. ) ;
#176 = CARTESIAN_POINT ( 'NONE',  ( 2.000000000000000000, 2.449293598294706414E-16, 2.000000000000000000 ) ) ;
#177 = DIRECTION ( 'NONE',  ( -0.000000000000000000, -0.000000000000000000, -1.000000000000000000 ) ) ;
#178 = CARTESIAN_POINT ( 'NONE',  ( 2.000000000000000000, 2.449293598294706414E-16, 2.000000000000000000 ) ) ;
#179 = VERTEX_POINT ( 'NONE', #40 ) ;
#180 = CC_DESIGN_APPROVAL ( #165, ( #72 ) ) ;
#181 = CC_DESIGN_PERSON_AND_ORGANIZATION_ASSIGNMENT ( #171, #67, ( #100 ) ) ;
#182 = DIRECTION ( 'NONE',  ( 0.000000000000000000, 0.000000000000000000, 1.000000000000000000 ) ) ;
#183 = FACE_OUTER_BOUND ( 'NONE', #184, .T. ) ;
#184 = EDGE_LOOP ( 'NONE', ( #249, #194 ) ) ;
#185 = VECTOR ( 'NONE', #76, 1000.000000000000000 ) ;
#186 = EDGE_CURVE ( 'NONE', #26, #158, #255, .T. ) ;
#187 = APPROVAL_STATUS ( 'not_yet_approved' ) ;
#188 = VERTEX_POINT ( 'NONE', #159 ) ;
#189 = MECHANICAL_CONTEXT ( 'NONE', #99, 'mechanical' ) ;
#190 = COORDINATED_UNIVERSAL_TIME_OFFSET ( 1, 0, .AHEAD. ) ;
#191 = DIRECTION ( 'NONE',  ( -1.000000000000000000, 0.000000000000000000, 0.000000000000000000 ) ) ;
#192 = EDGE_CURVE ( 'NONE', #158, #26, #73, .T. ) ;
#193 = CALENDAR_DATE ( 2022, 20, 6 ) ;
#194 = ORIENTED_EDGE ( 'NONE', *, *, #117, .F. ) ;
#195 = CARTESIAN_POINT ( 'NONE',  ( 0.000000000000000000, 0.000000000000000000, 2.000000000000000000 ) ) ;
#196 = CC_DESIGN_PERSON_AND_ORGANIZATION_ASSIGNMENT ( #231, #52, ( #93 ) ) ;
#197 = CIRCLE ( 'NONE', #7, 2.000000000000000000 ) ;
#198 = CARTESIAN_POINT ( 'NONE',  ( 0.000000000000000000, 0.000000000000000000, 0.000000000000000000 ) ) ;
#199 = CARTESIAN_POINT ( 'NONE',  ( 1.100000000000000089, 1.347111479062088503E-16, 402.0000000000000000 ) ) ;
#200 = PLANE ( 'NONE',  #273 ) ;
#201 = DIRECTION ( 'NONE',  ( 1.000000000000000000, 0.000000000000000000, 0.000000000000000000 ) ) ;
#202 = AXIS2_PLACEMENT_3D ( 'NONE', #219, #24, #191 ) ;
#203 = EDGE_CURVE ( 'NONE', #158, #79, #225, .T. ) ;
#204 = AXIS2_PLACEMENT_3D ( 'NONE', #29, #211, #304 ) ;
#205 = CC_DESIGN_PERSON_AND_ORGANIZATION_ASSIGNMENT ( #283, #257, ( #72 ) ) ;
#206 = DIRECTION ( 'NONE',  ( 0.000000000000000000, 0.000000000000000000, 1.000000000000000000 ) ) ;
#207 = SECURITY_CLASSIFICATION ( '', '', #78 ) ;
#208 = LINE ( 'NONE', #83, #260 ) ;
#209 = DIRECTION ( 'NONE',  ( 1.000000000000000000, 0.000000000000000000, 0.000000000000000000 ) ) ;
#210 = ORIENTED_EDGE ( 'NONE', *, *, #186, .F. ) ;
#211 = DIRECTION ( 'NONE',  ( 0.000000000000000000, 0.000000000000000000, 1.000000000000000000 ) ) ;
#212 = AXIS2_PLACEMENT_3D ( 'NONE', #12, #243, #113 ) ;
#213 = CARTESIAN_POINT ( 'NONE',  ( -1.300000000000000266, 1.592040838891559342E-16, 1.999999999999989564 ) ) ;
#214 = EDGE_CURVE ( 'NONE', #44, #64, #38, .T. ) ;
#215 = CYLINDRICAL_SURFACE ( 'NONE', #227, 2.000000000000000000 ) ;
#216 = PERSON_AND_ORGANIZATION ( #28, #66 ) ;
#217 = DIRECTION ( 'NONE',  ( 0.000000000000000000, 0.000000000000000000, 1.000000000000000000 ) ) ;
#218 = ORIENTED_EDGE ( 'NONE', *, *, #294, .F. ) ;
#219 = CARTESIAN_POINT ( 'NONE',  ( 0.000000000000000000, 0.000000000000000000, 402.0000000000000000 ) ) ;
#220 = APPROVAL_PERSON_ORGANIZATION ( #216, #166, #32 ) ;
#221 = FACE_OUTER_BOUND ( 'NONE', #226, .T. ) ;
#222 = CARTESIAN_POINT ( 'NONE',  ( 0.000000000000000000, 0.000000000000000000, 2.199999999999979750 ) ) ;
#223 = EDGE_CURVE ( 'NONE', #17, #64, #248, .T. ) ;
#224 = APPROVAL_PERSON_ORGANIZATION ( #262, #54, #122 ) ;
#225 = LINE ( 'NONE', #178, #174 ) ;
#226 = EDGE_LOOP ( 'NONE', ( #144, #218, #261, #5 ) ) ;
#227 = AXIS2_PLACEMENT_3D ( 'NONE', #55, #173, #147 ) ;
#228 = DIRECTION ( 'NONE',  ( 1.000000000000000000, 0.000000000000000000, 0.000000000000000000 ) ) ;
#229 = DIRECTION ( 'NONE',  ( -1.000000000000000000, 0.000000000000000000, 0.000000000000000000 ) ) ;
#230 = PRODUCT_DEFINITION_SHAPE ( 'NONE', 'NONE',  #72 ) ;
#231 = PERSON_AND_ORGANIZATION ( #28, #66 ) ;
#232 = COORDINATED_UNIVERSAL_TIME_OFFSET ( 1, 0, .AHEAD. ) ;
#233 = CARTESIAN_POINT ( 'NONE',  ( 0.000000000000000000, 0.000000000000000000, 2.199999999999979750 ) ) ;
#234 = ADVANCED_FACE ( 'NONE', ( #183 ), #37, .F. ) ;
#235 = CYLINDRICAL_SURFACE ( 'NONE', #202, 1.100000000000000089 ) ;
#236 = DATE_TIME_ROLE ( 'creation_date' ) ;
#237 = EDGE_LOOP ( 'NONE', ( #307, #98, #163, #175 ) ) ;
#238 = PLANE ( 'NONE',  #60 ) ;
#239 = CC_DESIGN_SECURITY_CLASSIFICATION ( #207, ( #93 ) ) ;
#240 = VERTEX_POINT ( 'NONE', #16 ) ;
#241 = DATE_TIME_ROLE ( 'classification_date' ) ;
#242 = CARTESIAN_POINT ( 'NONE',  ( 1.300000000000000266, 0.000000000000000000, 1.999999999999989564 ) ) ;
#243 = DIRECTION ( 'NONE',  ( 0.000000000000000000, -1.000000000000000000, 0.000000000000000000 ) ) ;
#244 = CC_DESIGN_APPROVAL ( #54, ( #93 ) ) ;
#245 = DIRECTION ( 'NONE',  ( 0.000000000000000000, 0.000000000000000000, 1.000000000000000000 ) ) ;
#246 = CC_DESIGN_PERSON_AND_ORGANIZATION_ASSIGNMENT ( #108, #102, ( #93 ) ) ;
#247 = DESIGN_CONTEXT ( 'detailed design', #274, 'design' ) ;
#248 = CIRCLE ( 'NONE', #212, 0.2000000000000000944 ) ;
#249 = ORIENTED_EDGE ( 'NONE', *, *, #39, .F. ) ;
#250 = DIRECTION ( 'NONE',  ( 1.000000000000000000, 0.000000000000000000, 0.000000000000000000 ) ) ;
#251 = ORIENTED_EDGE ( 'NONE', *, *, #8, .T. ) ;
#252 = CARTESIAN_POINT ( 'NONE',  ( 0.000000000000000000, 0.000000000000000000, 0.000000000000000000 ) ) ;
#253 = ORIENTED_EDGE ( 'NONE', *, *, #192, .T. ) ;
#254 = EDGE_CURVE ( 'NONE', #179, #17, #169, .T. ) ;
#255 = CIRCLE ( 'NONE', #114, 2.000000000000000000 ) ;
#256 = APPROVAL_DATE_TIME ( #164, #54 ) ;
#257 = PERSON_AND_ORGANIZATION_ROLE ( 'creator' ) ;
#258 = EDGE_CURVE ( 'NONE', #188, #179, #208, .T. ) ;
#259 = DIRECTION ( 'NONE',  ( -1.000000000000000000, 1.224646799147353207E-16, 0.000000000000000000 ) ) ;
#260 = VECTOR ( 'NONE', #130, 1000.000000000000000 ) ;
#261 = ORIENTED_EDGE ( 'NONE', *, *, #223, .T. ) ;
#262 = PERSON_AND_ORGANIZATION ( #28, #66 ) ;
#263 = DIRECTION ( 'NONE',  ( 0.000000000000000000, 0.000000000000000000, 1.000000000000000000 ) ) ;
#264 = FACE_OUTER_BOUND ( 'NONE', #278, .T. ) ;
#265 = ORIENTED_EDGE ( 'NONE', *, *, #279, .F. ) ;
#266 = SHAPE_DEFINITION_REPRESENTATION ( #230, #281 ) ;
#267 = CARTESIAN_POINT ( 'NONE',  ( 0.000000000000000000, 0.000000000000000000, 2.000000000000000000 ) ) ;
#268 = ADVANCED_FACE ( 'NONE', ( #161 ), #118, .T. ) ;
#269 = DATE_AND_TIME ( #152, #15 ) ;
#270 = ADVANCED_FACE ( 'NONE', ( #132 ), #22, .F. ) ;
#271 = CIRCLE ( 'NONE', #124, 1.300000000000000266 ) ;
#272 = CARTESIAN_POINT ( 'NONE',  ( 0.000000000000000000, 0.000000000000000000, 402.0000000000000000 ) ) ;
#273 = AXIS2_PLACEMENT_3D ( 'NONE', #58, #90, #298 ) ;
#274 = APPLICATION_CONTEXT ( 'configuration controlled 3d designs of mechanical parts and assemblies' ) ;
#275 = DIRECTION ( 'NONE',  ( -0.000000000000000000, -0.000000000000000000, -1.000000000000000000 ) ) ;
#276 = ORIENTED_EDGE ( 'NONE', *, *, #95, .T. ) ;
#277 = CC_DESIGN_APPROVAL ( #166, ( #207 ) ) ;
#278 = EDGE_LOOP ( 'NONE', ( #119, #265, #74, #30 ) ) ;
#279 = EDGE_CURVE ( 'NONE', #188, #50, #125, .T. ) ;
#280 = DIRECTION ( 'NONE',  ( 0.000000000000000000, 0.000000000000000000, 1.000000000000000000 ) ) ;
#281 = ADVANCED_BREP_SHAPE_REPRESENTATION ( '1f81', ( #25, #204 ), #300 ) ;
#282 =( NAMED_UNIT ( * ) SI_UNIT ( $, .STERADIAN. ) SOLID_ANGLE_UNIT ( ) );
#283 = PERSON_AND_ORGANIZATION ( #28, #66 ) ;
#284 = DIRECTION ( 'NONE',  ( 0.000000000000000000, 0.000000000000000000, 1.000000000000000000 ) ) ;
#285 = ORIENTED_EDGE ( 'NONE', *, *, #254, .F. ) ;
#286 = AXIS2_PLACEMENT_3D ( 'NONE', #62, #275, #228 ) ;
#287 = DATE_AND_TIME ( #193, #105 ) ;
#288 = EDGE_LOOP ( 'NONE', ( #170, #253 ) ) ;
#289 = DIRECTION ( 'NONE',  ( 1.000000000000000000, 0.000000000000000000, -0.000000000000000000 ) ) ;
#290 = DIRECTION ( 'NONE',  ( 1.000000000000000000, 0.000000000000000000, 0.000000000000000000 ) ) ;
#291 = AXIS2_PLACEMENT_3D ( 'NONE', #267, #293, #134 ) ;
#292 = COORDINATED_UNIVERSAL_TIME_OFFSET ( 1, 0, .AHEAD. ) ;
#293 = DIRECTION ( 'NONE',  ( -0.000000000000000000, -0.000000000000000000, -1.000000000000000000 ) ) ;
#294 = EDGE_CURVE ( 'NONE', #17, #179, #299, .T. ) ;
#295 = APPROVAL_STATUS ( 'not_yet_approved' ) ;
#296 = DIRECTION ( 'NONE',  ( 1.000000000000000000, 0.000000000000000000, -0.000000000000000000 ) ) ;
#297 = CC_DESIGN_PERSON_AND_ORGANIZATION_ASSIGNMENT ( #36, #148, ( #207 ) ) ;
#298 = DIRECTION ( 'NONE',  ( 1.000000000000000000, 0.000000000000000000, -0.000000000000000000 ) ) ;
#299 = CIRCLE ( 'NONE', #131, 1.100000000000000089 ) ;
#300 =( GEOMETRIC_REPRESENTATION_CONTEXT ( 3 ) GLOBAL_UNCERTAINTY_ASSIGNED_CONTEXT ( ( #23 ) ) GLOBAL_UNIT_ASSIGNED_CONTEXT ( ( #21, #19, #282 ) ) REPRESENTATION_CONTEXT ( 'NONE', 'WORKASPACE' ) );
#301 = DIRECTION ( 'NONE',  ( 0.000000000000000000, 0.000000000000000000, 1.000000000000000000 ) ) ;
#302 = APPROVAL_ROLE ( '' ) ;
#303 = AXIS2_PLACEMENT_3D ( 'NONE', #109, #280, #56 ) ;
#304 = DIRECTION ( 'NONE',  ( 1.000000000000000000, 0.000000000000000000, 0.000000000000000000 ) ) ;
#305 = AXIS2_PLACEMENT_3D ( 'NONE', #86, #245, #11 ) ;
#306 = APPLICATION_PROTOCOL_DEFINITION ( 'international standard', 'config_control_design', 1994, #99 ) ;
#307 = ORIENTED_EDGE ( 'NONE', *, *, #192, .F. ) ;
ENDSEC;
END-ISO-10303-21;
