ISO-10303-21;
HEADER;
FILE_DESCRIPTION (( 'STEP AP203' ),
    '1' );
FILE_NAME ('5bc6.STEP',
    '2022-06-20T09:22:45',
    ( '' ),
    ( '' ),
    'SwSTEP 2.0',
    'SolidWorks 2019',
    '' );
FILE_SCHEMA (( 'CONFIG_CONTROL_DESIGN' ));
ENDSEC;

DATA;
#1 = CARTESIAN_POINT ( 'NONE',  ( 0.000000000000000000, 0.000000000000000000, 0.000000000000000000 ) ) ;
#2 = ADVANCED_FACE ( 'NONE', ( #77 ), #52, .T. ) ;
#3 = DIRECTION ( 'NONE',  ( 1.000000000000000000, 0.000000000000000000, -0.000000000000000000 ) ) ;
#4 = FACE_OUTER_BOUND ( 'NONE', #140, .T. ) ;
#5 = DESIGN_CONTEXT ( 'detailed design', #145, 'design' ) ;
#6 = EDGE_CURVE ( 'NONE', #48, #235, #195, .T. ) ;
#7 = VECTOR ( 'NONE', #33, 1000.000000000000000 ) ;
#8 = PERSON_AND_ORGANIZATION ( #246, #272 ) ;
#9 = FACE_OUTER_BOUND ( 'NONE', #115, .T. ) ;
#10 = PERSON_AND_ORGANIZATION_ROLE ( 'creator' ) ;
#11 = ORIENTED_EDGE ( 'NONE', *, *, #212, .F. ) ;
#12 = APPROVAL_STATUS ( 'not_yet_approved' ) ;
#13 = CIRCLE ( 'NONE', #32, 0.1999999999999996503 ) ;
#14 = CLOSED_SHELL ( 'NONE', ( #147, #2, #141, #158, #197, #78, #200, #55, #248 ) ) ;
#15 = CC_DESIGN_PERSON_AND_ORGANIZATION_ASSIGNMENT ( #178, #205, ( #159 ) ) ;
#16 = APPROVAL_ROLE ( '' ) ;
#17 = DIRECTION ( 'NONE',  ( 1.000000000000000000, 0.000000000000000000, 0.000000000000000000 ) ) ;
#18 = EDGE_LOOP ( 'NONE', ( #204, #56 ) ) ;
#19 = VERTEX_POINT ( 'NONE', #41 ) ;
#20 =( GEOMETRIC_REPRESENTATION_CONTEXT ( 3 ) GLOBAL_UNCERTAINTY_ASSIGNED_CONTEXT ( ( #123 ) ) GLOBAL_UNIT_ASSIGNED_CONTEXT ( ( #243, #31, #26 ) ) REPRESENTATION_CONTEXT ( 'NONE', 'WORKASPACE' ) );
#21 = AXIS2_PLACEMENT_3D ( 'NONE', #245, #57, #155 ) ;
#22 = CARTESIAN_POINT ( 'NONE',  ( 0.000000000000000000, 0.000000000000000000, 7.199999999999998401 ) ) ;
#23 = ORIENTED_EDGE ( 'NONE', *, *, #128, .F. ) ;
#24 = CARTESIAN_POINT ( 'NONE',  ( 0.000000000000000000, 0.000000000000000000, 7.000000000000000000 ) ) ;
#25 = ORIENTED_EDGE ( 'NONE', *, *, #6, .F. ) ;
#26 =( NAMED_UNIT ( * ) SI_UNIT ( $, .STERADIAN. ) SOLID_ANGLE_UNIT ( ) );
#27 = LOCAL_TIME ( 11, 22, 45.00000000000000000, #298 ) ;
#28 = APPROVAL ( #228, 'NEURÈENÝ' ) ;
#29 = DIRECTION ( 'NONE',  ( -0.000000000000000000, -0.000000000000000000, -1.000000000000000000 ) ) ;
#30 = EDGE_CURVE ( 'NONE', #19, #182, #174, .T. ) ;
#31 =( NAMED_UNIT ( * ) PLANE_ANGLE_UNIT ( ) SI_UNIT ( $, .RADIAN. ) );
#32 = AXIS2_PLACEMENT_3D ( 'NONE', #253, #43, #163 ) ;
#33 = DIRECTION ( 'NONE',  ( -0.000000000000000000, -0.000000000000000000, -1.000000000000000000 ) ) ;
#34 = AXIS2_PLACEMENT_3D ( 'NONE', #1, #222, #3 ) ;
#35 = APPROVAL_DATE_TIME ( #255, #28 ) ;
#36 = EDGE_LOOP ( 'NONE', ( #278, #257, #288, #286 ) ) ;
#37 = DATE_TIME_ROLE ( 'creation_date' ) ;
#38 = PERSON_AND_ORGANIZATION ( #246, #272 ) ;
#39 = CC_DESIGN_DATE_AND_TIME_ASSIGNMENT ( #227, #45, ( #159 ) ) ;
#40 = DIRECTION ( 'NONE',  ( -0.000000000000000000, -0.000000000000000000, -1.000000000000000000 ) ) ;
#41 = CARTESIAN_POINT ( 'NONE',  ( 9.000000000000000000, 1.102182119232617714E-15, 107.0000000000000142 ) ) ;
#42 = AXIS2_PLACEMENT_3D ( 'NONE', #167, #282, #186 ) ;
#43 = DIRECTION ( 'NONE',  ( 0.000000000000000000, -1.000000000000000000, 0.000000000000000000 ) ) ;
#44 = DIRECTION ( 'NONE',  ( 1.000000000000000000, 0.000000000000000000, 0.000000000000000000 ) ) ;
#45 = DATE_TIME_ROLE ( 'classification_date' ) ;
#46 = DIRECTION ( 'NONE',  ( 0.000000000000000000, 0.000000000000000000, 1.000000000000000000 ) ) ;
#47 = PRODUCT_RELATED_PRODUCT_CATEGORY ( 'detail', '', ( #264 ) ) ;
#48 = VERTEX_POINT ( 'NONE', #261 ) ;
#49 = FACE_OUTER_BOUND ( 'NONE', #175, .T. ) ;
#50 = EDGE_LOOP ( 'NONE', ( #300, #137 ) ) ;
#51 = DIRECTION ( 'NONE',  ( 1.000000000000000000, 0.000000000000000000, 0.000000000000000000 ) ) ;
#52 = CYLINDRICAL_SURFACE ( 'NONE', #306, 9.000000000000000000 ) ;
#53 = LINE ( 'NONE', #269, #265 ) ;
#54 = VECTOR ( 'NONE', #242, 1000.000000000000000 ) ;
#55 = ADVANCED_FACE ( 'NONE', ( #165 ), #284, .T. ) ;
#56 = ORIENTED_EDGE ( 'NONE', *, *, #262, .T. ) ;
#57 = DIRECTION ( 'NONE',  ( 0.000000000000000000, 0.000000000000000000, 1.000000000000000000 ) ) ;
#58 = DIRECTION ( 'NONE',  ( 1.000000000000000000, 0.000000000000000000, 0.000000000000000000 ) ) ;
#59 = LINE ( 'NONE', #61, #152 ) ;
#60 = DIRECTION ( 'NONE',  ( 0.000000000000000000, 0.000000000000000000, 1.000000000000000000 ) ) ;
#61 = CARTESIAN_POINT ( 'NONE',  ( -12.00000000000000178, 0.000000000000000000, 7.000000000000000000 ) ) ;
#62 = DATE_AND_TIME ( #64, #201 ) ;
#63 = CARTESIAN_POINT ( 'NONE',  ( 0.000000000000000000, 0.000000000000000000, 7.199999999999998401 ) ) ;
#64 = CALENDAR_DATE ( 2022, 20, 6 ) ;
#65 = ADVANCED_BREP_SHAPE_REPRESENTATION ( '5bc6', ( #144, #100 ), #20 ) ;
#66 = FACE_OUTER_BOUND ( 'NONE', #36, .T. ) ;
#67 = LOCAL_TIME ( 11, 22, 45.00000000000000000, #156 ) ;
#68 = ORIENTED_EDGE ( 'NONE', *, *, #307, .F. ) ;
#69 = CC_DESIGN_APPROVAL ( #146, ( #159 ) ) ;
#70 = PERSON_AND_ORGANIZATION ( #246, #272 ) ;
#71 = PRODUCT_DEFINITION_SHAPE ( 'NONE', 'NONE',  #233 ) ;
#72 = DIRECTION ( 'NONE',  ( -1.000000000000000000, 0.000000000000000000, 0.000000000000000000 ) ) ;
#73 = VERTEX_POINT ( 'NONE', #304 ) ;
#74 = DIRECTION ( 'NONE',  ( 0.000000000000000000, 0.000000000000000000, 1.000000000000000000 ) ) ;
#75 = CARTESIAN_POINT ( 'NONE',  ( 9.000000000000000000, 1.102182119232617714E-15, 7.199999999999998401 ) ) ;
#76 = ORIENTED_EDGE ( 'NONE', *, *, #128, .T. ) ;
#77 = FACE_OUTER_BOUND ( 'NONE', #113, .T. ) ;
#78 = ADVANCED_FACE ( 'NONE', ( #99 ), #132, .F. ) ;
#79 = CIRCLE ( 'NONE', #250, 9.000000000000000000 ) ;
#80 = CARTESIAN_POINT ( 'NONE',  ( 9.199999999999999289, 0.000000000000000000, 6.999999999999999112 ) ) ;
#81 = AXIS2_PLACEMENT_3D ( 'NONE', #63, #142, #108 ) ;
#82 = PERSON_AND_ORGANIZATION ( #246, #272 ) ;
#83 = ORIENTED_EDGE ( 'NONE', *, *, #85, .F. ) ;
#84 = COORDINATED_UNIVERSAL_TIME_OFFSET ( 1, 0, .AHEAD. ) ;
#85 = EDGE_CURVE ( 'NONE', #48, #73, #59, .T. ) ;
#86 = CARTESIAN_POINT ( 'NONE',  ( 0.000000000000000000, 0.000000000000000000, 0.000000000000000000 ) ) ;
#87 = APPROVAL_DATE_TIME ( #111, #176 ) ;
#88 = FACE_BOUND ( 'NONE', #18, .T. ) ;
#89 = ORIENTED_EDGE ( 'NONE', *, *, #263, .F. ) ;
#90 = PERSON_AND_ORGANIZATION ( #246, #272 ) ;
#91 = FACE_OUTER_BOUND ( 'NONE', #96, .T. ) ;
#92 = AXIS2_PLACEMENT_3D ( 'NONE', #95, #302, #260 ) ;
#93 = EDGE_LOOP ( 'NONE', ( #303, #211 ) ) ;
#94 = ORIENTED_EDGE ( 'NONE', *, *, #263, .T. ) ;
#95 = CARTESIAN_POINT ( 'NONE',  ( 0.000000000000000000, 0.000000000000000000, 107.0000000000000142 ) ) ;
#96 = EDGE_LOOP ( 'NONE', ( #89, #268, #275, #239 ) ) ;
#97 = CC_DESIGN_PERSON_AND_ORGANIZATION_ASSIGNMENT ( #162, #10, ( #233 ) ) ;
#98 = CC_DESIGN_APPROVAL ( #176, ( #233 ) ) ;
#99 = FACE_OUTER_BOUND ( 'NONE', #93, .T. ) ;
#100 = AXIS2_PLACEMENT_3D ( 'NONE', #280, #60, #58 ) ;
#101 = CARTESIAN_POINT ( 'NONE',  ( -9.199999999999999289, 1.126675055215564822E-15, 6.999999999999999112 ) ) ;
#102 = APPROVAL_PERSON_ORGANIZATION ( #90, #146, #133 ) ;
#103 = APPLICATION_CONTEXT ( 'configuration controlled 3d designs of mechanical parts and assemblies' ) ;
#104 = CC_DESIGN_PERSON_AND_ORGANIZATION_ASSIGNMENT ( #180, #249, ( #240 ) ) ;
#105 = APPROVAL_DATE_TIME ( #62, #146 ) ;
#106 = EDGE_CURVE ( 'NONE', #182, #19, #252, .T. ) ;
#107 = CIRCLE ( 'NONE', #236, 12.00000000000000178 ) ;
#108 = DIRECTION ( 'NONE',  ( 1.000000000000000000, 0.000000000000000000, 0.000000000000000000 ) ) ;
#109 = EDGE_CURVE ( 'NONE', #19, #293, #266, .T. ) ;
#110 = EDGE_LOOP ( 'NONE', ( #215, #127 ) ) ;
#111 = DATE_AND_TIME ( #273, #192 ) ;
#112 = DIRECTION ( 'NONE',  ( 1.000000000000000000, 0.000000000000000000, 0.000000000000000000 ) ) ;
#113 = EDGE_LOOP ( 'NONE', ( #301, #199, #230, #68 ) ) ;
#114 = CARTESIAN_POINT ( 'NONE',  ( 12.00000000000000178, 1.469576158976824144E-15, 7.000000000000000000 ) ) ;
#115 = EDGE_LOOP ( 'NONE', ( #135, #76, #247, #83 ) ) ;
#116 = AXIS2_PLACEMENT_3D ( 'NONE', #219, #74, #258 ) ;
#117 = DIRECTION ( 'NONE',  ( 0.000000000000000000, 0.000000000000000000, 1.000000000000000000 ) ) ;
#118 = DIRECTION ( 'NONE',  ( 1.000000000000000000, 0.000000000000000000, -0.000000000000000000 ) ) ;
#119 = AXIS2_PLACEMENT_3D ( 'NONE', #292, #172, #267 ) ;
#120 = AXIS2_PLACEMENT_3D ( 'NONE', #214, #139, #285 ) ;
#121 = EDGE_CURVE ( 'NONE', #293, #193, #187, .T. ) ;
#122 = DIRECTION ( 'NONE',  ( -1.000000000000000000, 0.000000000000000000, 0.000000000000000000 ) ) ;
#123 = UNCERTAINTY_MEASURE_WITH_UNIT (LENGTH_MEASURE( 1.000000000000000082E-05 ), #243, 'distance_accuracy_value', 'NONE');
#124 = CC_DESIGN_SECURITY_CLASSIFICATION ( #159, ( #240 ) ) ;
#125 = LINE ( 'NONE', #148, #54 ) ;
#126 = AXIS2_PLACEMENT_3D ( 'NONE', #129, #29, #122 ) ;
#127 = ORIENTED_EDGE ( 'NONE', *, *, #30, .T. ) ;
#128 = EDGE_CURVE ( 'NONE', #235, #208, #125, .T. ) ;
#129 = CARTESIAN_POINT ( 'NONE',  ( 0.000000000000000000, 0.000000000000000000, 7.000000000000000000 ) ) ;
#130 = CALENDAR_DATE ( 2022, 20, 6 ) ;
#131 = APPROVAL_PERSON_ORGANIZATION ( #8, #28, #244 ) ;
#132 = PLANE ( 'NONE',  #34 ) ;
#133 = APPROVAL_ROLE ( '' ) ;
#134 = CARTESIAN_POINT ( 'NONE',  ( 12.00000000000000178, 1.469576158976824144E-15, 0.000000000000000000 ) ) ;
#135 = ORIENTED_EDGE ( 'NONE', *, *, #171, .F. ) ;
#136 = DIRECTION ( 'NONE',  ( 1.000000000000000000, 0.000000000000000000, 0.000000000000000000 ) ) ;
#137 = ORIENTED_EDGE ( 'NONE', *, *, #171, .T. ) ;
#138 = APPROVAL_PERSON_ORGANIZATION ( #70, #176, #16 ) ;
#139 = DIRECTION ( 'NONE',  ( 1.224646799147353207E-16, 1.000000000000000000, -0.000000000000000000 ) ) ;
#140 = EDGE_LOOP ( 'NONE', ( #191, #94, #225, #11 ) ) ;
#141 = ADVANCED_FACE ( 'NONE', ( #9 ), #203, .T. ) ;
#142 = DIRECTION ( 'NONE',  ( 0.000000000000000000, 0.000000000000000000, 1.000000000000000000 ) ) ;
#143 = ORIENTED_EDGE ( 'NONE', *, *, #85, .T. ) ;
#144 = MANIFOLD_SOLID_BREP ( 'Zaoblit1', #14 ) ;
#145 = APPLICATION_CONTEXT ( 'configuration controlled 3d designs of mechanical parts and assemblies' ) ;
#146 = APPROVAL ( #12, 'NEURÈENÝ' ) ;
#147 = ADVANCED_FACE ( 'NONE', ( #4 ), #216, .F. ) ;
#148 = CARTESIAN_POINT ( 'NONE',  ( 12.00000000000000178, 1.469576158976824144E-15, 7.000000000000000000 ) ) ;
#149 = CIRCLE ( 'NONE', #213, 9.199999999999999289 ) ;
#150 = DATE_AND_TIME ( #224, #67 ) ;
#151 = CARTESIAN_POINT ( 'NONE',  ( 9.000000000000000000, 1.102182119232617714E-15, 107.0000000000000142 ) ) ;
#152 = VECTOR ( 'NONE', #177, 1000.000000000000000 ) ;
#153 = VERTEX_POINT ( 'NONE', #80 ) ;
#154 = CALENDAR_DATE ( 2022, 20, 6 ) ;
#155 = DIRECTION ( 'NONE',  ( 1.000000000000000000, 0.000000000000000000, 0.000000000000000000 ) ) ;
#156 = COORDINATED_UNIVERSAL_TIME_OFFSET ( 1, 0, .AHEAD. ) ;
#157 = CYLINDRICAL_SURFACE ( 'NONE', #290, 12.00000000000000178 ) ;
#158 = ADVANCED_FACE ( 'NONE', ( #49 ), #157, .T. ) ;
#159 = SECURITY_CLASSIFICATION ( '', '', #202 ) ;
#160 = CYLINDRICAL_SURFACE ( 'NONE', #92, 9.000000000000000000 ) ;
#161 = CARTESIAN_POINT ( 'NONE',  ( 0.000000000000000000, 0.000000000000000000, 107.0000000000000142 ) ) ;
#162 = PERSON_AND_ORGANIZATION ( #246, #272 ) ;
#163 = DIRECTION ( 'NONE',  ( 0.000000000000000000, 0.000000000000000000, -1.000000000000000000 ) ) ;
#164 = CARTESIAN_POINT ( 'NONE',  ( 0.000000000000000000, 0.000000000000000000, 7.000000000000000000 ) ) ;
#165 = FACE_OUTER_BOUND ( 'NONE', #110, .T. ) ;
#166 = CARTESIAN_POINT ( 'NONE',  ( 0.000000000000000000, 0.000000000000000000, 7.000000000000000000 ) ) ;
#167 = CARTESIAN_POINT ( 'NONE',  ( 0.000000000000000000, 0.000000000000000000, 107.0000000000000142 ) ) ;
#168 = CARTESIAN_POINT ( 'NONE',  ( 0.000000000000000000, 0.000000000000000000, 7.000000000000000000 ) ) ;
#169 = CC_DESIGN_DATE_AND_TIME_ASSIGNMENT ( #150, #37, ( #233 ) ) ;
#170 = APPLICATION_PROTOCOL_DEFINITION ( 'international standard', 'config_control_design', 1994, #103 ) ;
#171 = EDGE_CURVE ( 'NONE', #235, #48, #220, .T. ) ;
#172 = DIRECTION ( 'NONE',  ( 0.000000000000000000, 0.000000000000000000, 1.000000000000000000 ) ) ;
#173 = AXIS2_PLACEMENT_3D ( 'NONE', #232, #299, #17 ) ;
#174 = CIRCLE ( 'NONE', #42, 9.000000000000000000 ) ;
#175 = EDGE_LOOP ( 'NONE', ( #23, #25, #143, #218 ) ) ;
#176 = APPROVAL ( #276, 'NEURÈENÝ' ) ;
#177 = DIRECTION ( 'NONE',  ( -0.000000000000000000, -0.000000000000000000, -1.000000000000000000 ) ) ;
#178 = PERSON_AND_ORGANIZATION ( #246, #272 ) ;
#179 = DIRECTION ( 'NONE',  ( 1.000000000000000000, 0.000000000000000000, 0.000000000000000000 ) ) ;
#180 = PERSON_AND_ORGANIZATION ( #246, #272 ) ;
#181 = DIRECTION ( 'NONE',  ( 0.000000000000000000, 0.000000000000000000, 1.000000000000000000 ) ) ;
#182 = VERTEX_POINT ( 'NONE', #274 ) ;
#183 = PERSON_AND_ORGANIZATION_ROLE ( 'design_owner' ) ;
#184 = AXIS2_PLACEMENT_3D ( 'NONE', #210, #181, #112 ) ;
#185 = CARTESIAN_POINT ( 'NONE',  ( 0.000000000000000000, 0.000000000000000000, 7.199999999999998401 ) ) ;
#186 = DIRECTION ( 'NONE',  ( 1.000000000000000000, 0.000000000000000000, 0.000000000000000000 ) ) ;
#187 = CIRCLE ( 'NONE', #21, 9.000000000000000000 ) ;
#188 = CARTESIAN_POINT ( 'NONE',  ( 0.000000000000000000, 0.000000000000000000, 7.000000000000000000 ) ) ;
#189 = DIRECTION ( 'NONE',  ( 0.000000000000000000, 0.000000000000000000, 1.000000000000000000 ) ) ;
#190 = DIRECTION ( 'NONE',  ( 1.000000000000000000, 0.000000000000000000, 0.000000000000000000 ) ) ;
#191 = ORIENTED_EDGE ( 'NONE', *, *, #271, .F. ) ;
#192 = LOCAL_TIME ( 11, 22, 45.00000000000000000, #231 ) ;
#193 = VERTEX_POINT ( 'NONE', #207 ) ;
#194 = EDGE_CURVE ( 'NONE', #153, #297, #241, .T. ) ;
#195 = CIRCLE ( 'NONE', #229, 12.00000000000000178 ) ;
#196 = AXIS2_PLACEMENT_3D ( 'NONE', #185, #46, #136 ) ;
#197 = ADVANCED_FACE ( 'NONE', ( #88, #234 ), #277, .T. ) ;
#198 = CIRCLE ( 'NONE', #173, 12.00000000000000178 ) ;
#199 = ORIENTED_EDGE ( 'NONE', *, *, #109, .T. ) ;
#200 = ADVANCED_FACE ( 'NONE', ( #66 ), #160, .T. ) ;
#201 = LOCAL_TIME ( 11, 22, 45.00000000000000000, #226 ) ;
#202 = SECURITY_CLASSIFICATION_LEVEL ( 'unclassified' ) ;
#203 = CYLINDRICAL_SURFACE ( 'NONE', #126, 12.00000000000000178 ) ;
#204 = ORIENTED_EDGE ( 'NONE', *, *, #194, .T. ) ;
#205 = PERSON_AND_ORGANIZATION_ROLE ( 'classification_officer' ) ;
#206 = EDGE_CURVE ( 'NONE', #208, #73, #107, .T. ) ;
#207 = CARTESIAN_POINT ( 'NONE',  ( -9.000000000000000000, 0.000000000000000000, 7.199999999999998401 ) ) ;
#208 = VERTEX_POINT ( 'NONE', #134 ) ;
#209 = PERSON_AND_ORGANIZATION_ROLE ( 'creator' ) ;
#210 = CARTESIAN_POINT ( 'NONE',  ( 0.000000000000000000, 0.000000000000000000, 7.000000000000000000 ) ) ;
#211 = ORIENTED_EDGE ( 'NONE', *, *, #206, .F. ) ;
#212 = EDGE_CURVE ( 'NONE', #293, #153, #13, .T. ) ;
#213 = AXIS2_PLACEMENT_3D ( 'NONE', #188, #256, #190 ) ;
#214 = CARTESIAN_POINT ( 'NONE',  ( -9.199999999999999289, 1.126675055215564822E-15, 7.199999999999998401 ) ) ;
#215 = ORIENTED_EDGE ( 'NONE', *, *, #106, .T. ) ;
#216 = TOROIDAL_SURFACE ( 'NONE', #81, 9.199999999999999289, 0.2000000000000000111 ) ;
#217 = DIRECTION ( 'NONE',  ( 1.000000000000000000, 0.000000000000000000, 0.000000000000000000 ) ) ;
#218 = ORIENTED_EDGE ( 'NONE', *, *, #223, .T. ) ;
#219 = CARTESIAN_POINT ( 'NONE',  ( 0.000000000000000000, 0.000000000000000000, 107.0000000000000142 ) ) ;
#220 = CIRCLE ( 'NONE', #184, 12.00000000000000178 ) ;
#221 = DIRECTION ( 'NONE',  ( -0.000000000000000000, -0.000000000000000000, -1.000000000000000000 ) ) ;
#222 = DIRECTION ( 'NONE',  ( 0.000000000000000000, 0.000000000000000000, 1.000000000000000000 ) ) ;
#223 = EDGE_CURVE ( 'NONE', #73, #208, #198, .T. ) ;
#224 = CALENDAR_DATE ( 2022, 20, 6 ) ;
#225 = ORIENTED_EDGE ( 'NONE', *, *, #194, .F. ) ;
#226 = COORDINATED_UNIVERSAL_TIME_OFFSET ( 1, 0, .AHEAD. ) ;
#227 = DATE_AND_TIME ( #154, #27 ) ;
#228 = APPROVAL_STATUS ( 'not_yet_approved' ) ;
#229 = AXIS2_PLACEMENT_3D ( 'NONE', #168, #189, #44 ) ;
#230 = ORIENTED_EDGE ( 'NONE', *, *, #121, .T. ) ;
#231 = COORDINATED_UNIVERSAL_TIME_OFFSET ( 1, 0, .AHEAD. ) ;
#232 = CARTESIAN_POINT ( 'NONE',  ( 0.000000000000000000, 0.000000000000000000, 0.000000000000000000 ) ) ;
#233 = PRODUCT_DEFINITION ( 'NEZNÁMÝ', '', #240, #5 ) ;
#234 = FACE_OUTER_BOUND ( 'NONE', #50, .T. ) ;
#235 = VERTEX_POINT ( 'NONE', #114 ) ;
#236 = AXIS2_PLACEMENT_3D ( 'NONE', #86, #283, #179 ) ;
#237 = AXIS2_PLACEMENT_3D ( 'NONE', #24, #296, #118 ) ;
#238 = DIRECTION ( 'NONE',  ( -0.000000000000000000, -0.000000000000000000, -1.000000000000000000 ) ) ;
#239 = ORIENTED_EDGE ( 'NONE', *, *, #262, .F. ) ;
#240 = PRODUCT_DEFINITION_FORMATION_WITH_SPECIFIED_SOURCE ( 'LIBOVOLNÝ', '', #264, .NOT_KNOWN. ) ;
#241 = CIRCLE ( 'NONE', #291, 9.199999999999999289 ) ;
#242 = DIRECTION ( 'NONE',  ( -0.000000000000000000, -0.000000000000000000, -1.000000000000000000 ) ) ;
#243 =( LENGTH_UNIT ( ) NAMED_UNIT ( * ) SI_UNIT ( .MILLI., .METRE. ) );
#244 = APPROVAL_ROLE ( '' ) ;
#245 = CARTESIAN_POINT ( 'NONE',  ( 0.000000000000000000, 0.000000000000000000, 7.199999999999998401 ) ) ;
#246 = PERSON ( 'NEURÈENÝ', 'NEURÈENÝ', 'NEURÈENÝ', ('NEURÈENÝ'), ('NEURÈENÝ'), ('NEURÈENÝ') ) ;
#247 = ORIENTED_EDGE ( 'NONE', *, *, #206, .T. ) ;
#248 = ADVANCED_FACE ( 'NONE', ( #91 ), #287, .F. ) ;
#249 = PERSON_AND_ORGANIZATION_ROLE ( 'design_supplier' ) ;
#250 = AXIS2_PLACEMENT_3D ( 'NONE', #22, #117, #217 ) ;
#251 = CC_DESIGN_PERSON_AND_ORGANIZATION_ASSIGNMENT ( #38, #209, ( #240 ) ) ;
#252 = CIRCLE ( 'NONE', #119, 9.000000000000000000 ) ;
#253 = CARTESIAN_POINT ( 'NONE',  ( 9.199999999999999289, 0.000000000000000000, 7.199999999999998401 ) ) ;
#254 = DIRECTION ( 'NONE',  ( -1.000000000000000000, 0.000000000000000000, 0.000000000000000000 ) ) ;
#255 = DATE_AND_TIME ( #130, #305 ) ;
#256 = DIRECTION ( 'NONE',  ( -0.000000000000000000, -0.000000000000000000, -1.000000000000000000 ) ) ;
#257 = ORIENTED_EDGE ( 'NONE', *, *, #106, .F. ) ;
#258 = DIRECTION ( 'NONE',  ( 1.000000000000000000, 0.000000000000000000, -0.000000000000000000 ) ) ;
#259 = CIRCLE ( 'NONE', #120, 0.2000000000000005107 ) ;
#260 = DIRECTION ( 'NONE',  ( -1.000000000000000000, 0.000000000000000000, 0.000000000000000000 ) ) ;
#261 = CARTESIAN_POINT ( 'NONE',  ( -12.00000000000000178, 0.000000000000000000, 7.000000000000000000 ) ) ;
#262 = EDGE_CURVE ( 'NONE', #297, #153, #149, .T. ) ;
#263 = EDGE_CURVE ( 'NONE', #193, #297, #259, .T. ) ;
#264 = PRODUCT ( '5bc6', '5bc6', '', ( #295 ) ) ;
#265 = VECTOR ( 'NONE', #221, 1000.000000000000000 ) ;
#266 = LINE ( 'NONE', #151, #7 ) ;
#267 = DIRECTION ( 'NONE',  ( 1.000000000000000000, 0.000000000000000000, 0.000000000000000000 ) ) ;
#268 = ORIENTED_EDGE ( 'NONE', *, *, #121, .F. ) ;
#269 = CARTESIAN_POINT ( 'NONE',  ( -9.000000000000000000, 0.000000000000000000, 107.0000000000000142 ) ) ;
#270 = APPLICATION_PROTOCOL_DEFINITION ( 'international standard', 'config_control_design', 1994, #145 ) ;
#271 = EDGE_CURVE ( 'NONE', #193, #293, #79, .T. ) ;
#272 = ORGANIZATION ( 'NEURÈENÝ', 'NEURÈENÝ', '' ) ;
#273 = CALENDAR_DATE ( 2022, 20, 6 ) ;
#274 = CARTESIAN_POINT ( 'NONE',  ( -9.000000000000000000, 0.000000000000000000, 107.0000000000000142 ) ) ;
#275 = ORIENTED_EDGE ( 'NONE', *, *, #212, .T. ) ;
#276 = APPROVAL_STATUS ( 'not_yet_approved' ) ;
#277 = PLANE ( 'NONE',  #237 ) ;
#278 = ORIENTED_EDGE ( 'NONE', *, *, #109, .F. ) ;
#279 = CC_DESIGN_APPROVAL ( #28, ( #240 ) ) ;
#280 = CARTESIAN_POINT ( 'NONE',  ( 0.000000000000000000, 0.000000000000000000, 0.000000000000000000 ) ) ;
#281 = DIRECTION ( 'NONE',  ( -0.000000000000000000, -0.000000000000000000, -1.000000000000000000 ) ) ;
#282 = DIRECTION ( 'NONE',  ( 0.000000000000000000, 0.000000000000000000, 1.000000000000000000 ) ) ;
#283 = DIRECTION ( 'NONE',  ( 0.000000000000000000, 0.000000000000000000, 1.000000000000000000 ) ) ;
#284 = PLANE ( 'NONE',  #116 ) ;
#285 = DIRECTION ( 'NONE',  ( -1.000000000000000000, 1.224646799147353207E-16, 0.000000000000000000 ) ) ;
#286 = ORIENTED_EDGE ( 'NONE', *, *, #271, .T. ) ;
#287 = TOROIDAL_SURFACE ( 'NONE', #196, 9.199999999999999289, 0.2000000000000000111 ) ;
#288 = ORIENTED_EDGE ( 'NONE', *, *, #307, .T. ) ;
#289 = CC_DESIGN_PERSON_AND_ORGANIZATION_ASSIGNMENT ( #82, #183, ( #264 ) ) ;
#290 = AXIS2_PLACEMENT_3D ( 'NONE', #166, #281, #72 ) ;
#291 = AXIS2_PLACEMENT_3D ( 'NONE', #164, #40, #51 ) ;
#292 = CARTESIAN_POINT ( 'NONE',  ( 0.000000000000000000, 0.000000000000000000, 107.0000000000000142 ) ) ;
#293 = VERTEX_POINT ( 'NONE', #75 ) ;
#294 = SHAPE_DEFINITION_REPRESENTATION ( #71, #65 ) ;
#295 = MECHANICAL_CONTEXT ( 'NONE', #103, 'mechanical' ) ;
#296 = DIRECTION ( 'NONE',  ( 0.000000000000000000, 0.000000000000000000, 1.000000000000000000 ) ) ;
#297 = VERTEX_POINT ( 'NONE', #101 ) ;
#298 = COORDINATED_UNIVERSAL_TIME_OFFSET ( 1, 0, .AHEAD. ) ;
#299 = DIRECTION ( 'NONE',  ( 0.000000000000000000, 0.000000000000000000, 1.000000000000000000 ) ) ;
#300 = ORIENTED_EDGE ( 'NONE', *, *, #6, .T. ) ;
#301 = ORIENTED_EDGE ( 'NONE', *, *, #30, .F. ) ;
#302 = DIRECTION ( 'NONE',  ( -0.000000000000000000, -0.000000000000000000, -1.000000000000000000 ) ) ;
#303 = ORIENTED_EDGE ( 'NONE', *, *, #223, .F. ) ;
#304 = CARTESIAN_POINT ( 'NONE',  ( -12.00000000000000178, 0.000000000000000000, 0.000000000000000000 ) ) ;
#305 = LOCAL_TIME ( 11, 22, 45.00000000000000000, #84 ) ;
#306 = AXIS2_PLACEMENT_3D ( 'NONE', #161, #238, #254 ) ;
#307 = EDGE_CURVE ( 'NONE', #182, #193, #53, .T. ) ;
ENDSEC;
END-ISO-10303-21;
