ISO-10303-21;
HEADER;
FILE_DESCRIPTION (( 'STEP AP203' ),
    '1' );
FILE_NAME ('30de.STEP',
    '2022-06-20T10:00:55',
    ( '' ),
    ( '' ),
    'SwSTEP 2.0',
    'SolidWorks 2019',
    '' );
FILE_SCHEMA (( 'CONFIG_CONTROL_DESIGN' ));
ENDSEC;

DATA;
#1 = FACE_BOUND ( 'NONE', #191, .T. ) ;
#2 = ORIENTED_EDGE ( 'NONE', *, *, #247, .T. ) ;
#3 = CC_DESIGN_APPROVAL ( #296, ( #252 ) ) ;
#4 = CIRCLE ( 'NONE', #130, 5.000000000000000000 ) ;
#5 = CIRCLE ( 'NONE', #238, 5.000000000000000000 ) ;
#6 = CC_DESIGN_PERSON_AND_ORGANIZATION_ASSIGNMENT ( #85, #151, ( #300 ) ) ;
#7 = LOCAL_TIME ( 12, 0, 55.00000000000000000, #207 ) ;
#8 = CARTESIAN_POINT ( 'NONE',  ( 0.000000000000000000, 0.000000000000000000, 1002.999999999999886 ) ) ;
#9 = ORIENTED_EDGE ( 'NONE', *, *, #281, .T. ) ;
#10 = DATE_AND_TIME ( #255, #195 ) ;
#11 = DIRECTION ( 'NONE',  ( 1.000000000000000000, 0.000000000000000000, -0.000000000000000000 ) ) ;
#12 = ADVANCED_FACE ( 'NONE', ( #219 ), #290, .T. ) ;
#13 =( NAMED_UNIT ( * ) SI_UNIT ( $, .STERADIAN. ) SOLID_ANGLE_UNIT ( ) );
#14 = AXIS2_PLACEMENT_3D ( 'NONE', #157, #229, #154 ) ;
#15 = APPROVAL_PERSON_ORGANIZATION ( #110, #303, #277 ) ;
#16 = APPROVAL_ROLE ( '' ) ;
#17 = APPLICATION_PROTOCOL_DEFINITION ( 'international standard', 'config_control_design', 1994, #127 ) ;
#18 = DIRECTION ( 'NONE',  ( 1.000000000000000000, 0.000000000000000000, 0.000000000000000000 ) ) ;
#19 = CLOSED_SHELL ( 'NONE', ( #95, #176, #12, #33, #287, #91, #76, #292, #192 ) ) ;
#20 =( GEOMETRIC_REPRESENTATION_CONTEXT ( 3 ) GLOBAL_UNCERTAINTY_ASSIGNED_CONTEXT ( ( #145 ) ) GLOBAL_UNIT_ASSIGNED_CONTEXT ( ( #203, #88, #13 ) ) REPRESENTATION_CONTEXT ( 'NONE', 'WORKASPACE' ) );
#21 = PERSON_AND_ORGANIZATION ( #162, #244 ) ;
#22 = LINE ( 'NONE', #240, #94 ) ;
#23 = APPROVAL ( #251, 'NEURÈENÝ' ) ;
#24 = DIRECTION ( 'NONE',  ( 0.000000000000000000, 0.000000000000000000, 1.000000000000000000 ) ) ;
#25 = ORIENTED_EDGE ( 'NONE', *, *, #81, .T. ) ;
#26 = AXIS2_PLACEMENT_3D ( 'NONE', #258, #69, #45 ) ;
#27 = CC_DESIGN_SECURITY_CLASSIFICATION ( #252, ( #90 ) ) ;
#28 = DIRECTION ( 'NONE',  ( -1.000000000000000000, 1.224646799147353207E-16, 0.000000000000000000 ) ) ;
#29 = VERTEX_POINT ( 'NONE', #253 ) ;
#30 = APPLICATION_CONTEXT ( 'configuration controlled 3d designs of mechanical parts and assemblies' ) ;
#31 = AXIS2_PLACEMENT_3D ( 'NONE', #267, #246, #28 ) ;
#32 = ORIENTED_EDGE ( 'NONE', *, *, #271, .T. ) ;
#33 = ADVANCED_FACE ( 'NONE', ( #215 ), #173, .T. ) ;
#34 = ORIENTED_EDGE ( 'NONE', *, *, #137, .F. ) ;
#35 = ORIENTED_EDGE ( 'NONE', *, *, #118, .F. ) ;
#36 = COORDINATED_UNIVERSAL_TIME_OFFSET ( 1, 0, .AHEAD. ) ;
#37 = EDGE_CURVE ( 'NONE', #29, #172, #5, .T. ) ;
#38 = FACE_OUTER_BOUND ( 'NONE', #67, .T. ) ;
#39 = DIRECTION ( 'NONE',  ( 1.000000000000000000, 0.000000000000000000, 0.000000000000000000 ) ) ;
#40 = DIRECTION ( 'NONE',  ( 1.000000000000000000, 0.000000000000000000, -0.000000000000000000 ) ) ;
#41 = APPROVAL_DATE_TIME ( #10, #303 ) ;
#42 = LOCAL_TIME ( 12, 0, 55.00000000000000000, #50 ) ;
#43 = VECTOR ( 'NONE', #235, 1000.000000000000000 ) ;
#44 = CIRCLE ( 'NONE', #200, 2.600000000000000089 ) ;
#45 = DIRECTION ( 'NONE',  ( 1.000000000000000000, 0.000000000000000000, 0.000000000000000000 ) ) ;
#46 = DIRECTION ( 'NONE',  ( -0.000000000000000000, -0.000000000000000000, -1.000000000000000000 ) ) ;
#47 = PERSON_AND_ORGANIZATION ( #162, #244 ) ;
#48 = CARTESIAN_POINT ( 'NONE',  ( -2.600000000000000089, 0.000000000000000000, 3.199999999999980638 ) ) ;
#49 = AXIS2_PLACEMENT_3D ( 'NONE', #297, #256, #39 ) ;
#50 = COORDINATED_UNIVERSAL_TIME_OFFSET ( 1, 0, .AHEAD. ) ;
#51 = CARTESIAN_POINT ( 'NONE',  ( 0.000000000000000000, 0.000000000000000000, 1002.999999999999886 ) ) ;
#52 = CARTESIAN_POINT ( 'NONE',  ( 0.000000000000000000, 0.000000000000000000, 3.000000000000000000 ) ) ;
#53 = CIRCLE ( 'NONE', #218, 2.600000000000000089 ) ;
#54 = AXIS2_PLACEMENT_3D ( 'NONE', #164, #46, #66 ) ;
#55 = DIRECTION ( 'NONE',  ( 0.000000000000000000, 0.000000000000000000, -1.000000000000000000 ) ) ;
#56 = CC_DESIGN_DATE_AND_TIME_ASSIGNMENT ( #182, #87, ( #109 ) ) ;
#57 = ORIENTED_EDGE ( 'NONE', *, *, #212, .F. ) ;
#58 = AXIS2_PLACEMENT_3D ( 'NONE', #123, #150, #152 ) ;
#59 = CARTESIAN_POINT ( 'NONE',  ( 0.000000000000000000, 0.000000000000000000, 1002.999999999999886 ) ) ;
#60 = ORIENTED_EDGE ( 'NONE', *, *, #232, .T. ) ;
#61 = AXIS2_PLACEMENT_3D ( 'NONE', #107, #274, #224 ) ;
#62 = PERSON_AND_ORGANIZATION ( #162, #244 ) ;
#63 = CC_DESIGN_APPROVAL ( #303, ( #90 ) ) ;
#64 = AXIS2_PLACEMENT_3D ( 'NONE', #51, #141, #93 ) ;
#65 = EDGE_CURVE ( 'NONE', #283, #100, #146, .T. ) ;
#66 = DIRECTION ( 'NONE',  ( 1.000000000000000000, 0.000000000000000000, 0.000000000000000000 ) ) ;
#67 = EDGE_LOOP ( 'NONE', ( #237, #128, #248, #120 ) ) ;
#68 = ORIENTED_EDGE ( 'NONE', *, *, #155, .F. ) ;
#69 = DIRECTION ( 'NONE',  ( 0.000000000000000000, 0.000000000000000000, 1.000000000000000000 ) ) ;
#70 = DIRECTION ( 'NONE',  ( 0.000000000000000000, 0.000000000000000000, 1.000000000000000000 ) ) ;
#71 = VERTEX_POINT ( 'NONE', #278 ) ;
#72 = CARTESIAN_POINT ( 'NONE',  ( -5.000000000000000000, 0.000000000000000000, 3.000000000000000000 ) ) ;
#73 = ORIENTED_EDGE ( 'NONE', *, *, #257, .F. ) ;
#74 = LOCAL_TIME ( 12, 0, 55.00000000000000000, #136 ) ;
#75 = LINE ( 'NONE', #149, #295 ) ;
#76 = ADVANCED_FACE ( 'NONE', ( #38 ), #254, .T. ) ;
#77 = EDGE_LOOP ( 'NONE', ( #197, #284 ) ) ;
#78 = DIRECTION ( 'NONE',  ( 0.000000000000000000, 0.000000000000000000, 1.000000000000000000 ) ) ;
#79 = EDGE_LOOP ( 'NONE', ( #217, #97, #272, #25 ) ) ;
#80 = CIRCLE ( 'NONE', #126, 0.2000000000000000944 ) ;
#81 = EDGE_CURVE ( 'NONE', #306, #71, #84, .T. ) ;
#82 = CALENDAR_DATE ( 2022, 20, 6 ) ;
#83 = EDGE_LOOP ( 'NONE', ( #178, #32, #285, #245 ) ) ;
#84 = CIRCLE ( 'NONE', #49, 5.000000000000000000 ) ;
#85 = PERSON_AND_ORGANIZATION ( #162, #244 ) ;
#86 = CIRCLE ( 'NONE', #261, 2.600000000000000089 ) ;
#87 = DATE_TIME_ROLE ( 'creation_date' ) ;
#88 =( NAMED_UNIT ( * ) PLANE_ANGLE_UNIT ( ) SI_UNIT ( $, .RADIAN. ) );
#89 = PRODUCT_RELATED_PRODUCT_CATEGORY ( 'detail', '', ( #300 ) ) ;
#90 = PRODUCT_DEFINITION_FORMATION_WITH_SPECIFIED_SOURCE ( 'LIBOVOLNÝ', '', #300, .NOT_KNOWN. ) ;
#91 = ADVANCED_FACE ( 'NONE', ( #158 ), #222, .F. ) ;
#92 = PERSON_AND_ORGANIZATION ( #162, #244 ) ;
#93 = DIRECTION ( 'NONE',  ( -1.000000000000000000, 0.000000000000000000, 0.000000000000000000 ) ) ;
#94 = VECTOR ( 'NONE', #209, 1000.000000000000000 ) ;
#95 = ADVANCED_FACE ( 'NONE', ( #106 ), #174, .F. ) ;
#96 = CC_DESIGN_DATE_AND_TIME_ASSIGNMENT ( #112, #234, ( #252 ) ) ;
#97 = ORIENTED_EDGE ( 'NONE', *, *, #37, .F. ) ;
#98 = AXIS2_PLACEMENT_3D ( 'NONE', #160, #24, #260 ) ;
#99 = DIRECTION ( 'NONE',  ( 1.000000000000000000, 0.000000000000000000, 0.000000000000000000 ) ) ;
#100 = VERTEX_POINT ( 'NONE', #262 ) ;
#101 = EDGE_CURVE ( 'NONE', #273, #161, #53, .T. ) ;
#102 = ORIENTED_EDGE ( 'NONE', *, *, #247, .F. ) ;
#103 = DIRECTION ( 'NONE',  ( 1.000000000000000000, 0.000000000000000000, 0.000000000000000000 ) ) ;
#104 = EDGE_LOOP ( 'NONE', ( #57, #9, #35, #201 ) ) ;
#105 = PERSON_AND_ORGANIZATION ( #162, #244 ) ;
#106 = FACE_OUTER_BOUND ( 'NONE', #104, .T. ) ;
#107 = CARTESIAN_POINT ( 'NONE',  ( 0.000000000000000000, 0.000000000000000000, 0.000000000000000000 ) ) ;
#108 = DIRECTION ( 'NONE',  ( -0.000000000000000000, -0.000000000000000000, -1.000000000000000000 ) ) ;
#109 = PRODUCT_DEFINITION ( 'NEZNÁMÝ', '', #90, #187 ) ;
#110 = PERSON_AND_ORGANIZATION ( #162, #244 ) ;
#111 = MECHANICAL_CONTEXT ( 'NONE', #127, 'mechanical' ) ;
#112 = DATE_AND_TIME ( #117, #180 ) ;
#113 = PERSON_AND_ORGANIZATION_ROLE ( 'classification_officer' ) ;
#114 = DIRECTION ( 'NONE',  ( 0.000000000000000000, 0.000000000000000000, 1.000000000000000000 ) ) ;
#115 = DATE_AND_TIME ( #211, #42 ) ;
#116 = FACE_OUTER_BOUND ( 'NONE', #83, .T. ) ;
#117 = CALENDAR_DATE ( 2022, 20, 6 ) ;
#118 = EDGE_CURVE ( 'NONE', #100, #283, #223, .T. ) ;
#119 = PRODUCT_DEFINITION_SHAPE ( 'NONE', 'NONE',  #109 ) ;
#120 = ORIENTED_EDGE ( 'NONE', *, *, #212, .T. ) ;
#121 = DIRECTION ( 'NONE',  ( 0.000000000000000000, 0.000000000000000000, 1.000000000000000000 ) ) ;
#122 = ORIENTED_EDGE ( 'NONE', *, *, #65, .F. ) ;
#123 = CARTESIAN_POINT ( 'NONE',  ( 0.000000000000000000, 0.000000000000000000, 3.000000000000000000 ) ) ;
#124 = AXIS2_PLACEMENT_3D ( 'NONE', #135, #208, #282 ) ;
#125 = DIRECTION ( 'NONE',  ( 1.000000000000000000, 0.000000000000000000, 0.000000000000000000 ) ) ;
#126 = AXIS2_PLACEMENT_3D ( 'NONE', #129, #198, #55 ) ;
#127 = APPLICATION_CONTEXT ( 'configuration controlled 3d designs of mechanical parts and assemblies' ) ;
#128 = ORIENTED_EDGE ( 'NONE', *, *, #101, .F. ) ;
#129 = CARTESIAN_POINT ( 'NONE',  ( 2.799999999999999822, 0.000000000000000000, 3.199999999999980638 ) ) ;
#130 = AXIS2_PLACEMENT_3D ( 'NONE', #288, #78, #125 ) ;
#131 = DIRECTION ( 'NONE',  ( 0.000000000000000000, 0.000000000000000000, 1.000000000000000000 ) ) ;
#132 = CALENDAR_DATE ( 2022, 20, 6 ) ;
#133 = AXIS2_PLACEMENT_3D ( 'NONE', #294, #131, #11 ) ;
#134 = PLANE ( 'NONE',  #225 ) ;
#135 = CARTESIAN_POINT ( 'NONE',  ( 0.000000000000000000, 0.000000000000000000, 1002.999999999999886 ) ) ;
#136 = COORDINATED_UNIVERSAL_TIME_OFFSET ( 1, 0, .AHEAD. ) ;
#137 = EDGE_CURVE ( 'NONE', #172, #29, #213, .T. ) ;
#138 = VERTEX_POINT ( 'NONE', #48 ) ;
#139 = PERSON_AND_ORGANIZATION_ROLE ( 'design_supplier' ) ;
#140 = CARTESIAN_POINT ( 'NONE',  ( 2.600000000000000089, 3.184081677783118191E-16, 3.199999999999980638 ) ) ;
#141 = DIRECTION ( 'NONE',  ( -0.000000000000000000, -0.000000000000000000, -1.000000000000000000 ) ) ;
#142 = COORDINATED_UNIVERSAL_TIME_OFFSET ( 1, 0, .AHEAD. ) ;
#143 = APPROVAL_PERSON_ORGANIZATION ( #179, #23, #16 ) ;
#144 = DIRECTION ( 'NONE',  ( -0.000000000000000000, -0.000000000000000000, -1.000000000000000000 ) ) ;
#145 = UNCERTAINTY_MEASURE_WITH_UNIT (LENGTH_MEASURE( 1.000000000000000082E-05 ), #203, 'distance_accuracy_value', 'NONE');
#146 = CIRCLE ( 'NONE', #14, 2.799999999999999822 ) ;
#147 = EDGE_LOOP ( 'NONE', ( #249, #263 ) ) ;
#148 = EDGE_LOOP ( 'NONE', ( #34, #269, #2, #68 ) ) ;
#149 = CARTESIAN_POINT ( 'NONE',  ( 2.600000000000000089, 3.184081677783118191E-16, 1002.999999999999886 ) ) ;
#150 = DIRECTION ( 'NONE',  ( -0.000000000000000000, -0.000000000000000000, -1.000000000000000000 ) ) ;
#151 = PERSON_AND_ORGANIZATION_ROLE ( 'design_owner' ) ;
#152 = DIRECTION ( 'NONE',  ( -1.000000000000000000, 0.000000000000000000, 0.000000000000000000 ) ) ;
#153 = APPLICATION_PROTOCOL_DEFINITION ( 'international standard', 'config_control_design', 1994, #30 ) ;
#154 = DIRECTION ( 'NONE',  ( 1.000000000000000000, 0.000000000000000000, 0.000000000000000000 ) ) ;
#155 = EDGE_CURVE ( 'NONE', #29, #306, #286, .T. ) ;
#156 = CARTESIAN_POINT ( 'NONE',  ( -5.000000000000000000, 0.000000000000000000, 0.000000000000000000 ) ) ;
#157 = CARTESIAN_POINT ( 'NONE',  ( 0.000000000000000000, 0.000000000000000000, 3.000000000000000000 ) ) ;
#158 = FACE_OUTER_BOUND ( 'NONE', #301, .T. ) ;
#159 = APPROVAL_ROLE ( '' ) ;
#160 = CARTESIAN_POINT ( 'NONE',  ( 0.000000000000000000, 0.000000000000000000, 3.199999999999980638 ) ) ;
#161 = VERTEX_POINT ( 'NONE', #166 ) ;
#162 = PERSON ( 'NEURÈENÝ', 'NEURÈENÝ', 'NEURÈENÝ', ('NEURÈENÝ'), ('NEURÈENÝ'), ('NEURÈENÝ') ) ;
#163 = APPROVAL_DATE_TIME ( #115, #296 ) ;
#164 = CARTESIAN_POINT ( 'NONE',  ( 0.000000000000000000, 0.000000000000000000, 3.000000000000000000 ) ) ;
#165 = CIRCLE ( 'NONE', #31, 0.2000000000000000944 ) ;
#166 = CARTESIAN_POINT ( 'NONE',  ( 2.600000000000000089, 3.184081677783118191E-16, 1002.999999999999886 ) ) ;
#167 = ORIENTED_EDGE ( 'NONE', *, *, #118, .T. ) ;
#168 = CC_DESIGN_PERSON_AND_ORGANIZATION_ASSIGNMENT ( #21, #139, ( #90 ) ) ;
#169 = LINE ( 'NONE', #266, #280 ) ;
#170 = ORIENTED_EDGE ( 'NONE', *, *, #65, .T. ) ;
#171 = EDGE_CURVE ( 'NONE', #273, #138, #22, .T. ) ;
#172 = VERTEX_POINT ( 'NONE', #231 ) ;
#173 = CYLINDRICAL_SURFACE ( 'NONE', #230, 5.000000000000000000 ) ;
#174 = TOROIDAL_SURFACE ( 'NONE', #291, 2.799999999999999822, 0.2000000000000000111 ) ;
#175 = DIRECTION ( 'NONE',  ( 0.000000000000000000, 0.000000000000000000, 1.000000000000000000 ) ) ;
#176 = ADVANCED_FACE ( 'NONE', ( #116 ), #243, .T. ) ;
#177 = APPROVAL_STATUS ( 'not_yet_approved' ) ;
#178 = ORIENTED_EDGE ( 'NONE', *, *, #242, .F. ) ;
#179 = PERSON_AND_ORGANIZATION ( #162, #244 ) ;
#180 = LOCAL_TIME ( 12, 0, 55.00000000000000000, #142 ) ;
#181 = DATE_AND_TIME ( #132, #74 ) ;
#182 = DATE_AND_TIME ( #82, #7 ) ;
#183 = CARTESIAN_POINT ( 'NONE',  ( 0.000000000000000000, 0.000000000000000000, 3.000000000000000000 ) ) ;
#184 = DIRECTION ( 'NONE',  ( -1.000000000000000000, 0.000000000000000000, 0.000000000000000000 ) ) ;
#185 = AXIS2_PLACEMENT_3D ( 'NONE', #8, #268, #103 ) ;
#186 = SECURITY_CLASSIFICATION_LEVEL ( 'unclassified' ) ;
#187 = DESIGN_CONTEXT ( 'detailed design', #30, 'design' ) ;
#188 = DIRECTION ( 'NONE',  ( 1.000000000000000000, 0.000000000000000000, 0.000000000000000000 ) ) ;
#189 = VERTEX_POINT ( 'NONE', #140 ) ;
#190 = CARTESIAN_POINT ( 'NONE',  ( 0.000000000000000000, 0.000000000000000000, 1002.999999999999886 ) ) ;
#191 = EDGE_LOOP ( 'NONE', ( #167, #170 ) ) ;
#192 = ADVANCED_FACE ( 'NONE', ( #304 ), #270, .F. ) ;
#193 = DIRECTION ( 'NONE',  ( 1.000000000000000000, 0.000000000000000000, 0.000000000000000000 ) ) ;
#194 = CC_DESIGN_PERSON_AND_ORGANIZATION_ASSIGNMENT ( #105, #227, ( #90 ) ) ;
#195 = LOCAL_TIME ( 12, 0, 55.00000000000000000, #36 ) ;
#196 = FACE_OUTER_BOUND ( 'NONE', #77, .T. ) ;
#197 = ORIENTED_EDGE ( 'NONE', *, *, #37, .T. ) ;
#198 = DIRECTION ( 'NONE',  ( 0.000000000000000000, -1.000000000000000000, 0.000000000000000000 ) ) ;
#199 = ORIENTED_EDGE ( 'NONE', *, *, #81, .F. ) ;
#200 = AXIS2_PLACEMENT_3D ( 'NONE', #302, #70, #188 ) ;
#201 = ORIENTED_EDGE ( 'NONE', *, *, #232, .F. ) ;
#202 = CARTESIAN_POINT ( 'NONE',  ( -2.600000000000000089, 0.000000000000000000, 1002.999999999999886 ) ) ;
#203 =( LENGTH_UNIT ( ) NAMED_UNIT ( * ) SI_UNIT ( .MILLI., .METRE. ) );
#204 = AXIS2_PLACEMENT_3D ( 'NONE', #183, #228, #206 ) ;
#205 = PERSON_AND_ORGANIZATION_ROLE ( 'creator' ) ;
#206 = DIRECTION ( 'NONE',  ( 1.000000000000000000, 0.000000000000000000, -0.000000000000000000 ) ) ;
#207 = COORDINATED_UNIVERSAL_TIME_OFFSET ( 1, 0, .AHEAD. ) ;
#208 = DIRECTION ( 'NONE',  ( -0.000000000000000000, -0.000000000000000000, -1.000000000000000000 ) ) ;
#209 = DIRECTION ( 'NONE',  ( -0.000000000000000000, -0.000000000000000000, -1.000000000000000000 ) ) ;
#210 = ADVANCED_BREP_SHAPE_REPRESENTATION ( '30de', ( #239, #61 ), #20 ) ;
#211 = CALENDAR_DATE ( 2022, 20, 6 ) ;
#212 = EDGE_CURVE ( 'NONE', #138, #189, #44, .T. ) ;
#213 = CIRCLE ( 'NONE', #26, 5.000000000000000000 ) ;
#214 = CARTESIAN_POINT ( 'NONE',  ( -2.799999999999999822, 3.429011037612589276E-16, 2.999999999999990674 ) ) ;
#215 = FACE_OUTER_BOUND ( 'NONE', #79, .T. ) ;
#216 = CARTESIAN_POINT ( 'NONE',  ( 0.000000000000000000, 0.000000000000000000, 3.199999999999980638 ) ) ;
#217 = ORIENTED_EDGE ( 'NONE', *, *, #226, .F. ) ;
#218 = AXIS2_PLACEMENT_3D ( 'NONE', #190, #121, #236 ) ;
#219 = FACE_OUTER_BOUND ( 'NONE', #148, .T. ) ;
#220 = APPROVAL_DATE_TIME ( #181, #23 ) ;
#221 = PLANE ( 'NONE',  #204 ) ;
#222 = PLANE ( 'NONE',  #133 ) ;
#223 = CIRCLE ( 'NONE', #54, 2.799999999999999822 ) ;
#224 = DIRECTION ( 'NONE',  ( 1.000000000000000000, 0.000000000000000000, 0.000000000000000000 ) ) ;
#225 = AXIS2_PLACEMENT_3D ( 'NONE', #59, #293, #40 ) ;
#226 = EDGE_CURVE ( 'NONE', #172, #71, #169, .T. ) ;
#227 = PERSON_AND_ORGANIZATION_ROLE ( 'creator' ) ;
#228 = DIRECTION ( 'NONE',  ( 0.000000000000000000, 0.000000000000000000, 1.000000000000000000 ) ) ;
#229 = DIRECTION ( 'NONE',  ( -0.000000000000000000, -0.000000000000000000, -1.000000000000000000 ) ) ;
#230 = AXIS2_PLACEMENT_3D ( 'NONE', #52, #108, #184 ) ;
#231 = CARTESIAN_POINT ( 'NONE',  ( 5.000000000000000000, 6.123233995736766282E-16, 3.000000000000000000 ) ) ;
#232 = EDGE_CURVE ( 'NONE', #189, #100, #80, .T. ) ;
#233 = APPROVAL_PERSON_ORGANIZATION ( #92, #296, #159 ) ;
#234 = DATE_TIME_ROLE ( 'classification_date' ) ;
#235 = DIRECTION ( 'NONE',  ( -0.000000000000000000, -0.000000000000000000, -1.000000000000000000 ) ) ;
#236 = DIRECTION ( 'NONE',  ( 1.000000000000000000, 0.000000000000000000, 0.000000000000000000 ) ) ;
#237 = ORIENTED_EDGE ( 'NONE', *, *, #271, .F. ) ;
#238 = AXIS2_PLACEMENT_3D ( 'NONE', #299, #275, #18 ) ;
#239 = MANIFOLD_SOLID_BREP ( 'Zaoblit1', #19 ) ;
#240 = CARTESIAN_POINT ( 'NONE',  ( -2.600000000000000089, 0.000000000000000000, 1002.999999999999886 ) ) ;
#241 = EDGE_LOOP ( 'NONE', ( #289, #73, #60, #122 ) ) ;
#242 = EDGE_CURVE ( 'NONE', #161, #273, #276, .T. ) ;
#243 = CYLINDRICAL_SURFACE ( 'NONE', #64, 2.600000000000000089 ) ;
#244 = ORGANIZATION ( 'NEURÈENÝ', 'NEURÈENÝ', '' ) ;
#245 = ORIENTED_EDGE ( 'NONE', *, *, #171, .F. ) ;
#246 = DIRECTION ( 'NONE',  ( 1.224646799147353207E-16, 1.000000000000000000, -0.000000000000000000 ) ) ;
#247 = EDGE_CURVE ( 'NONE', #71, #306, #4, .T. ) ;
#248 = ORIENTED_EDGE ( 'NONE', *, *, #171, .T. ) ;
#249 = ORIENTED_EDGE ( 'NONE', *, *, #101, .T. ) ;
#250 = DIRECTION ( 'NONE',  ( -0.000000000000000000, -0.000000000000000000, -1.000000000000000000 ) ) ;
#251 = APPROVAL_STATUS ( 'not_yet_approved' ) ;
#252 = SECURITY_CLASSIFICATION ( '', '', #186 ) ;
#253 = CARTESIAN_POINT ( 'NONE',  ( -5.000000000000000000, 0.000000000000000000, 3.000000000000000000 ) ) ;
#254 = CYLINDRICAL_SURFACE ( 'NONE', #124, 2.600000000000000089 ) ;
#255 = CALENDAR_DATE ( 2022, 20, 6 ) ;
#256 = DIRECTION ( 'NONE',  ( 0.000000000000000000, 0.000000000000000000, 1.000000000000000000 ) ) ;
#257 = EDGE_CURVE ( 'NONE', #189, #138, #86, .T. ) ;
#258 = CARTESIAN_POINT ( 'NONE',  ( 0.000000000000000000, 0.000000000000000000, 3.000000000000000000 ) ) ;
#259 = CC_DESIGN_PERSON_AND_ORGANIZATION_ASSIGNMENT ( #47, #113, ( #252 ) ) ;
#260 = DIRECTION ( 'NONE',  ( 1.000000000000000000, 0.000000000000000000, 0.000000000000000000 ) ) ;
#261 = AXIS2_PLACEMENT_3D ( 'NONE', #216, #175, #99 ) ;
#262 = CARTESIAN_POINT ( 'NONE',  ( 2.799999999999999822, 0.000000000000000000, 2.999999999999990674 ) ) ;
#263 = ORIENTED_EDGE ( 'NONE', *, *, #242, .T. ) ;
#264 = CC_DESIGN_PERSON_AND_ORGANIZATION_ASSIGNMENT ( #62, #205, ( #109 ) ) ;
#265 = APPROVAL_STATUS ( 'not_yet_approved' ) ;
#266 = CARTESIAN_POINT ( 'NONE',  ( 5.000000000000000000, 6.123233995736766282E-16, 3.000000000000000000 ) ) ;
#267 = CARTESIAN_POINT ( 'NONE',  ( -2.799999999999999822, 3.429011037612588783E-16, 3.199999999999980638 ) ) ;
#268 = DIRECTION ( 'NONE',  ( 0.000000000000000000, 0.000000000000000000, 1.000000000000000000 ) ) ;
#269 = ORIENTED_EDGE ( 'NONE', *, *, #226, .T. ) ;
#270 = TOROIDAL_SURFACE ( 'NONE', #98, 2.799999999999999822, 0.2000000000000000111 ) ;
#271 = EDGE_CURVE ( 'NONE', #161, #189, #75, .T. ) ;
#272 = ORIENTED_EDGE ( 'NONE', *, *, #155, .T. ) ;
#273 = VERTEX_POINT ( 'NONE', #202 ) ;
#274 = DIRECTION ( 'NONE',  ( 0.000000000000000000, 0.000000000000000000, 1.000000000000000000 ) ) ;
#275 = DIRECTION ( 'NONE',  ( 0.000000000000000000, 0.000000000000000000, 1.000000000000000000 ) ) ;
#276 = CIRCLE ( 'NONE', #185, 2.600000000000000089 ) ;
#277 = APPROVAL_ROLE ( '' ) ;
#278 = CARTESIAN_POINT ( 'NONE',  ( 5.000000000000000000, 6.123233995736766282E-16, 0.000000000000000000 ) ) ;
#279 = CC_DESIGN_APPROVAL ( #23, ( #109 ) ) ;
#280 = VECTOR ( 'NONE', #144, 1000.000000000000000 ) ;
#281 = EDGE_CURVE ( 'NONE', #138, #283, #165, .T. ) ;
#282 = DIRECTION ( 'NONE',  ( -1.000000000000000000, 0.000000000000000000, 0.000000000000000000 ) ) ;
#283 = VERTEX_POINT ( 'NONE', #214 ) ;
#284 = ORIENTED_EDGE ( 'NONE', *, *, #137, .T. ) ;
#285 = ORIENTED_EDGE ( 'NONE', *, *, #257, .T. ) ;
#286 = LINE ( 'NONE', #72, #43 ) ;
#287 = ADVANCED_FACE ( 'NONE', ( #1, #196 ), #221, .T. ) ;
#288 = CARTESIAN_POINT ( 'NONE',  ( 0.000000000000000000, 0.000000000000000000, 0.000000000000000000 ) ) ;
#289 = ORIENTED_EDGE ( 'NONE', *, *, #281, .F. ) ;
#290 = CYLINDRICAL_SURFACE ( 'NONE', #58, 5.000000000000000000 ) ;
#291 = AXIS2_PLACEMENT_3D ( 'NONE', #307, #114, #193 ) ;
#292 = ADVANCED_FACE ( 'NONE', ( #298 ), #134, .T. ) ;
#293 = DIRECTION ( 'NONE',  ( 0.000000000000000000, 0.000000000000000000, 1.000000000000000000 ) ) ;
#294 = CARTESIAN_POINT ( 'NONE',  ( 0.000000000000000000, 0.000000000000000000, 0.000000000000000000 ) ) ;
#295 = VECTOR ( 'NONE', #250, 1000.000000000000000 ) ;
#296 = APPROVAL ( #265, 'NEURÈENÝ' ) ;
#297 = CARTESIAN_POINT ( 'NONE',  ( 0.000000000000000000, 0.000000000000000000, 0.000000000000000000 ) ) ;
#298 = FACE_OUTER_BOUND ( 'NONE', #147, .T. ) ;
#299 = CARTESIAN_POINT ( 'NONE',  ( 0.000000000000000000, 0.000000000000000000, 3.000000000000000000 ) ) ;
#300 = PRODUCT ( '30de', '30de', '', ( #111 ) ) ;
#301 = EDGE_LOOP ( 'NONE', ( #199, #102 ) ) ;
#302 = CARTESIAN_POINT ( 'NONE',  ( 0.000000000000000000, 0.000000000000000000, 3.199999999999980638 ) ) ;
#303 = APPROVAL ( #177, 'NEURÈENÝ' ) ;
#304 = FACE_OUTER_BOUND ( 'NONE', #241, .T. ) ;
#305 = SHAPE_DEFINITION_REPRESENTATION ( #119, #210 ) ;
#306 = VERTEX_POINT ( 'NONE', #156 ) ;
#307 = CARTESIAN_POINT ( 'NONE',  ( 0.000000000000000000, 0.000000000000000000, 3.199999999999980638 ) ) ;
ENDSEC;
END-ISO-10303-21;
