ISO-10303-21;
HEADER;
FILE_DESCRIPTION (( 'STEP AP203' ),
    '1' );
FILE_NAME ('95cd.STEP',
    '2022-06-20T10:24:54',
    ( '' ),
    ( '' ),
    'SwSTEP 2.0',
    'SolidWorks 2019',
    '' );
FILE_SCHEMA (( 'CONFIG_CONTROL_DESIGN' ));
ENDSEC;

DATA;
#1 = ORIENTED_EDGE ( 'NONE', *, *, #141, .T. ) ;
#2 = LINE ( 'NONE', #174, #126 ) ;
#3 = CARTESIAN_POINT ( 'NONE',  ( 0.5999999999999999778, 7.347880794884117764E-17, 126.2000000000000028 ) ) ;
#4 = PERSON_AND_ORGANIZATION ( #272, #225 ) ;
#5 = CARTESIAN_POINT ( 'NONE',  ( 0.000000000000000000, 0.000000000000000000, 1.199999999999999956 ) ) ;
#6 = CARTESIAN_POINT ( 'NONE',  ( 0.000000000000000000, 0.000000000000000000, 1.399999999999998579 ) ) ;
#7 = AXIS2_PLACEMENT_3D ( 'NONE', #275, #204, #32 ) ;
#8 = PERSON_AND_ORGANIZATION ( #272, #225 ) ;
#9 = EDGE_CURVE ( 'NONE', #59, #210, #58, .T. ) ;
#10 = APPROVAL_STATUS ( 'not_yet_approved' ) ;
#11 = AXIS2_PLACEMENT_3D ( 'NONE', #92, #195, #288 ) ;
#12 = COORDINATED_UNIVERSAL_TIME_OFFSET ( 1, 0, .AHEAD. ) ;
#13 = DIRECTION ( 'NONE',  ( 1.000000000000000000, 0.000000000000000000, 0.000000000000000000 ) ) ;
#14 = EDGE_CURVE ( 'NONE', #257, #296, #267, .T. ) ;
#15 = LOCAL_TIME ( 12, 24, 54.00000000000000000, #91 ) ;
#16 = DIRECTION ( 'NONE',  ( 0.000000000000000000, -1.000000000000000000, 0.000000000000000000 ) ) ;
#17 = CALENDAR_DATE ( 2022, 20, 6 ) ;
#18 = DIRECTION ( 'NONE',  ( 0.000000000000000000, 0.000000000000000000, 1.000000000000000000 ) ) ;
#19 = DIRECTION ( 'NONE',  ( -0.000000000000000000, -0.000000000000000000, -1.000000000000000000 ) ) ;
#20 = AXIS2_PLACEMENT_3D ( 'NONE', #289, #65, #263 ) ;
#21 = VERTEX_POINT ( 'NONE', #22 ) ;
#22 = CARTESIAN_POINT ( 'NONE',  ( -1.250000000000000000, 0.000000000000000000, 1.199999999999999956 ) ) ;
#23 = EDGE_CURVE ( 'NONE', #36, #261, #213, .T. ) ;
#24 = AXIS2_PLACEMENT_3D ( 'NONE', #198, #120, #98 ) ;
#25 = CYLINDRICAL_SURFACE ( 'NONE', #11, 0.5999999999999999778 ) ;
#26 = CARTESIAN_POINT ( 'NONE',  ( 0.000000000000000000, 0.000000000000000000, 126.2000000000000028 ) ) ;
#27 = CARTESIAN_POINT ( 'NONE',  ( 0.000000000000000000, 0.000000000000000000, 1.199999999999999956 ) ) ;
#28 = PLANE ( 'NONE',  #56 ) ;
#29 = FACE_BOUND ( 'NONE', #133, .T. ) ;
#30 = CARTESIAN_POINT ( 'NONE',  ( 0.000000000000000000, 0.000000000000000000, 0.000000000000000000 ) ) ;
#31 = EDGE_CURVE ( 'NONE', #261, #212, #162, .T. ) ;
#32 = DIRECTION ( 'NONE',  ( -1.000000000000000000, 0.000000000000000000, 0.000000000000000000 ) ) ;
#33 = CIRCLE ( 'NONE', #278, 0.5999999999999999778 ) ;
#34 = CARTESIAN_POINT ( 'NONE',  ( 0.000000000000000000, 0.000000000000000000, 1.399999999999998579 ) ) ;
#35 = ADVANCED_FACE ( 'NONE', ( #260 ), #297, .F. ) ;
#36 = VERTEX_POINT ( 'NONE', #232 ) ;
#37 = CALENDAR_DATE ( 2022, 20, 6 ) ;
#38 = ORIENTED_EDGE ( 'NONE', *, *, #199, .F. ) ;
#39 = ORIENTED_EDGE ( 'NONE', *, *, #199, .T. ) ;
#40 = ORIENTED_EDGE ( 'NONE', *, *, #243, .T. ) ;
#41 = APPROVAL ( #251, 'NEURÈENÝ' ) ;
#42 = ORIENTED_EDGE ( 'NONE', *, *, #214, .T. ) ;
#43 = APPROVAL_DATE_TIME ( #166, #160 ) ;
#44 = ORIENTED_EDGE ( 'NONE', *, *, #259, .T. ) ;
#45 = CARTESIAN_POINT ( 'NONE',  ( 0.000000000000000000, 0.000000000000000000, 1.399999999999998579 ) ) ;
#46 = CC_DESIGN_PERSON_AND_ORGANIZATION_ASSIGNMENT ( #8, #152, ( #66 ) ) ;
#47 = FACE_OUTER_BOUND ( 'NONE', #57, .T. ) ;
#48 = AXIS2_PLACEMENT_3D ( 'NONE', #180, #16, #104 ) ;
#49 = CARTESIAN_POINT ( 'NONE',  ( 0.000000000000000000, 0.000000000000000000, 126.2000000000000028 ) ) ;
#50 = DIRECTION ( 'NONE',  ( 1.000000000000000000, 0.000000000000000000, -0.000000000000000000 ) ) ;
#51 = DIRECTION ( 'NONE',  ( 0.000000000000000000, 0.000000000000000000, 1.000000000000000000 ) ) ;
#52 = ADVANCED_FACE ( 'NONE', ( #140 ), #25, .T. ) ;
#53 = MECHANICAL_CONTEXT ( 'NONE', #99, 'mechanical' ) ;
#54 = ORIENTED_EDGE ( 'NONE', *, *, #31, .T. ) ;
#55 =( NAMED_UNIT ( * ) SI_UNIT ( $, .STERADIAN. ) SOLID_ANGLE_UNIT ( ) );
#56 = AXIS2_PLACEMENT_3D ( 'NONE', #197, #125, #150 ) ;
#57 = EDGE_LOOP ( 'NONE', ( #299, #207 ) ) ;
#58 = CIRCLE ( 'NONE', #82, 1.250000000000000000 ) ;
#59 = VERTEX_POINT ( 'NONE', #268 ) ;
#60 = CARTESIAN_POINT ( 'NONE',  ( 0.000000000000000000, 0.000000000000000000, 126.2000000000000028 ) ) ;
#61 = CIRCLE ( 'NONE', #48, 0.2000000000000000944 ) ;
#62 = CC_DESIGN_PERSON_AND_ORGANIZATION_ASSIGNMENT ( #79, #154, ( #176 ) ) ;
#63 = ORIENTED_EDGE ( 'NONE', *, *, #231, .F. ) ;
#64 = EDGE_LOOP ( 'NONE', ( #1, #235 ) ) ;
#65 = DIRECTION ( 'NONE',  ( -0.000000000000000000, -0.000000000000000000, -1.000000000000000000 ) ) ;
#66 = SECURITY_CLASSIFICATION ( '', '', #172 ) ;
#67 = FACE_OUTER_BOUND ( 'NONE', #165, .T. ) ;
#68 = CARTESIAN_POINT ( 'NONE',  ( 0.5999999999999999778, 7.347880794884117764E-17, 1.399999999999998579 ) ) ;
#69 = DIRECTION ( 'NONE',  ( 0.000000000000000000, 0.000000000000000000, 1.000000000000000000 ) ) ;
#70 = ADVANCED_FACE ( 'NONE', ( #215 ), #290, .F. ) ;
#71 = AXIS2_PLACEMENT_3D ( 'NONE', #147, #266, #244 ) ;
#72 = CYLINDRICAL_SURFACE ( 'NONE', #122, 1.250000000000000000 ) ;
#73 = CARTESIAN_POINT ( 'NONE',  ( 0.7999999999999999334, 0.000000000000000000, 1.199999999999999289 ) ) ;
#74 = AXIS2_PLACEMENT_3D ( 'NONE', #49, #97, #219 ) ;
#75 = COORDINATED_UNIVERSAL_TIME_OFFSET ( 1, 0, .AHEAD. ) ;
#76 = CIRCLE ( 'NONE', #71, 1.250000000000000000 ) ;
#77 = LINE ( 'NONE', #101, #217 ) ;
#78 = EDGE_CURVE ( 'NONE', #212, #189, #187, .T. ) ;
#79 = PERSON_AND_ORGANIZATION ( #272, #225 ) ;
#80 = PRODUCT_DEFINITION_FORMATION_WITH_SPECIFIED_SOURCE ( 'LIBOVOLNÝ', '', #132, .NOT_KNOWN. ) ;
#81 = APPLICATION_PROTOCOL_DEFINITION ( 'international standard', 'config_control_design', 1994, #116 ) ;
#82 = AXIS2_PLACEMENT_3D ( 'NONE', #192, #18, #139 ) ;
#83 = VERTEX_POINT ( 'NONE', #169 ) ;
#84 = TOROIDAL_SURFACE ( 'NONE', #142, 0.7999999999999999334, 0.2000000000000000111 ) ;
#85 = ORIENTED_EDGE ( 'NONE', *, *, #14, .T. ) ;
#86 = PRODUCT_DEFINITION_SHAPE ( 'NONE', 'NONE',  #176 ) ;
#87 = ORIENTED_EDGE ( 'NONE', *, *, #23, .F. ) ;
#88 = ORIENTED_EDGE ( 'NONE', *, *, #284, .F. ) ;
#89 = LOCAL_TIME ( 12, 24, 54.00000000000000000, #75 ) ;
#90 = DIRECTION ( 'NONE',  ( 1.000000000000000000, 0.000000000000000000, 0.000000000000000000 ) ) ;
#91 = COORDINATED_UNIVERSAL_TIME_OFFSET ( 1, 0, .AHEAD. ) ;
#92 = CARTESIAN_POINT ( 'NONE',  ( 0.000000000000000000, 0.000000000000000000, 126.2000000000000028 ) ) ;
#93 = DATE_TIME_ROLE ( 'creation_date' ) ;
#94 = PLANE ( 'NONE',  #271 ) ;
#95 = CIRCLE ( 'NONE', #153, 0.5999999999999999778 ) ;
#96 = DIRECTION ( 'NONE',  ( -0.000000000000000000, -0.000000000000000000, -1.000000000000000000 ) ) ;
#97 = DIRECTION ( 'NONE',  ( -0.000000000000000000, -0.000000000000000000, -1.000000000000000000 ) ) ;
#98 = DIRECTION ( 'NONE',  ( -1.000000000000000000, 1.224646799147352714E-16, 0.000000000000000000 ) ) ;
#99 = APPLICATION_CONTEXT ( 'configuration controlled 3d designs of mechanical parts and assemblies' ) ;
#100 = DIRECTION ( 'NONE',  ( 0.000000000000000000, 0.000000000000000000, 1.000000000000000000 ) ) ;
#101 = CARTESIAN_POINT ( 'NONE',  ( -1.250000000000000000, 0.000000000000000000, 1.199999999999999956 ) ) ;
#102 = DATE_AND_TIME ( #226, #163 ) ;
#103 = ORIENTED_EDGE ( 'NONE', *, *, #167, .F. ) ;
#104 = DIRECTION ( 'NONE',  ( 0.000000000000000000, 0.000000000000000000, -1.000000000000000000 ) ) ;
#105 = ORIENTED_EDGE ( 'NONE', *, *, #134, .T. ) ;
#106 = ORIENTED_EDGE ( 'NONE', *, *, #9, .F. ) ;
#107 = ORIENTED_EDGE ( 'NONE', *, *, #134, .F. ) ;
#108 = CC_DESIGN_APPROVAL ( #41, ( #66 ) ) ;
#109 = UNCERTAINTY_MEASURE_WITH_UNIT (LENGTH_MEASURE( 1.000000000000000082E-05 ), #130, 'distance_accuracy_value', 'NONE');
#110 = ADVANCED_FACE ( 'NONE', ( #143 ), #286, .T. ) ;
#111 = AXIS2_PLACEMENT_3D ( 'NONE', #45, #69, #171 ) ;
#112 = ORIENTED_EDGE ( 'NONE', *, *, #228, .T. ) ;
#113 = APPROVAL_ROLE ( '' ) ;
#114 = DESIGN_CONTEXT ( 'detailed design', #116, 'design' ) ;
#115 = DIRECTION ( 'NONE',  ( 0.000000000000000000, 0.000000000000000000, 1.000000000000000000 ) ) ;
#116 = APPLICATION_CONTEXT ( 'configuration controlled 3d designs of mechanical parts and assemblies' ) ;
#117 = ORIENTED_EDGE ( 'NONE', *, *, #141, .F. ) ;
#118 = AXIS2_PLACEMENT_3D ( 'NONE', #206, #115, #262 ) ;
#119 = CC_DESIGN_PERSON_AND_ORGANIZATION_ASSIGNMENT ( #128, #276, ( #80 ) ) ;
#120 = DIRECTION ( 'NONE',  ( 1.224646799147353207E-16, 1.000000000000000000, -0.000000000000000000 ) ) ;
#121 = DIRECTION ( 'NONE',  ( 0.000000000000000000, 0.000000000000000000, 1.000000000000000000 ) ) ;
#122 = AXIS2_PLACEMENT_3D ( 'NONE', #27, #96, #273 ) ;
#123 = FACE_OUTER_BOUND ( 'NONE', #183, .T. ) ;
#124 = APPROVAL ( #10, 'NEURÈENÝ' ) ;
#125 = DIRECTION ( 'NONE',  ( 0.000000000000000000, 0.000000000000000000, 1.000000000000000000 ) ) ;
#126 = VECTOR ( 'NONE', #196, 1000.000000000000000 ) ;
#127 = CYLINDRICAL_SURFACE ( 'NONE', #7, 1.250000000000000000 ) ;
#128 = PERSON_AND_ORGANIZATION ( #272, #225 ) ;
#129 = CIRCLE ( 'NONE', #158, 1.250000000000000000 ) ;
#130 =( LENGTH_UNIT ( ) NAMED_UNIT ( * ) SI_UNIT ( .MILLI., .METRE. ) );
#131 = ORIENTED_EDGE ( 'NONE', *, *, #231, .T. ) ;
#132 = PRODUCT ( '95cd', '95cd', '', ( #53 ) ) ;
#133 = EDGE_LOOP ( 'NONE', ( #105, #85 ) ) ;
#134 = EDGE_CURVE ( 'NONE', #296, #257, #223, .T. ) ;
#135 = DATE_AND_TIME ( #17, #246 ) ;
#136 = DIRECTION ( 'NONE',  ( 1.000000000000000000, 0.000000000000000000, 0.000000000000000000 ) ) ;
#137 = ORIENTED_EDGE ( 'NONE', *, *, #214, .F. ) ;
#138 = PERSON_AND_ORGANIZATION ( #272, #225 ) ;
#139 = DIRECTION ( 'NONE',  ( 1.000000000000000000, 0.000000000000000000, 0.000000000000000000 ) ) ;
#140 = FACE_OUTER_BOUND ( 'NONE', #307, .T. ) ;
#141 = EDGE_CURVE ( 'NONE', #21, #83, #76, .T. ) ;
#142 = AXIS2_PLACEMENT_3D ( 'NONE', #6, #100, #285 ) ;
#143 = FACE_OUTER_BOUND ( 'NONE', #190, .T. ) ;
#144 = AXIS2_PLACEMENT_3D ( 'NONE', #30, #270, #50 ) ;
#145 = DIRECTION ( 'NONE',  ( 0.000000000000000000, 0.000000000000000000, 1.000000000000000000 ) ) ;
#146 = ADVANCED_FACE ( 'NONE', ( #47 ), #94, .T. ) ;
#147 = CARTESIAN_POINT ( 'NONE',  ( 0.000000000000000000, 0.000000000000000000, 1.199999999999999956 ) ) ;
#148 = LINE ( 'NONE', #3, #179 ) ;
#149 = AXIS2_PLACEMENT_3D ( 'NONE', #234, #230, #136 ) ;
#150 = DIRECTION ( 'NONE',  ( 1.000000000000000000, 0.000000000000000000, -0.000000000000000000 ) ) ;
#151 = CARTESIAN_POINT ( 'NONE',  ( -0.5999999999999999778, 0.000000000000000000, 126.2000000000000028 ) ) ;
#152 = PERSON_AND_ORGANIZATION_ROLE ( 'classification_officer' ) ;
#153 = AXIS2_PLACEMENT_3D ( 'NONE', #34, #155, #247 ) ;
#154 = PERSON_AND_ORGANIZATION_ROLE ( 'creator' ) ;
#155 = DIRECTION ( 'NONE',  ( 0.000000000000000000, 0.000000000000000000, 1.000000000000000000 ) ) ;
#156 = CC_DESIGN_DATE_AND_TIME_ASSIGNMENT ( #256, #302, ( #66 ) ) ;
#157 = DIRECTION ( 'NONE',  ( 0.000000000000000000, 0.000000000000000000, 1.000000000000000000 ) ) ;
#158 = AXIS2_PLACEMENT_3D ( 'NONE', #221, #237, #168 ) ;
#159 = ORIENTED_EDGE ( 'NONE', *, *, #243, .F. ) ;
#160 = APPROVAL ( #233, 'NEURÈENÝ' ) ;
#161 = ORIENTED_EDGE ( 'NONE', *, *, #181, .T. ) ;
#162 = LINE ( 'NONE', #301, #303 ) ;
#163 = LOCAL_TIME ( 12, 24, 54.00000000000000000, #12 ) ;
#164 = APPROVAL_ROLE ( '' ) ;
#165 = EDGE_LOOP ( 'NONE', ( #103, #42, #112, #159 ) ) ;
#166 = DATE_AND_TIME ( #282, #15 ) ;
#167 = EDGE_CURVE ( 'NONE', #83, #21, #203, .T. ) ;
#168 = DIRECTION ( 'NONE',  ( 1.000000000000000000, 0.000000000000000000, 0.000000000000000000 ) ) ;
#169 = CARTESIAN_POINT ( 'NONE',  ( 1.250000000000000000, 1.530808498934191571E-16, 1.199999999999999956 ) ) ;
#170 = FACE_OUTER_BOUND ( 'NONE', #64, .T. ) ;
#171 = DIRECTION ( 'NONE',  ( 1.000000000000000000, 0.000000000000000000, 0.000000000000000000 ) ) ;
#172 = SECURITY_CLASSIFICATION_LEVEL ( 'unclassified' ) ;
#173 = APPROVAL_PERSON_ORGANIZATION ( #227, #41, #164 ) ;
#174 = CARTESIAN_POINT ( 'NONE',  ( 1.250000000000000000, 1.530808498934191571E-16, 1.199999999999999956 ) ) ;
#175 =( NAMED_UNIT ( * ) PLANE_ANGLE_UNIT ( ) SI_UNIT ( $, .RADIAN. ) );
#176 = PRODUCT_DEFINITION ( 'NEZNÁMÝ', '', #80, #114 ) ;
#177 = CARTESIAN_POINT ( 'NONE',  ( 0.000000000000000000, 0.000000000000000000, 126.2000000000000028 ) ) ;
#178 = ORIENTED_EDGE ( 'NONE', *, *, #228, .F. ) ;
#179 = VECTOR ( 'NONE', #238, 1000.000000000000000 ) ;
#180 = CARTESIAN_POINT ( 'NONE',  ( 0.7999999999999999334, 0.000000000000000000, 1.399999999999998579 ) ) ;
#181 = EDGE_CURVE ( 'NONE', #36, #189, #148, .T. ) ;
#182 = PERSON_AND_ORGANIZATION ( #272, #225 ) ;
#183 = EDGE_LOOP ( 'NONE', ( #38, #249, #131, #229 ) ) ;
#184 =( GEOMETRIC_REPRESENTATION_CONTEXT ( 3 ) GLOBAL_UNCERTAINTY_ASSIGNED_CONTEXT ( ( #109 ) ) GLOBAL_UNIT_ASSIGNED_CONTEXT ( ( #130, #175, #55 ) ) REPRESENTATION_CONTEXT ( 'NONE', 'WORKASPACE' ) );
#185 = CC_DESIGN_PERSON_AND_ORGANIZATION_ASSIGNMENT ( #4, #292, ( #80 ) ) ;
#186 = SHAPE_DEFINITION_REPRESENTATION ( #86, #193 ) ;
#187 = CIRCLE ( 'NONE', #111, 0.5999999999999999778 ) ;
#188 = ORIENTED_EDGE ( 'NONE', *, *, #9, .T. ) ;
#189 = VERTEX_POINT ( 'NONE', #68 ) ;
#190 = EDGE_LOOP ( 'NONE', ( #280, #88, #54, #194 ) ) ;
#191 = CC_DESIGN_APPROVAL ( #160, ( #80 ) ) ;
#192 = CARTESIAN_POINT ( 'NONE',  ( 0.000000000000000000, 0.000000000000000000, 0.000000000000000000 ) ) ;
#193 = ADVANCED_BREP_SHAPE_REPRESENTATION ( '95cd', ( #211, #205 ), #184 ) ;
#194 = ORIENTED_EDGE ( 'NONE', *, *, #78, .T. ) ;
#195 = DIRECTION ( 'NONE',  ( -0.000000000000000000, -0.000000000000000000, -1.000000000000000000 ) ) ;
#196 = DIRECTION ( 'NONE',  ( -0.000000000000000000, -0.000000000000000000, -1.000000000000000000 ) ) ;
#197 = CARTESIAN_POINT ( 'NONE',  ( 0.000000000000000000, 0.000000000000000000, 1.199999999999999956 ) ) ;
#198 = CARTESIAN_POINT ( 'NONE',  ( -0.7999999999999999334, 9.797174393178824918E-17, 1.399999999999998579 ) ) ;
#199 = EDGE_CURVE ( 'NONE', #212, #257, #236, .T. ) ;
#200 = CARTESIAN_POINT ( 'NONE',  ( 0.000000000000000000, 0.000000000000000000, 0.000000000000000000 ) ) ;
#201 = DIRECTION ( 'NONE',  ( 1.000000000000000000, 0.000000000000000000, 0.000000000000000000 ) ) ;
#202 = ADVANCED_FACE ( 'NONE', ( #67 ), #72, .T. ) ;
#203 = CIRCLE ( 'NONE', #241, 1.250000000000000000 ) ;
#204 = DIRECTION ( 'NONE',  ( -0.000000000000000000, -0.000000000000000000, -1.000000000000000000 ) ) ;
#205 = AXIS2_PLACEMENT_3D ( 'NONE', #200, #51, #13 ) ;
#206 = CARTESIAN_POINT ( 'NONE',  ( 0.000000000000000000, 0.000000000000000000, 1.399999999999998579 ) ) ;
#207 = ORIENTED_EDGE ( 'NONE', *, *, #23, .T. ) ;
#208 = EDGE_LOOP ( 'NONE', ( #106, #178 ) ) ;
#209 = CC_DESIGN_PERSON_AND_ORGANIZATION_ASSIGNMENT ( #250, #295, ( #132 ) ) ;
#210 = VERTEX_POINT ( 'NONE', #242 ) ;
#211 = MANIFOLD_SOLID_BREP ( 'Zaoblit1', #283 ) ;
#212 = VERTEX_POINT ( 'NONE', #216 ) ;
#213 = CIRCLE ( 'NONE', #254, 0.5999999999999999778 ) ;
#214 = EDGE_CURVE ( 'NONE', #83, #210, #2, .T. ) ;
#215 = FACE_OUTER_BOUND ( 'NONE', #208, .T. ) ;
#216 = CARTESIAN_POINT ( 'NONE',  ( -0.5999999999999999778, 0.000000000000000000, 1.399999999999998579 ) ) ;
#217 = VECTOR ( 'NONE', #252, 1000.000000000000000 ) ;
#218 = DIRECTION ( 'NONE',  ( 1.000000000000000000, 0.000000000000000000, -0.000000000000000000 ) ) ;
#219 = DIRECTION ( 'NONE',  ( -1.000000000000000000, 0.000000000000000000, 0.000000000000000000 ) ) ;
#220 = ADVANCED_FACE ( 'NONE', ( #29, #170 ), #28, .T. ) ;
#221 = CARTESIAN_POINT ( 'NONE',  ( 0.000000000000000000, 0.000000000000000000, 0.000000000000000000 ) ) ;
#222 = CC_DESIGN_APPROVAL ( #124, ( #176 ) ) ;
#223 = CIRCLE ( 'NONE', #20, 0.7999999999999999334 ) ;
#224 = ADVANCED_FACE ( 'NONE', ( #123 ), #84, .F. ) ;
#225 = ORGANIZATION ( 'NEURÈENÝ', 'NEURÈENÝ', '' ) ;
#226 = CALENDAR_DATE ( 2022, 20, 6 ) ;
#227 = PERSON_AND_ORGANIZATION ( #272, #225 ) ;
#228 = EDGE_CURVE ( 'NONE', #210, #59, #129, .T. ) ;
#229 = ORIENTED_EDGE ( 'NONE', *, *, #14, .F. ) ;
#230 = DIRECTION ( 'NONE',  ( -0.000000000000000000, -0.000000000000000000, -1.000000000000000000 ) ) ;
#231 = EDGE_CURVE ( 'NONE', #189, #296, #61, .T. ) ;
#232 = CARTESIAN_POINT ( 'NONE',  ( 0.5999999999999999778, 7.347880794884117764E-17, 126.2000000000000028 ) ) ;
#233 = APPROVAL_STATUS ( 'not_yet_approved' ) ;
#234 = CARTESIAN_POINT ( 'NONE',  ( 0.000000000000000000, 0.000000000000000000, 1.199999999999999956 ) ) ;
#235 = ORIENTED_EDGE ( 'NONE', *, *, #167, .T. ) ;
#236 = CIRCLE ( 'NONE', #24, 0.2000000000000000944 ) ;
#237 = DIRECTION ( 'NONE',  ( 0.000000000000000000, 0.000000000000000000, 1.000000000000000000 ) ) ;
#238 = DIRECTION ( 'NONE',  ( -0.000000000000000000, -0.000000000000000000, -1.000000000000000000 ) ) ;
#239 = DATE_AND_TIME ( #37, #264 ) ;
#240 = DIRECTION ( 'NONE',  ( 1.000000000000000000, 0.000000000000000000, 0.000000000000000000 ) ) ;
#241 = AXIS2_PLACEMENT_3D ( 'NONE', #5, #121, #240 ) ;
#242 = CARTESIAN_POINT ( 'NONE',  ( 1.250000000000000000, 1.530808498934191571E-16, 0.000000000000000000 ) ) ;
#243 = EDGE_CURVE ( 'NONE', #21, #59, #77, .T. ) ;
#244 = DIRECTION ( 'NONE',  ( 1.000000000000000000, 0.000000000000000000, 0.000000000000000000 ) ) ;
#245 = APPLICATION_PROTOCOL_DEFINITION ( 'international standard', 'config_control_design', 1994, #99 ) ;
#246 = LOCAL_TIME ( 12, 24, 54.00000000000000000, #304 ) ;
#247 = DIRECTION ( 'NONE',  ( 1.000000000000000000, 0.000000000000000000, 0.000000000000000000 ) ) ;
#248 = COORDINATED_UNIVERSAL_TIME_OFFSET ( 1, 0, .AHEAD. ) ;
#249 = ORIENTED_EDGE ( 'NONE', *, *, #259, .F. ) ;
#250 = PERSON_AND_ORGANIZATION ( #272, #225 ) ;
#251 = APPROVAL_STATUS ( 'not_yet_approved' ) ;
#252 = DIRECTION ( 'NONE',  ( -0.000000000000000000, -0.000000000000000000, -1.000000000000000000 ) ) ;
#253 = ADVANCED_FACE ( 'NONE', ( #291 ), #127, .T. ) ;
#254 = AXIS2_PLACEMENT_3D ( 'NONE', #60, #281, #90 ) ;
#255 = ORIENTED_EDGE ( 'NONE', *, *, #31, .F. ) ;
#256 = DATE_AND_TIME ( #258, #89 ) ;
#257 = VERTEX_POINT ( 'NONE', #274 ) ;
#258 = CALENDAR_DATE ( 2022, 20, 6 ) ;
#259 = EDGE_CURVE ( 'NONE', #189, #212, #95, .T. ) ;
#260 = FACE_OUTER_BOUND ( 'NONE', #306, .T. ) ;
#261 = VERTEX_POINT ( 'NONE', #151 ) ;
#262 = DIRECTION ( 'NONE',  ( 1.000000000000000000, 0.000000000000000000, 0.000000000000000000 ) ) ;
#263 = DIRECTION ( 'NONE',  ( 1.000000000000000000, 0.000000000000000000, 0.000000000000000000 ) ) ;
#264 = LOCAL_TIME ( 12, 24, 54.00000000000000000, #248 ) ;
#265 = PRODUCT_RELATED_PRODUCT_CATEGORY ( 'detail', '', ( #132 ) ) ;
#266 = DIRECTION ( 'NONE',  ( 0.000000000000000000, 0.000000000000000000, 1.000000000000000000 ) ) ;
#267 = CIRCLE ( 'NONE', #149, 0.7999999999999999334 ) ;
#268 = CARTESIAN_POINT ( 'NONE',  ( -1.250000000000000000, 0.000000000000000000, 0.000000000000000000 ) ) ;
#269 = CC_DESIGN_DATE_AND_TIME_ASSIGNMENT ( #239, #93, ( #176 ) ) ;
#270 = DIRECTION ( 'NONE',  ( 0.000000000000000000, 0.000000000000000000, 1.000000000000000000 ) ) ;
#271 = AXIS2_PLACEMENT_3D ( 'NONE', #26, #145, #218 ) ;
#272 = PERSON ( 'NEURÈENÝ', 'NEURÈENÝ', 'NEURÈENÝ', ('NEURÈENÝ'), ('NEURÈENÝ'), ('NEURÈENÝ') ) ;
#273 = DIRECTION ( 'NONE',  ( -1.000000000000000000, 0.000000000000000000, 0.000000000000000000 ) ) ;
#274 = CARTESIAN_POINT ( 'NONE',  ( -0.7999999999999999334, 9.797174393178824918E-17, 1.199999999999999289 ) ) ;
#275 = CARTESIAN_POINT ( 'NONE',  ( 0.000000000000000000, 0.000000000000000000, 1.199999999999999956 ) ) ;
#276 = PERSON_AND_ORGANIZATION_ROLE ( 'creator' ) ;
#277 = APPROVAL_PERSON_ORGANIZATION ( #182, #124, #293 ) ;
#278 = AXIS2_PLACEMENT_3D ( 'NONE', #177, #157, #201 ) ;
#279 = EDGE_LOOP ( 'NONE', ( #137, #117, #40, #188 ) ) ;
#280 = ORIENTED_EDGE ( 'NONE', *, *, #181, .F. ) ;
#281 = DIRECTION ( 'NONE',  ( 0.000000000000000000, 0.000000000000000000, 1.000000000000000000 ) ) ;
#282 = CALENDAR_DATE ( 2022, 20, 6 ) ;
#283 = CLOSED_SHELL ( 'NONE', ( #35, #52, #202, #253, #220, #70, #110, #146, #224 ) ) ;
#284 = EDGE_CURVE ( 'NONE', #261, #36, #33, .T. ) ;
#285 = DIRECTION ( 'NONE',  ( 1.000000000000000000, 0.000000000000000000, 0.000000000000000000 ) ) ;
#286 = CYLINDRICAL_SURFACE ( 'NONE', #74, 0.5999999999999999778 ) ;
#287 = CC_DESIGN_SECURITY_CLASSIFICATION ( #66, ( #80 ) ) ;
#288 = DIRECTION ( 'NONE',  ( -1.000000000000000000, 0.000000000000000000, 0.000000000000000000 ) ) ;
#289 = CARTESIAN_POINT ( 'NONE',  ( 0.000000000000000000, 0.000000000000000000, 1.199999999999999956 ) ) ;
#290 = PLANE ( 'NONE',  #144 ) ;
#291 = FACE_OUTER_BOUND ( 'NONE', #279, .T. ) ;
#292 = PERSON_AND_ORGANIZATION_ROLE ( 'design_supplier' ) ;
#293 = APPROVAL_ROLE ( '' ) ;
#294 = APPROVAL_DATE_TIME ( #102, #124 ) ;
#295 = PERSON_AND_ORGANIZATION_ROLE ( 'design_owner' ) ;
#296 = VERTEX_POINT ( 'NONE', #73 ) ;
#297 = TOROIDAL_SURFACE ( 'NONE', #118, 0.7999999999999999334, 0.2000000000000000111 ) ;
#298 = APPROVAL_DATE_TIME ( #135, #41 ) ;
#299 = ORIENTED_EDGE ( 'NONE', *, *, #284, .T. ) ;
#300 = APPROVAL_PERSON_ORGANIZATION ( #138, #160, #113 ) ;
#301 = CARTESIAN_POINT ( 'NONE',  ( -0.5999999999999999778, 0.000000000000000000, 126.2000000000000028 ) ) ;
#302 = DATE_TIME_ROLE ( 'classification_date' ) ;
#303 = VECTOR ( 'NONE', #19, 1000.000000000000000 ) ;
#304 = COORDINATED_UNIVERSAL_TIME_OFFSET ( 1, 0, .AHEAD. ) ;
#305 = ORIENTED_EDGE ( 'NONE', *, *, #78, .F. ) ;
#306 = EDGE_LOOP ( 'NONE', ( #305, #39, #107, #63 ) ) ;
#307 = EDGE_LOOP ( 'NONE', ( #87, #161, #44, #255 ) ) ;
ENDSEC;
END-ISO-10303-21;
