ISO-10303-21;
HEADER;
FILE_DESCRIPTION (( 'STEP AP203' ),
    '1' );
FILE_NAME ('1f6e.STEP',
    '2022-06-20T09:48:07',
    ( '' ),
    ( '' ),
    'SwSTEP 2.0',
    'SolidWorks 2019',
    '' );
FILE_SCHEMA (( 'CONFIG_CONTROL_DESIGN' ));
ENDSEC;

DATA;
#1 = PLANE ( 'NONE',  #31 ) ;
#2 = FACE_OUTER_BOUND ( 'NONE', #48, .T. ) ;
#3 = CARTESIAN_POINT ( 'NONE',  ( -4.200000000000000178, 5.143516556418882928E-16, 4.999999999999991118 ) ) ;
#4 = LOCAL_TIME ( 11, 48, 7.000000000000000000, #244 ) ;
#5 = CC_DESIGN_PERSON_AND_ORGANIZATION_ASSIGNMENT ( #136, #230, ( #183 ) ) ;
#6 = LINE ( 'NONE', #192, #180 ) ;
#7 = APPLICATION_CONTEXT ( 'configuration controlled 3d designs of mechanical parts and assemblies' ) ;
#8 = DIRECTION ( 'NONE',  ( 0.000000000000000000, 0.000000000000000000, 1.000000000000000000 ) ) ;
#9 = AXIS2_PLACEMENT_3D ( 'NONE', #172, #56, #78 ) ;
#10 = DIRECTION ( 'NONE',  ( -1.000000000000000000, 1.224646799147353454E-16, 0.000000000000000000 ) ) ;
#11 = AXIS2_PLACEMENT_3D ( 'NONE', #120, #215, #30 ) ;
#12 =( GEOMETRIC_REPRESENTATION_CONTEXT ( 3 ) GLOBAL_UNCERTAINTY_ASSIGNED_CONTEXT ( ( #214 ) ) GLOBAL_UNIT_ASSIGNED_CONTEXT ( ( #131, #226, #201 ) ) REPRESENTATION_CONTEXT ( 'NONE', 'WORKASPACE' ) );
#13 = PLANE ( 'NONE',  #103 ) ;
#14 = DIRECTION ( 'NONE',  ( 1.224646799147353207E-16, 1.000000000000000000, -0.000000000000000000 ) ) ;
#15 = VECTOR ( 'NONE', #149, 1000.000000000000000 ) ;
#16 = CC_DESIGN_DATE_AND_TIME_ASSIGNMENT ( #255, #257, ( #288 ) ) ;
#17 = CARTESIAN_POINT ( 'NONE',  ( 0.000000000000000000, 0.000000000000000000, 5.199999999999982414 ) ) ;
#18 = CALENDAR_DATE ( 2022, 20, 6 ) ;
#19 = MANIFOLD_SOLID_BREP ( 'Zaoblit1', #289 ) ;
#20 = PERSON_AND_ORGANIZATION ( #163, #250 ) ;
#21 = ORIENTED_EDGE ( 'NONE', *, *, #72, .F. ) ;
#22 = CIRCLE ( 'NONE', #272, 0.1999999999999996503 ) ;
#23 = APPLICATION_PROTOCOL_DEFINITION ( 'international standard', 'config_control_design', 1994, #27 ) ;
#24 = EDGE_LOOP ( 'NONE', ( #137, #186 ) ) ;
#25 = DESIGN_CONTEXT ( 'detailed design', #27, 'design' ) ;
#26 = ORIENTED_EDGE ( 'NONE', *, *, #273, .T. ) ;
#27 = APPLICATION_CONTEXT ( 'configuration controlled 3d designs of mechanical parts and assemblies' ) ;
#28 = DIRECTION ( 'NONE',  ( 1.000000000000000000, 0.000000000000000000, 0.000000000000000000 ) ) ;
#29 = DIRECTION ( 'NONE',  ( -1.000000000000000000, 0.000000000000000000, 0.000000000000000000 ) ) ;
#30 = DIRECTION ( 'NONE',  ( 1.000000000000000000, 0.000000000000000000, 0.000000000000000000 ) ) ;
#31 = AXIS2_PLACEMENT_3D ( 'NONE', #245, #76, #80 ) ;
#32 = DIRECTION ( 'NONE',  ( -0.000000000000000000, -0.000000000000000000, -1.000000000000000000 ) ) ;
#33 = SECURITY_CLASSIFICATION ( '', '', #304 ) ;
#34 = CYLINDRICAL_SURFACE ( 'NONE', #106, 4.000000000000000000 ) ;
#35 = ADVANCED_FACE ( 'NONE', ( #74 ), #96, .T. ) ;
#36 = FACE_OUTER_BOUND ( 'NONE', #143, .T. ) ;
#37 = CC_DESIGN_APPROVAL ( #144, ( #183 ) ) ;
#38 = DIRECTION ( 'NONE',  ( 0.000000000000000000, 0.000000000000000000, 1.000000000000000000 ) ) ;
#39 = DIRECTION ( 'NONE',  ( -0.000000000000000000, -0.000000000000000000, -1.000000000000000000 ) ) ;
#40 = ADVANCED_FACE ( 'NONE', ( #216 ), #238, .F. ) ;
#41 = DIRECTION ( 'NONE',  ( 1.000000000000000000, 0.000000000000000000, 0.000000000000000000 ) ) ;
#42 = CIRCLE ( 'NONE', #221, 7.000000000000000000 ) ;
#43 = CALENDAR_DATE ( 2022, 20, 6 ) ;
#44 = PERSON_AND_ORGANIZATION ( #163, #250 ) ;
#45 = VERTEX_POINT ( 'NONE', #267 ) ;
#46 = AXIS2_PLACEMENT_3D ( 'NONE', #294, #8, #243 ) ;
#47 = PERSON_AND_ORGANIZATION ( #163, #250 ) ;
#48 = EDGE_LOOP ( 'NONE', ( #279, #158, #282, #91 ) ) ;
#49 = APPROVAL_PERSON_ORGANIZATION ( #246, #100, #142 ) ;
#50 = ORIENTED_EDGE ( 'NONE', *, *, #124, .T. ) ;
#51 = ADVANCED_FACE ( 'NONE', ( #2 ), #148, .T. ) ;
#52 = PLANE ( 'NONE',  #168 ) ;
#53 = TOROIDAL_SURFACE ( 'NONE', #140, 4.200000000000000178, 0.2000000000000000111 ) ;
#54 = DIRECTION ( 'NONE',  ( -0.000000000000000000, -0.000000000000000000, -1.000000000000000000 ) ) ;
#55 = ADVANCED_FACE ( 'NONE', ( #95 ), #1, .F. ) ;
#56 = DIRECTION ( 'NONE',  ( -0.000000000000000000, -0.000000000000000000, -1.000000000000000000 ) ) ;
#57 = AXIS2_PLACEMENT_3D ( 'NONE', #293, #98, #79 ) ;
#58 = CARTESIAN_POINT ( 'NONE',  ( 4.000000000000000000, 4.898587196589412829E-16, 635.0000000000000000 ) ) ;
#59 = CC_DESIGN_SECURITY_CLASSIFICATION ( #33, ( #183 ) ) ;
#60 = CARTESIAN_POINT ( 'NONE',  ( 0.000000000000000000, 0.000000000000000000, 5.000000000000000000 ) ) ;
#61 = CARTESIAN_POINT ( 'NONE',  ( -4.000000000000000000, 0.000000000000000000, 635.0000000000000000 ) ) ;
#62 = AXIS2_PLACEMENT_3D ( 'NONE', #194, #291, #199 ) ;
#63 = DIRECTION ( 'NONE',  ( 0.000000000000000000, 0.000000000000000000, -1.000000000000000000 ) ) ;
#64 = DIRECTION ( 'NONE',  ( 1.000000000000000000, 0.000000000000000000, 0.000000000000000000 ) ) ;
#65 = AXIS2_PLACEMENT_3D ( 'NONE', #262, #147, #28 ) ;
#66 = CIRCLE ( 'NONE', #228, 4.000000000000000000 ) ;
#67 = ORIENTED_EDGE ( 'NONE', *, *, #175, .T. ) ;
#68 = ADVANCED_FACE ( 'NONE', ( #222 ), #34, .T. ) ;
#69 = APPROVAL_DATE_TIME ( #112, #97 ) ;
#70 = ORIENTED_EDGE ( 'NONE', *, *, #75, .T. ) ;
#71 = VECTOR ( 'NONE', #191, 1000.000000000000000 ) ;
#72 = EDGE_CURVE ( 'NONE', #260, #73, #6, .T. ) ;
#73 = VERTEX_POINT ( 'NONE', #123 ) ;
#74 = FACE_OUTER_BOUND ( 'NONE', #92, .T. ) ;
#75 = EDGE_CURVE ( 'NONE', #239, #231, #146, .T. ) ;
#76 = DIRECTION ( 'NONE',  ( 0.000000000000000000, 0.000000000000000000, 1.000000000000000000 ) ) ;
#77 = LOCAL_TIME ( 11, 48, 7.000000000000000000, #232 ) ;
#78 = DIRECTION ( 'NONE',  ( -1.000000000000000000, 0.000000000000000000, 0.000000000000000000 ) ) ;
#79 = DIRECTION ( 'NONE',  ( -1.000000000000000000, 0.000000000000000000, 0.000000000000000000 ) ) ;
#80 = DIRECTION ( 'NONE',  ( 1.000000000000000000, 0.000000000000000000, -0.000000000000000000 ) ) ;
#81 = CC_DESIGN_PERSON_AND_ORGANIZATION_ASSIGNMENT ( #90, #138, ( #33 ) ) ;
#82 = CARTESIAN_POINT ( 'NONE',  ( -4.000000000000000000, 0.000000000000000000, 5.199999999999982414 ) ) ;
#83 = DIRECTION ( 'NONE',  ( 1.000000000000000000, 0.000000000000000000, 0.000000000000000000 ) ) ;
#84 = CARTESIAN_POINT ( 'NONE',  ( -4.200000000000000178, 5.143516556418882928E-16, 5.199999999999982414 ) ) ;
#85 = FACE_OUTER_BOUND ( 'NONE', #190, .T. ) ;
#86 = CARTESIAN_POINT ( 'NONE',  ( 7.000000000000000000, 8.572527594031473190E-16, 5.000000000000000000 ) ) ;
#87 = APPROVAL_ROLE ( '' ) ;
#88 = ORIENTED_EDGE ( 'NONE', *, *, #235, .T. ) ;
#89 = CC_DESIGN_PERSON_AND_ORGANIZATION_ASSIGNMENT ( #44, #206, ( #183 ) ) ;
#90 = PERSON_AND_ORGANIZATION ( #163, #250 ) ;
#91 = ORIENTED_EDGE ( 'NONE', *, *, #167, .T. ) ;
#92 = EDGE_LOOP ( 'NONE', ( #213, #111, #70, #205 ) ) ;
#93 = ORIENTED_EDGE ( 'NONE', *, *, #253, .F. ) ;
#94 = ADVANCED_FACE ( 'NONE', ( #121 ), #195, .T. ) ;
#95 = FACE_OUTER_BOUND ( 'NONE', #139, .T. ) ;
#96 = CYLINDRICAL_SURFACE ( 'NONE', #9, 4.000000000000000000 ) ;
#97 = APPROVAL ( #114, 'NEURÈENÝ' ) ;
#98 = DIRECTION ( 'NONE',  ( -0.000000000000000000, -0.000000000000000000, -1.000000000000000000 ) ) ;
#99 = CARTESIAN_POINT ( 'NONE',  ( 0.000000000000000000, 0.000000000000000000, 5.000000000000000000 ) ) ;
#100 = APPROVAL ( #126, 'NEURÈENÝ' ) ;
#101 = LINE ( 'NONE', #58, #15 ) ;
#102 = EDGE_CURVE ( 'NONE', #45, #261, #101, .T. ) ;
#103 = AXIS2_PLACEMENT_3D ( 'NONE', #179, #274, #298 ) ;
#104 = CARTESIAN_POINT ( 'NONE',  ( 4.200000000000000178, 0.000000000000000000, 5.199999999999982414 ) ) ;
#105 = CARTESIAN_POINT ( 'NONE',  ( 0.000000000000000000, 0.000000000000000000, 635.0000000000000000 ) ) ;
#106 = AXIS2_PLACEMENT_3D ( 'NONE', #125, #32, #29 ) ;
#107 = MECHANICAL_CONTEXT ( 'NONE', #7, 'mechanical' ) ;
#108 = VECTOR ( 'NONE', #271, 1000.000000000000000 ) ;
#109 = DIRECTION ( 'NONE',  ( 0.000000000000000000, 0.000000000000000000, 1.000000000000000000 ) ) ;
#110 = PERSON_AND_ORGANIZATION_ROLE ( 'creator' ) ;
#111 = ORIENTED_EDGE ( 'NONE', *, *, #189, .F. ) ;
#112 = DATE_AND_TIME ( #18, #197 ) ;
#113 = AXIS2_PLACEMENT_3D ( 'NONE', #251, #38, #129 ) ;
#114 = APPROVAL_STATUS ( 'not_yet_approved' ) ;
#115 = VERTEX_POINT ( 'NONE', #223 ) ;
#116 = ORIENTED_EDGE ( 'NONE', *, *, #193, .F. ) ;
#117 = DATE_AND_TIME ( #236, #4 ) ;
#118 = ORIENTED_EDGE ( 'NONE', *, *, #277, .F. ) ;
#119 = CIRCLE ( 'NONE', #241, 4.000000000000000000 ) ;
#120 = CARTESIAN_POINT ( 'NONE',  ( 0.000000000000000000, 0.000000000000000000, 5.199999999999982414 ) ) ;
#121 = FACE_OUTER_BOUND ( 'NONE', #247, .T. ) ;
#122 = DIRECTION ( 'NONE',  ( 0.000000000000000000, 0.000000000000000000, 1.000000000000000000 ) ) ;
#123 = CARTESIAN_POINT ( 'NONE',  ( -7.000000000000000000, 0.000000000000000000, 0.000000000000000000 ) ) ;
#124 = EDGE_CURVE ( 'NONE', #115, #73, #249, .T. ) ;
#125 = CARTESIAN_POINT ( 'NONE',  ( 0.000000000000000000, 0.000000000000000000, 635.0000000000000000 ) ) ;
#126 = APPROVAL_STATUS ( 'not_yet_approved' ) ;
#127 = DIRECTION ( 'NONE',  ( 0.000000000000000000, 0.000000000000000000, 1.000000000000000000 ) ) ;
#128 = CIRCLE ( 'NONE', #173, 4.200000000000000178 ) ;
#129 = DIRECTION ( 'NONE',  ( 1.000000000000000000, 0.000000000000000000, 0.000000000000000000 ) ) ;
#130 = PRODUCT_RELATED_PRODUCT_CATEGORY ( 'detail', '', ( #265 ) ) ;
#131 =( LENGTH_UNIT ( ) NAMED_UNIT ( * ) SI_UNIT ( .MILLI., .METRE. ) );
#132 = DIRECTION ( 'NONE',  ( 1.000000000000000000, 0.000000000000000000, 0.000000000000000000 ) ) ;
#133 = EDGE_CURVE ( 'NONE', #260, #307, #259, .T. ) ;
#134 = APPROVAL_ROLE ( '' ) ;
#135 = ADVANCED_BREP_SHAPE_REPRESENTATION ( '1f6e', ( #19, #113 ), #12 ) ;
#136 = PERSON_AND_ORGANIZATION ( #163, #250 ) ;
#137 = ORIENTED_EDGE ( 'NONE', *, *, #189, .T. ) ;
#138 = PERSON_AND_ORGANIZATION_ROLE ( 'classification_officer' ) ;
#139 = EDGE_LOOP ( 'NONE', ( #170, #258 ) ) ;
#140 = AXIS2_PLACEMENT_3D ( 'NONE', #17, #127, #64 ) ;
#141 = ORIENTED_EDGE ( 'NONE', *, *, #273, .F. ) ;
#142 = APPROVAL_ROLE ( '' ) ;
#143 = EDGE_LOOP ( 'NONE', ( #116, #26, #212, #185 ) ) ;
#144 = APPROVAL ( #302, 'NEURÈENÝ' ) ;
#145 = CC_DESIGN_APPROVAL ( #97, ( #288 ) ) ;
#146 = LINE ( 'NONE', #290, #71 ) ;
#147 = DIRECTION ( 'NONE',  ( 0.000000000000000000, 0.000000000000000000, 1.000000000000000000 ) ) ;
#148 = CYLINDRICAL_SURFACE ( 'NONE', #160, 7.000000000000000000 ) ;
#149 = DIRECTION ( 'NONE',  ( -0.000000000000000000, -0.000000000000000000, -1.000000000000000000 ) ) ;
#150 = DIRECTION ( 'NONE',  ( 0.000000000000000000, 0.000000000000000000, 1.000000000000000000 ) ) ;
#151 = CIRCLE ( 'NONE', #188, 4.200000000000000178 ) ;
#152 = DIRECTION ( 'NONE',  ( -0.000000000000000000, -0.000000000000000000, -1.000000000000000000 ) ) ;
#153 = DIRECTION ( 'NONE',  ( 0.000000000000000000, 0.000000000000000000, 1.000000000000000000 ) ) ;
#154 = AXIS2_PLACEMENT_3D ( 'NONE', #60, #150, #169 ) ;
#155 = COORDINATED_UNIVERSAL_TIME_OFFSET ( 1, 0, .AHEAD. ) ;
#156 = LOCAL_TIME ( 11, 48, 7.000000000000000000, #155 ) ;
#157 = PERSON_AND_ORGANIZATION ( #163, #250 ) ;
#158 = ORIENTED_EDGE ( 'NONE', *, *, #133, .F. ) ;
#159 = PERSON_AND_ORGANIZATION ( #163, #250 ) ;
#160 = AXIS2_PLACEMENT_3D ( 'NONE', #99, #54, #196 ) ;
#161 = EDGE_LOOP ( 'NONE', ( #141, #283, #88, #118 ) ) ;
#162 = ORIENTED_EDGE ( 'NONE', *, *, #253, .T. ) ;
#163 = PERSON ( 'NEURÈENÝ', 'NEURÈENÝ', 'NEURÈENÝ', ('NEURÈENÝ'), ('NEURÈENÝ'), ('NEURÈENÝ') ) ;
#164 = SHAPE_DEFINITION_REPRESENTATION ( #171, #135 ) ;
#165 = DATE_AND_TIME ( #43, #77 ) ;
#166 = DIRECTION ( 'NONE',  ( -0.000000000000000000, -0.000000000000000000, -1.000000000000000000 ) ) ;
#167 = EDGE_CURVE ( 'NONE', #73, #115, #266, .T. ) ;
#168 = AXIS2_PLACEMENT_3D ( 'NONE', #242, #122, #218 ) ;
#169 = DIRECTION ( 'NONE',  ( 1.000000000000000000, 0.000000000000000000, 0.000000000000000000 ) ) ;
#170 = ORIENTED_EDGE ( 'NONE', *, *, #167, .F. ) ;
#171 = PRODUCT_DEFINITION_SHAPE ( 'NONE', 'NONE',  #288 ) ;
#172 = CARTESIAN_POINT ( 'NONE',  ( 0.000000000000000000, 0.000000000000000000, 635.0000000000000000 ) ) ;
#173 = AXIS2_PLACEMENT_3D ( 'NONE', #300, #152, #276 ) ;
#174 = DIRECTION ( 'NONE',  ( 0.000000000000000000, 0.000000000000000000, 1.000000000000000000 ) ) ;
#175 = EDGE_CURVE ( 'NONE', #261, #231, #240, .T. ) ;
#176 = CARTESIAN_POINT ( 'NONE',  ( 0.000000000000000000, 0.000000000000000000, 5.000000000000000000 ) ) ;
#177 = DIRECTION ( 'NONE',  ( 1.000000000000000000, 0.000000000000000000, 0.000000000000000000 ) ) ;
#178 = ADVANCED_FACE ( 'NONE', ( #287 ), #52, .T. ) ;
#179 = CARTESIAN_POINT ( 'NONE',  ( 0.000000000000000000, 0.000000000000000000, 5.000000000000000000 ) ) ;
#180 = VECTOR ( 'NONE', #166, 1000.000000000000000 ) ;
#181 = CALENDAR_DATE ( 2022, 20, 6 ) ;
#182 = ORIENTED_EDGE ( 'NONE', *, *, #220, .T. ) ;
#183 = PRODUCT_DEFINITION_FORMATION_WITH_SPECIFIED_SOURCE ( 'LIBOVOLNÝ', '', #265, .NOT_KNOWN. ) ;
#184 = APPROVAL_DATE_TIME ( #256, #144 ) ;
#185 = ORIENTED_EDGE ( 'NONE', *, *, #235, .F. ) ;
#186 = ORIENTED_EDGE ( 'NONE', *, *, #224, .T. ) ;
#187 = VERTEX_POINT ( 'NONE', #3 ) ;
#188 = AXIS2_PLACEMENT_3D ( 'NONE', #248, #39, #41 ) ;
#189 = EDGE_CURVE ( 'NONE', #239, #45, #263, .T. ) ;
#190 = EDGE_LOOP ( 'NONE', ( #237, #162 ) ) ;
#191 = DIRECTION ( 'NONE',  ( -0.000000000000000000, -0.000000000000000000, -1.000000000000000000 ) ) ;
#192 = CARTESIAN_POINT ( 'NONE',  ( -7.000000000000000000, 0.000000000000000000, 5.000000000000000000 ) ) ;
#193 = EDGE_CURVE ( 'NONE', #231, #261, #66, .T. ) ;
#194 = CARTESIAN_POINT ( 'NONE',  ( 0.000000000000000000, 0.000000000000000000, 635.0000000000000000 ) ) ;
#195 = CYLINDRICAL_SURFACE ( 'NONE', #57, 7.000000000000000000 ) ;
#196 = DIRECTION ( 'NONE',  ( -1.000000000000000000, 0.000000000000000000, 0.000000000000000000 ) ) ;
#197 = LOCAL_TIME ( 11, 48, 7.000000000000000000, #281 ) ;
#198 = CC_DESIGN_PERSON_AND_ORGANIZATION_ASSIGNMENT ( #159, #110, ( #288 ) ) ;
#199 = DIRECTION ( 'NONE',  ( 1.000000000000000000, 0.000000000000000000, 0.000000000000000000 ) ) ;
#200 = CARTESIAN_POINT ( 'NONE',  ( 4.000000000000000000, 4.898587196589412829E-16, 5.199999999999982414 ) ) ;
#201 =( NAMED_UNIT ( * ) SI_UNIT ( $, .STERADIAN. ) SOLID_ANGLE_UNIT ( ) );
#202 = LOCAL_TIME ( 11, 48, 7.000000000000000000, #210 ) ;
#203 = LINE ( 'NONE', #86, #108 ) ;
#204 = CALENDAR_DATE ( 2022, 20, 6 ) ;
#205 = ORIENTED_EDGE ( 'NONE', *, *, #193, .T. ) ;
#206 = PERSON_AND_ORGANIZATION_ROLE ( 'creator' ) ;
#207 = ADVANCED_FACE ( 'NONE', ( #296, #85 ), #13, .T. ) ;
#208 = CIRCLE ( 'NONE', #299, 0.1999999999999996503 ) ;
#209 = DATE_TIME_ROLE ( 'classification_date' ) ;
#210 = COORDINATED_UNIVERSAL_TIME_OFFSET ( 1, 0, .AHEAD. ) ;
#211 = EDGE_LOOP ( 'NONE', ( #182, #286 ) ) ;
#212 = ORIENTED_EDGE ( 'NONE', *, *, #220, .F. ) ;
#213 = ORIENTED_EDGE ( 'NONE', *, *, #102, .F. ) ;
#214 = UNCERTAINTY_MEASURE_WITH_UNIT (LENGTH_MEASURE( 1.000000000000000082E-05 ), #131, 'distance_accuracy_value', 'NONE');
#215 = DIRECTION ( 'NONE',  ( 0.000000000000000000, 0.000000000000000000, 1.000000000000000000 ) ) ;
#216 = FACE_OUTER_BOUND ( 'NONE', #161, .T. ) ;
#217 = AXIS2_PLACEMENT_3D ( 'NONE', #270, #174, #264 ) ;
#218 = DIRECTION ( 'NONE',  ( 1.000000000000000000, 0.000000000000000000, -0.000000000000000000 ) ) ;
#219 = CC_DESIGN_PERSON_AND_ORGANIZATION_ASSIGNMENT ( #20, #229, ( #265 ) ) ;
#220 = EDGE_CURVE ( 'NONE', #233, #187, #128, .T. ) ;
#221 = AXIS2_PLACEMENT_3D ( 'NONE', #176, #301, #132 ) ;
#222 = FACE_OUTER_BOUND ( 'NONE', #306, .T. ) ;
#223 = CARTESIAN_POINT ( 'NONE',  ( 7.000000000000000000, 8.572527594031473190E-16, 0.000000000000000000 ) ) ;
#224 = EDGE_CURVE ( 'NONE', #45, #239, #119, .T. ) ;
#225 = APPLICATION_PROTOCOL_DEFINITION ( 'international standard', 'config_control_design', 1994, #7 ) ;
#226 =( NAMED_UNIT ( * ) PLANE_ANGLE_UNIT ( ) SI_UNIT ( $, .RADIAN. ) );
#227 = CARTESIAN_POINT ( 'NONE',  ( -7.000000000000000000, 0.000000000000000000, 5.000000000000000000 ) ) ;
#228 = AXIS2_PLACEMENT_3D ( 'NONE', #297, #153, #177 ) ;
#229 = PERSON_AND_ORGANIZATION_ROLE ( 'design_owner' ) ;
#230 = PERSON_AND_ORGANIZATION_ROLE ( 'design_supplier' ) ;
#231 = VERTEX_POINT ( 'NONE', #82 ) ;
#232 = COORDINATED_UNIVERSAL_TIME_OFFSET ( 1, 0, .AHEAD. ) ;
#233 = VERTEX_POINT ( 'NONE', #252 ) ;
#234 = ORIENTED_EDGE ( 'NONE', *, *, #280, .T. ) ;
#235 = EDGE_CURVE ( 'NONE', #261, #233, #208, .T. ) ;
#236 = CALENDAR_DATE ( 2022, 20, 6 ) ;
#237 = ORIENTED_EDGE ( 'NONE', *, *, #133, .T. ) ;
#238 = TOROIDAL_SURFACE ( 'NONE', #46, 4.200000000000000178, 0.2000000000000000111 ) ;
#239 = VERTEX_POINT ( 'NONE', #61 ) ;
#240 = CIRCLE ( 'NONE', #11, 4.000000000000000000 ) ;
#241 = AXIS2_PLACEMENT_3D ( 'NONE', #105, #109, #83 ) ;
#242 = CARTESIAN_POINT ( 'NONE',  ( 0.000000000000000000, 0.000000000000000000, 635.0000000000000000 ) ) ;
#243 = DIRECTION ( 'NONE',  ( 1.000000000000000000, 0.000000000000000000, 0.000000000000000000 ) ) ;
#244 = COORDINATED_UNIVERSAL_TIME_OFFSET ( 1, 0, .AHEAD. ) ;
#245 = CARTESIAN_POINT ( 'NONE',  ( 0.000000000000000000, 0.000000000000000000, 0.000000000000000000 ) ) ;
#246 = PERSON_AND_ORGANIZATION ( #163, #250 ) ;
#247 = EDGE_LOOP ( 'NONE', ( #93, #234, #50, #21 ) ) ;
#248 = CARTESIAN_POINT ( 'NONE',  ( 0.000000000000000000, 0.000000000000000000, 5.000000000000000000 ) ) ;
#249 = CIRCLE ( 'NONE', #217, 7.000000000000000000 ) ;
#250 = ORGANIZATION ( 'NEURÈENÝ', 'NEURÈENÝ', '' ) ;
#251 = CARTESIAN_POINT ( 'NONE',  ( 0.000000000000000000, 0.000000000000000000, 0.000000000000000000 ) ) ;
#252 = CARTESIAN_POINT ( 'NONE',  ( 4.200000000000000178, 0.000000000000000000, 4.999999999999991118 ) ) ;
#253 = EDGE_CURVE ( 'NONE', #307, #260, #42, .T. ) ;
#254 = CARTESIAN_POINT ( 'NONE',  ( 7.000000000000000000, 8.572527594031473190E-16, 5.000000000000000000 ) ) ;
#255 = DATE_AND_TIME ( #204, #202 ) ;
#256 = DATE_AND_TIME ( #181, #156 ) ;
#257 = DATE_TIME_ROLE ( 'creation_date' ) ;
#258 = ORIENTED_EDGE ( 'NONE', *, *, #124, .F. ) ;
#259 = CIRCLE ( 'NONE', #154, 7.000000000000000000 ) ;
#260 = VERTEX_POINT ( 'NONE', #227 ) ;
#261 = VERTEX_POINT ( 'NONE', #200 ) ;
#262 = CARTESIAN_POINT ( 'NONE',  ( 0.000000000000000000, 0.000000000000000000, 0.000000000000000000 ) ) ;
#263 = CIRCLE ( 'NONE', #62, 4.000000000000000000 ) ;
#264 = DIRECTION ( 'NONE',  ( 1.000000000000000000, 0.000000000000000000, 0.000000000000000000 ) ) ;
#265 = PRODUCT ( '1f6e', '1f6e', '', ( #107 ) ) ;
#266 = CIRCLE ( 'NONE', #65, 7.000000000000000000 ) ;
#267 = CARTESIAN_POINT ( 'NONE',  ( 4.000000000000000000, 4.898587196589412829E-16, 635.0000000000000000 ) ) ;
#268 = CC_DESIGN_DATE_AND_TIME_ASSIGNMENT ( #165, #209, ( #33 ) ) ;
#269 = APPROVAL_PERSON_ORGANIZATION ( #47, #144, #87 ) ;
#270 = CARTESIAN_POINT ( 'NONE',  ( 0.000000000000000000, 0.000000000000000000, 0.000000000000000000 ) ) ;
#271 = DIRECTION ( 'NONE',  ( -0.000000000000000000, -0.000000000000000000, -1.000000000000000000 ) ) ;
#272 = AXIS2_PLACEMENT_3D ( 'NONE', #84, #14, #10 ) ;
#273 = EDGE_CURVE ( 'NONE', #231, #187, #22, .T. ) ;
#274 = DIRECTION ( 'NONE',  ( 0.000000000000000000, 0.000000000000000000, 1.000000000000000000 ) ) ;
#275 = DIRECTION ( 'NONE',  ( 0.000000000000000000, -1.000000000000000000, 0.000000000000000000 ) ) ;
#276 = DIRECTION ( 'NONE',  ( 1.000000000000000000, 0.000000000000000000, 0.000000000000000000 ) ) ;
#277 = EDGE_CURVE ( 'NONE', #187, #233, #151, .T. ) ;
#278 = APPROVAL_PERSON_ORGANIZATION ( #157, #97, #134 ) ;
#279 = ORIENTED_EDGE ( 'NONE', *, *, #280, .F. ) ;
#280 = EDGE_CURVE ( 'NONE', #307, #115, #203, .T. ) ;
#281 = COORDINATED_UNIVERSAL_TIME_OFFSET ( 1, 0, .AHEAD. ) ;
#282 = ORIENTED_EDGE ( 'NONE', *, *, #72, .T. ) ;
#283 = ORIENTED_EDGE ( 'NONE', *, *, #175, .F. ) ;
#284 = ORIENTED_EDGE ( 'NONE', *, *, #102, .T. ) ;
#285 = APPROVAL_DATE_TIME ( #117, #100 ) ;
#286 = ORIENTED_EDGE ( 'NONE', *, *, #277, .T. ) ;
#287 = FACE_OUTER_BOUND ( 'NONE', #24, .T. ) ;
#288 = PRODUCT_DEFINITION ( 'NEZNÁMÝ', '', #183, #25 ) ;
#289 = CLOSED_SHELL ( 'NONE', ( #292, #68, #94, #51, #207, #55, #35, #178, #40 ) ) ;
#290 = CARTESIAN_POINT ( 'NONE',  ( -4.000000000000000000, 0.000000000000000000, 635.0000000000000000 ) ) ;
#291 = DIRECTION ( 'NONE',  ( 0.000000000000000000, 0.000000000000000000, 1.000000000000000000 ) ) ;
#292 = ADVANCED_FACE ( 'NONE', ( #36 ), #53, .F. ) ;
#293 = CARTESIAN_POINT ( 'NONE',  ( 0.000000000000000000, 0.000000000000000000, 5.000000000000000000 ) ) ;
#294 = CARTESIAN_POINT ( 'NONE',  ( 0.000000000000000000, 0.000000000000000000, 5.199999999999982414 ) ) ;
#295 = CC_DESIGN_APPROVAL ( #100, ( #33 ) ) ;
#296 = FACE_BOUND ( 'NONE', #211, .T. ) ;
#297 = CARTESIAN_POINT ( 'NONE',  ( 0.000000000000000000, 0.000000000000000000, 5.199999999999982414 ) ) ;
#298 = DIRECTION ( 'NONE',  ( 1.000000000000000000, 0.000000000000000000, -0.000000000000000000 ) ) ;
#299 = AXIS2_PLACEMENT_3D ( 'NONE', #104, #275, #63 ) ;
#300 = CARTESIAN_POINT ( 'NONE',  ( 0.000000000000000000, 0.000000000000000000, 5.000000000000000000 ) ) ;
#301 = DIRECTION ( 'NONE',  ( 0.000000000000000000, 0.000000000000000000, 1.000000000000000000 ) ) ;
#302 = APPROVAL_STATUS ( 'not_yet_approved' ) ;
#303 = ORIENTED_EDGE ( 'NONE', *, *, #75, .F. ) ;
#304 = SECURITY_CLASSIFICATION_LEVEL ( 'unclassified' ) ;
#305 = ORIENTED_EDGE ( 'NONE', *, *, #224, .F. ) ;
#306 = EDGE_LOOP ( 'NONE', ( #305, #284, #67, #303 ) ) ;
#307 = VERTEX_POINT ( 'NONE', #254 ) ;
ENDSEC;
END-ISO-10303-21;
