ISO-10303-21;
HEADER;
FILE_DESCRIPTION (( 'STEP AP203' ),
    '1' );
FILE_NAME ('9873.STEP',
    '2022-06-20T09:24:09',
    ( '' ),
    ( '' ),
    'SwSTEP 2.0',
    'SolidWorks 2019',
    '' );
FILE_SCHEMA (( 'CONFIG_CONTROL_DESIGN' ));
ENDSEC;

DATA;
#1 = DIRECTION ( 'NONE',  ( 0.000000000000000000, 0.000000000000000000, 1.000000000000000000 ) ) ;
#2 = PERSON_AND_ORGANIZATION ( #307, #269 ) ;
#3 = DIRECTION ( 'NONE',  ( 0.000000000000000000, 0.000000000000000000, 1.000000000000000000 ) ) ;
#4 = PERSON_AND_ORGANIZATION ( #307, #269 ) ;
#5 = CARTESIAN_POINT ( 'NONE',  ( 0.000000000000000000, 0.000000000000000000, 7.000000000000000000 ) ) ;
#6 = VECTOR ( 'NONE', #274, 1000.000000000000000 ) ;
#7 = DIRECTION ( 'NONE',  ( 0.000000000000000000, 0.000000000000000000, 1.000000000000000000 ) ) ;
#8 = DATE_AND_TIME ( #221, #290 ) ;
#9 = DIRECTION ( 'NONE',  ( 1.224646799147353207E-16, 1.000000000000000000, -0.000000000000000000 ) ) ;
#10 = EDGE_CURVE ( 'NONE', #209, #300, #190, .T. ) ;
#11 = CARTESIAN_POINT ( 'NONE',  ( -8.200000000000001066, 1.004210375300829674E-15, 7.000000000000006217 ) ) ;
#12 = CC_DESIGN_DATE_AND_TIME_ASSIGNMENT ( #261, #152, ( #184 ) ) ;
#13 = CIRCLE ( 'NONE', #229, 8.200000000000001066 ) ;
#14 = CARTESIAN_POINT ( 'NONE',  ( 8.200000000000001066, 0.000000000000000000, 7.200000000000011724 ) ) ;
#15 = AXIS2_PLACEMENT_3D ( 'NONE', #47, #271, #258 ) ;
#16 = DIRECTION ( 'NONE',  ( 1.000000000000000000, 0.000000000000000000, 0.000000000000000000 ) ) ;
#17 = APPLICATION_PROTOCOL_DEFINITION ( 'international standard', 'config_control_design', 1994, #36 ) ;
#18 = ORIENTED_EDGE ( 'NONE', *, *, #141, .T. ) ;
#19 = CC_DESIGN_PERSON_AND_ORGANIZATION_ASSIGNMENT ( #197, #286, ( #113 ) ) ;
#20 = COORDINATED_UNIVERSAL_TIME_OFFSET ( 1, 0, .AHEAD. ) ;
#21 = EDGE_LOOP ( 'NONE', ( #239, #171 ) ) ;
#22 = EDGE_LOOP ( 'NONE', ( #112, #173, #212, #279 ) ) ;
#23 = APPLICATION_CONTEXT ( 'configuration controlled 3d designs of mechanical parts and assemblies' ) ;
#24 = DIRECTION ( 'NONE',  ( 1.000000000000000000, 0.000000000000000000, 0.000000000000000000 ) ) ;
#25 = CARTESIAN_POINT ( 'NONE',  ( 0.000000000000000000, 0.000000000000000000, 0.000000000000000000 ) ) ;
#26 = SHAPE_DEFINITION_REPRESENTATION ( #227, #215 ) ;
#27 = ORIENTED_EDGE ( 'NONE', *, *, #248, .F. ) ;
#28 = DIRECTION ( 'NONE',  ( 0.000000000000000000, 0.000000000000000000, 1.000000000000000000 ) ) ;
#29 = DIRECTION ( 'NONE',  ( 1.000000000000000000, 0.000000000000000000, -0.000000000000000000 ) ) ;
#30 = CC_DESIGN_PERSON_AND_ORGANIZATION_ASSIGNMENT ( #2, #75, ( #113 ) ) ;
#31 = APPROVAL_ROLE ( '' ) ;
#32 = CARTESIAN_POINT ( 'NONE',  ( 0.000000000000000000, 0.000000000000000000, 257.0000000000000000 ) ) ;
#33 = FACE_OUTER_BOUND ( 'NONE', #282, .T. ) ;
#34 = EDGE_CURVE ( 'NONE', #117, #234, #188, .T. ) ;
#35 = DIRECTION ( 'NONE',  ( 1.000000000000000000, 0.000000000000000000, 0.000000000000000000 ) ) ;
#36 = APPLICATION_CONTEXT ( 'configuration controlled 3d designs of mechanical parts and assemblies' ) ;
#37 = DIRECTION ( 'NONE',  ( -0.000000000000000000, -0.000000000000000000, -1.000000000000000000 ) ) ;
#38 = AXIS2_PLACEMENT_3D ( 'NONE', #218, #1, #35 ) ;
#39 = CARTESIAN_POINT ( 'NONE',  ( 8.000000000000000000, 9.797174393178825657E-16, 257.0000000000000000 ) ) ;
#40 = MANIFOLD_SOLID_BREP ( 'Zaoblit1', #131 ) ;
#41 = CARTESIAN_POINT ( 'NONE',  ( -11.00000000000000000, 0.000000000000000000, 0.000000000000000000 ) ) ;
#42 = AXIS2_PLACEMENT_3D ( 'NONE', #32, #288, #284 ) ;
#43 = PERSON_AND_ORGANIZATION ( #307, #269 ) ;
#44 = PRODUCT_DEFINITION ( 'NEZNÁMÝ', '', #113, #158 ) ;
#45 =( NAMED_UNIT ( * ) PLANE_ANGLE_UNIT ( ) SI_UNIT ( $, .RADIAN. ) );
#46 = EDGE_LOOP ( 'NONE', ( #95, #97, #232, #193 ) ) ;
#47 = CARTESIAN_POINT ( 'NONE',  ( 0.000000000000000000, 0.000000000000000000, 7.000000000000000000 ) ) ;
#48 = FACE_OUTER_BOUND ( 'NONE', #21, .T. ) ;
#49 = AXIS2_PLACEMENT_3D ( 'NONE', #25, #123, #79 ) ;
#50 = LOCAL_TIME ( 11, 24, 9.000000000000000000, #124 ) ;
#51 = ORIENTED_EDGE ( 'NONE', *, *, #248, .T. ) ;
#52 = EDGE_LOOP ( 'NONE', ( #214, #51 ) ) ;
#53 = DIRECTION ( 'NONE',  ( 1.000000000000000000, 0.000000000000000000, 0.000000000000000000 ) ) ;
#54 = CARTESIAN_POINT ( 'NONE',  ( 11.00000000000000000, 1.347111479062088405E-15, 7.000000000000000000 ) ) ;
#55 = CIRCLE ( 'NONE', #65, 0.1999999999999996503 ) ;
#56 = DIRECTION ( 'NONE',  ( -0.000000000000000000, -0.000000000000000000, -1.000000000000000000 ) ) ;
#57 = DIRECTION ( 'NONE',  ( -0.000000000000000000, -0.000000000000000000, -1.000000000000000000 ) ) ;
#58 = CARTESIAN_POINT ( 'NONE',  ( 0.000000000000000000, 0.000000000000000000, 7.000000000000000000 ) ) ;
#59 = ADVANCED_FACE ( 'NONE', ( #48 ), #238, .F. ) ;
#60 = CIRCLE ( 'NONE', #15, 11.00000000000000000 ) ;
#61 = DIRECTION ( 'NONE',  ( 0.000000000000000000, 0.000000000000000000, 1.000000000000000000 ) ) ;
#62 = FACE_OUTER_BOUND ( 'NONE', #119, .T. ) ;
#63 = CARTESIAN_POINT ( 'NONE',  ( 0.000000000000000000, 0.000000000000000000, 257.0000000000000000 ) ) ;
#64 = ADVANCED_FACE ( 'NONE', ( #155, #247 ), #262, .T. ) ;
#65 = AXIS2_PLACEMENT_3D ( 'NONE', #14, #231, #240 ) ;
#66 = ORIENTED_EDGE ( 'NONE', *, *, #172, .F. ) ;
#67 = APPROVAL_STATUS ( 'not_yet_approved' ) ;
#68 = DIRECTION ( 'NONE',  ( -0.000000000000000000, -0.000000000000000000, -1.000000000000000000 ) ) ;
#69 = CARTESIAN_POINT ( 'NONE',  ( 11.00000000000000000, 1.347111479062088405E-15, 7.000000000000000000 ) ) ;
#70 = ORIENTED_EDGE ( 'NONE', *, *, #118, .T. ) ;
#71 = DIRECTION ( 'NONE',  ( 1.000000000000000000, 0.000000000000000000, 0.000000000000000000 ) ) ;
#72 = EDGE_LOOP ( 'NONE', ( #285, #110, #70, #27 ) ) ;
#73 = LINE ( 'NONE', #54, #154 ) ;
#74 = EDGE_LOOP ( 'NONE', ( #18, #167 ) ) ;
#75 = PERSON_AND_ORGANIZATION_ROLE ( 'design_supplier' ) ;
#76 = APPROVAL ( #67, 'NEURÈENÝ' ) ;
#77 = CARTESIAN_POINT ( 'NONE',  ( 0.000000000000000000, 0.000000000000000000, 7.200000000000011724 ) ) ;
#78 = APPROVAL_PERSON_ORGANIZATION ( #43, #291, #109 ) ;
#79 = DIRECTION ( 'NONE',  ( 1.000000000000000000, 0.000000000000000000, -0.000000000000000000 ) ) ;
#80 = PERSON_AND_ORGANIZATION ( #307, #269 ) ;
#81 = CYLINDRICAL_SURFACE ( 'NONE', #204, 8.000000000000000000 ) ;
#82 = AXIS2_PLACEMENT_3D ( 'NONE', #292, #61, #160 ) ;
#83 = CARTESIAN_POINT ( 'NONE',  ( 0.000000000000000000, 0.000000000000000000, 257.0000000000000000 ) ) ;
#84 = EDGE_CURVE ( 'NONE', #209, #101, #217, .T. ) ;
#85 = FACE_OUTER_BOUND ( 'NONE', #74, .T. ) ;
#86 = CC_DESIGN_SECURITY_CLASSIFICATION ( #184, ( #113 ) ) ;
#87 = EDGE_CURVE ( 'NONE', #234, #305, #287, .T. ) ;
#88 = PERSON_AND_ORGANIZATION_ROLE ( 'creator' ) ;
#89 = VERTEX_POINT ( 'NONE', #153 ) ;
#90 = AXIS2_PLACEMENT_3D ( 'NONE', #83, #7, #53 ) ;
#91 = LINE ( 'NONE', #272, #105 ) ;
#92 = ORIENTED_EDGE ( 'NONE', *, *, #87, .T. ) ;
#93 = DATE_AND_TIME ( #142, #304 ) ;
#94 = EDGE_CURVE ( 'NONE', #254, #199, #260, .T. ) ;
#95 = ORIENTED_EDGE ( 'NONE', *, *, #84, .F. ) ;
#96 = CALENDAR_DATE ( 2022, 20, 6 ) ;
#97 = ORIENTED_EDGE ( 'NONE', *, *, #10, .T. ) ;
#98 =( GEOMETRIC_REPRESENTATION_CONTEXT ( 3 ) GLOBAL_UNCERTAINTY_ASSIGNED_CONTEXT ( ( #268 ) ) GLOBAL_UNIT_ASSIGNED_CONTEXT ( ( #275, #45, #194 ) ) REPRESENTATION_CONTEXT ( 'NONE', 'WORKASPACE' ) );
#99 = AXIS2_PLACEMENT_3D ( 'NONE', #150, #9, #219 ) ;
#100 = DIRECTION ( 'NONE',  ( -0.000000000000000000, -0.000000000000000000, -1.000000000000000000 ) ) ;
#101 = VERTEX_POINT ( 'NONE', #203 ) ;
#102 = CC_DESIGN_PERSON_AND_ORGANIZATION_ASSIGNMENT ( #233, #251, ( #270 ) ) ;
#103 = FACE_OUTER_BOUND ( 'NONE', #72, .T. ) ;
#104 = CARTESIAN_POINT ( 'NONE',  ( 0.000000000000000000, 0.000000000000000000, 7.000000000000000000 ) ) ;
#105 = VECTOR ( 'NONE', #213, 1000.000000000000000 ) ;
#106 = AXIS2_PLACEMENT_3D ( 'NONE', #129, #3, #224 ) ;
#107 = ADVANCED_FACE ( 'NONE', ( #33 ), #128, .T. ) ;
#108 = CIRCLE ( 'NONE', #38, 8.000000000000000000 ) ;
#109 = APPROVAL_ROLE ( '' ) ;
#110 = ORIENTED_EDGE ( 'NONE', *, *, #156, .F. ) ;
#111 = APPROVAL_STATUS ( 'not_yet_approved' ) ;
#112 = ORIENTED_EDGE ( 'NONE', *, *, #302, .F. ) ;
#113 = PRODUCT_DEFINITION_FORMATION_WITH_SPECIFIED_SOURCE ( 'LIBOVOLNÝ', '', #270, .NOT_KNOWN. ) ;
#114 = CARTESIAN_POINT ( 'NONE',  ( 0.000000000000000000, 0.000000000000000000, 7.000000000000000000 ) ) ;
#115 = EDGE_LOOP ( 'NONE', ( #174, #216 ) ) ;
#116 = DIRECTION ( 'NONE',  ( 1.000000000000000000, 0.000000000000000000, 0.000000000000000000 ) ) ;
#117 = VERTEX_POINT ( 'NONE', #162 ) ;
#118 = EDGE_CURVE ( 'NONE', #300, #89, #55, .T. ) ;
#119 = EDGE_LOOP ( 'NONE', ( #169, #149, #140, #138 ) ) ;
#120 = APPROVAL_PERSON_ORGANIZATION ( #4, #122, #31 ) ;
#121 = DIRECTION ( 'NONE',  ( -0.000000000000000000, -0.000000000000000000, -1.000000000000000000 ) ) ;
#122 = APPROVAL ( #244, 'NEURÈENÝ' ) ;
#123 = DIRECTION ( 'NONE',  ( 0.000000000000000000, 0.000000000000000000, 1.000000000000000000 ) ) ;
#124 = COORDINATED_UNIVERSAL_TIME_OFFSET ( 1, 0, .AHEAD. ) ;
#125 = FACE_OUTER_BOUND ( 'NONE', #146, .T. ) ;
#126 = COORDINATED_UNIVERSAL_TIME_OFFSET ( 1, 0, .AHEAD. ) ;
#127 = AXIS2_PLACEMENT_3D ( 'NONE', #180, #181, #185 ) ;
#128 = CYLINDRICAL_SURFACE ( 'NONE', #161, 11.00000000000000000 ) ;
#129 = CARTESIAN_POINT ( 'NONE',  ( 0.000000000000000000, 0.000000000000000000, 0.000000000000000000 ) ) ;
#130 = ADVANCED_FACE ( 'NONE', ( #125 ), #196, .F. ) ;
#131 = CLOSED_SHELL ( 'NONE', ( #130, #222, #148, #107, #64, #59, #192, #230, #178 ) ) ;
#132 = AXIS2_PLACEMENT_3D ( 'NONE', #5, #121, #246 ) ;
#133 = FACE_OUTER_BOUND ( 'NONE', #46, .T. ) ;
#134 = EDGE_CURVE ( 'NONE', #259, #305, #73, .T. ) ;
#135 = CARTESIAN_POINT ( 'NONE',  ( 0.000000000000000000, 0.000000000000000000, 7.000000000000000000 ) ) ;
#136 = CC_DESIGN_APPROVAL ( #76, ( #113 ) ) ;
#137 = PERSON_AND_ORGANIZATION ( #307, #269 ) ;
#138 = ORIENTED_EDGE ( 'NONE', *, *, #276, .T. ) ;
#139 = DATE_AND_TIME ( #96, #211 ) ;
#140 = ORIENTED_EDGE ( 'NONE', *, *, #297, .T. ) ;
#141 = EDGE_CURVE ( 'NONE', #101, #209, #202, .T. ) ;
#142 = CALENDAR_DATE ( 2022, 20, 6 ) ;
#143 = ORIENTED_EDGE ( 'NONE', *, *, #276, .F. ) ;
#144 = LOCAL_TIME ( 11, 24, 9.000000000000000000, #20 ) ;
#145 = CALENDAR_DATE ( 2022, 20, 6 ) ;
#146 = EDGE_LOOP ( 'NONE', ( #143, #303, #66, #299 ) ) ;
#147 = APPROVAL_DATE_TIME ( #8, #122 ) ;
#148 = ADVANCED_FACE ( 'NONE', ( #177 ), #263, .T. ) ;
#149 = ORIENTED_EDGE ( 'NONE', *, *, #141, .F. ) ;
#150 = CARTESIAN_POINT ( 'NONE',  ( -8.200000000000001066, 1.004210375300829674E-15, 7.200000000000011724 ) ) ;
#151 = TOROIDAL_SURFACE ( 'NONE', #127, 8.200000000000001066, 0.2000000000000000111 ) ;
#152 = DATE_TIME_ROLE ( 'classification_date' ) ;
#153 = CARTESIAN_POINT ( 'NONE',  ( 8.200000000000001066, 0.000000000000000000, 7.000000000000006217 ) ) ;
#154 = VECTOR ( 'NONE', #57, 1000.000000000000000 ) ;
#155 = FACE_BOUND ( 'NONE', #52, .T. ) ;
#156 = EDGE_CURVE ( 'NONE', #300, #254, #108, .T. ) ;
#157 = CARTESIAN_POINT ( 'NONE',  ( 0.000000000000000000, 0.000000000000000000, 257.0000000000000000 ) ) ;
#158 = DESIGN_CONTEXT ( 'detailed design', #36, 'design' ) ;
#159 = DIRECTION ( 'NONE',  ( -0.000000000000000000, -0.000000000000000000, -1.000000000000000000 ) ) ;
#160 = DIRECTION ( 'NONE',  ( 1.000000000000000000, 0.000000000000000000, 0.000000000000000000 ) ) ;
#161 = AXIS2_PLACEMENT_3D ( 'NONE', #104, #56, #205 ) ;
#162 = CARTESIAN_POINT ( 'NONE',  ( -11.00000000000000000, 0.000000000000000000, 7.000000000000000000 ) ) ;
#163 = DIRECTION ( 'NONE',  ( 0.000000000000000000, 0.000000000000000000, 1.000000000000000000 ) ) ;
#164 = APPLICATION_PROTOCOL_DEFINITION ( 'international standard', 'config_control_design', 1994, #23 ) ;
#165 = CIRCLE ( 'NONE', #82, 11.00000000000000000 ) ;
#166 = DIRECTION ( 'NONE',  ( 0.000000000000000000, 0.000000000000000000, 1.000000000000000000 ) ) ;
#167 = ORIENTED_EDGE ( 'NONE', *, *, #84, .T. ) ;
#168 = COORDINATED_UNIVERSAL_TIME_OFFSET ( 1, 0, .AHEAD. ) ;
#169 = ORIENTED_EDGE ( 'NONE', *, *, #10, .F. ) ;
#170 = DIRECTION ( 'NONE',  ( 0.000000000000000000, 0.000000000000000000, 1.000000000000000000 ) ) ;
#171 = ORIENTED_EDGE ( 'NONE', *, *, #201, .F. ) ;
#172 = EDGE_CURVE ( 'NONE', #89, #199, #273, .T. ) ;
#173 = ORIENTED_EDGE ( 'NONE', *, *, #134, .T. ) ;
#174 = ORIENTED_EDGE ( 'NONE', *, *, #283, .T. ) ;
#175 = CALENDAR_DATE ( 2022, 20, 6 ) ;
#176 = DIRECTION ( 'NONE',  ( 1.000000000000000000, 0.000000000000000000, 0.000000000000000000 ) ) ;
#177 = FACE_OUTER_BOUND ( 'NONE', #22, .T. ) ;
#178 = ADVANCED_FACE ( 'NONE', ( #103 ), #151, .F. ) ;
#179 = AXIS2_PLACEMENT_3D ( 'NONE', #294, #208, #71 ) ;
#180 = CARTESIAN_POINT ( 'NONE',  ( 0.000000000000000000, 0.000000000000000000, 7.200000000000011724 ) ) ;
#181 = DIRECTION ( 'NONE',  ( 0.000000000000000000, 0.000000000000000000, 1.000000000000000000 ) ) ;
#182 = PLANE ( 'NONE',  #293 ) ;
#183 = VECTOR ( 'NONE', #68, 1000.000000000000000 ) ;
#184 = SECURITY_CLASSIFICATION ( '', '', #200 ) ;
#185 = DIRECTION ( 'NONE',  ( 1.000000000000000000, 0.000000000000000000, 0.000000000000000000 ) ) ;
#186 = CC_DESIGN_DATE_AND_TIME_ASSIGNMENT ( #210, #298, ( #44 ) ) ;
#187 = AXIS2_PLACEMENT_3D ( 'NONE', #77, #28, #176 ) ;
#188 = LINE ( 'NONE', #277, #183 ) ;
#189 = PERSON_AND_ORGANIZATION ( #307, #269 ) ;
#190 = LINE ( 'NONE', #296, #6 ) ;
#191 = APPROVAL_DATE_TIME ( #139, #291 ) ;
#192 = ADVANCED_FACE ( 'NONE', ( #62 ), #81, .T. ) ;
#193 = ORIENTED_EDGE ( 'NONE', *, *, #297, .F. ) ;
#194 =( NAMED_UNIT ( * ) SI_UNIT ( $, .STERADIAN. ) SOLID_ANGLE_UNIT ( ) );
#195 = ORIENTED_EDGE ( 'NONE', *, *, #134, .F. ) ;
#196 = TOROIDAL_SURFACE ( 'NONE', #187, 8.200000000000001066, 0.2000000000000000111 ) ;
#197 = PERSON_AND_ORGANIZATION ( #307, #269 ) ;
#198 = DIRECTION ( 'NONE',  ( 1.000000000000000000, 0.000000000000000000, 0.000000000000000000 ) ) ;
#199 = VERTEX_POINT ( 'NONE', #11 ) ;
#200 = SECURITY_CLASSIFICATION_LEVEL ( 'unclassified' ) ;
#201 = EDGE_CURVE ( 'NONE', #305, #234, #165, .T. ) ;
#202 = CIRCLE ( 'NONE', #42, 8.000000000000000000 ) ;
#203 = CARTESIAN_POINT ( 'NONE',  ( -8.000000000000000000, 0.000000000000000000, 257.0000000000000000 ) ) ;
#204 = AXIS2_PLACEMENT_3D ( 'NONE', #266, #159, #267 ) ;
#205 = DIRECTION ( 'NONE',  ( -1.000000000000000000, 0.000000000000000000, 0.000000000000000000 ) ) ;
#206 = DIRECTION ( 'NONE',  ( -1.000000000000000000, 0.000000000000000000, 0.000000000000000000 ) ) ;
#207 = COORDINATED_UNIVERSAL_TIME_OFFSET ( 1, 0, .AHEAD. ) ;
#208 = DIRECTION ( 'NONE',  ( 0.000000000000000000, 0.000000000000000000, 1.000000000000000000 ) ) ;
#209 = VERTEX_POINT ( 'NONE', #39 ) ;
#210 = DATE_AND_TIME ( #145, #144 ) ;
#211 = LOCAL_TIME ( 11, 24, 9.000000000000000000, #207 ) ;
#212 = ORIENTED_EDGE ( 'NONE', *, *, #201, .T. ) ;
#213 = DIRECTION ( 'NONE',  ( -0.000000000000000000, -0.000000000000000000, -1.000000000000000000 ) ) ;
#214 = ORIENTED_EDGE ( 'NONE', *, *, #172, .T. ) ;
#215 = ADVANCED_BREP_SHAPE_REPRESENTATION ( '9873', ( #40, #242 ), #98 ) ;
#216 = ORIENTED_EDGE ( 'NONE', *, *, #302, .T. ) ;
#217 = CIRCLE ( 'NONE', #90, 8.000000000000000000 ) ;
#218 = CARTESIAN_POINT ( 'NONE',  ( 0.000000000000000000, 0.000000000000000000, 7.200000000000011724 ) ) ;
#219 = DIRECTION ( 'NONE',  ( -1.000000000000000000, 1.224646799147353207E-16, 0.000000000000000000 ) ) ;
#220 = CC_DESIGN_APPROVAL ( #122, ( #184 ) ) ;
#221 = CALENDAR_DATE ( 2022, 20, 6 ) ;
#222 = ADVANCED_FACE ( 'NONE', ( #133 ), #226, .T. ) ;
#223 = CARTESIAN_POINT ( 'NONE',  ( 0.000000000000000000, 0.000000000000000000, 7.000000000000000000 ) ) ;
#224 = DIRECTION ( 'NONE',  ( 1.000000000000000000, 0.000000000000000000, 0.000000000000000000 ) ) ;
#225 = AXIS2_PLACEMENT_3D ( 'NONE', #114, #170, #116 ) ;
#226 = CYLINDRICAL_SURFACE ( 'NONE', #235, 8.000000000000000000 ) ;
#227 = PRODUCT_DEFINITION_SHAPE ( 'NONE', 'NONE',  #44 ) ;
#228 = DIRECTION ( 'NONE',  ( -0.000000000000000000, -0.000000000000000000, -1.000000000000000000 ) ) ;
#229 = AXIS2_PLACEMENT_3D ( 'NONE', #135, #228, #24 ) ;
#230 = ADVANCED_FACE ( 'NONE', ( #85 ), #182, .T. ) ;
#231 = DIRECTION ( 'NONE',  ( 0.000000000000000000, -1.000000000000000000, 0.000000000000000000 ) ) ;
#232 = ORIENTED_EDGE ( 'NONE', *, *, #156, .T. ) ;
#233 = PERSON_AND_ORGANIZATION ( #307, #269 ) ;
#234 = VERTEX_POINT ( 'NONE', #41 ) ;
#235 = AXIS2_PLACEMENT_3D ( 'NONE', #157, #37, #206 ) ;
#236 = ORIENTED_EDGE ( 'NONE', *, *, #34, .T. ) ;
#237 = APPROVAL_ROLE ( '' ) ;
#238 = PLANE ( 'NONE',  #49 ) ;
#239 = ORIENTED_EDGE ( 'NONE', *, *, #87, .F. ) ;
#240 = DIRECTION ( 'NONE',  ( 0.000000000000000000, 0.000000000000000000, -1.000000000000000000 ) ) ;
#241 = CC_DESIGN_PERSON_AND_ORGANIZATION_ASSIGNMENT ( #137, #88, ( #44 ) ) ;
#242 = AXIS2_PLACEMENT_3D ( 'NONE', #280, #166, #16 ) ;
#243 = PERSON_AND_ORGANIZATION_ROLE ( 'classification_officer' ) ;
#244 = APPROVAL_STATUS ( 'not_yet_approved' ) ;
#245 = CIRCLE ( 'NONE', #179, 8.000000000000000000 ) ;
#246 = DIRECTION ( 'NONE',  ( -1.000000000000000000, 0.000000000000000000, 0.000000000000000000 ) ) ;
#247 = FACE_OUTER_BOUND ( 'NONE', #115, .T. ) ;
#248 = EDGE_CURVE ( 'NONE', #199, #89, #13, .T. ) ;
#249 = CC_DESIGN_APPROVAL ( #291, ( #44 ) ) ;
#250 = DIRECTION ( 'NONE',  ( 1.000000000000000000, 0.000000000000000000, -0.000000000000000000 ) ) ;
#251 = PERSON_AND_ORGANIZATION_ROLE ( 'design_owner' ) ;
#252 = AXIS2_PLACEMENT_3D ( 'NONE', #58, #264, #29 ) ;
#253 = MECHANICAL_CONTEXT ( 'NONE', #23, 'mechanical' ) ;
#254 = VERTEX_POINT ( 'NONE', #255 ) ;
#255 = CARTESIAN_POINT ( 'NONE',  ( -8.000000000000000000, 0.000000000000000000, 7.200000000000011724 ) ) ;
#256 = ORIENTED_EDGE ( 'NONE', *, *, #283, .F. ) ;
#257 = AXIS2_PLACEMENT_3D ( 'NONE', #223, #100, #198 ) ;
#258 = DIRECTION ( 'NONE',  ( 1.000000000000000000, 0.000000000000000000, 0.000000000000000000 ) ) ;
#259 = VERTEX_POINT ( 'NONE', #69 ) ;
#260 = CIRCLE ( 'NONE', #99, 0.2000000000000005107 ) ;
#261 = DATE_AND_TIME ( #175, #50 ) ;
#262 = PLANE ( 'NONE',  #252 ) ;
#263 = CYLINDRICAL_SURFACE ( 'NONE', #132, 11.00000000000000000 ) ;
#264 = DIRECTION ( 'NONE',  ( 0.000000000000000000, 0.000000000000000000, 1.000000000000000000 ) ) ;
#265 = APPROVAL_PERSON_ORGANIZATION ( #189, #76, #237 ) ;
#266 = CARTESIAN_POINT ( 'NONE',  ( 0.000000000000000000, 0.000000000000000000, 257.0000000000000000 ) ) ;
#267 = DIRECTION ( 'NONE',  ( -1.000000000000000000, 0.000000000000000000, 0.000000000000000000 ) ) ;
#268 = UNCERTAINTY_MEASURE_WITH_UNIT (LENGTH_MEASURE( 1.000000000000000082E-05 ), #275, 'distance_accuracy_value', 'NONE');
#269 = ORGANIZATION ( 'NEURÈENÝ', 'NEURÈENÝ', '' ) ;
#270 = PRODUCT ( '9873', '9873', '', ( #253 ) ) ;
#271 = DIRECTION ( 'NONE',  ( 0.000000000000000000, 0.000000000000000000, 1.000000000000000000 ) ) ;
#272 = CARTESIAN_POINT ( 'NONE',  ( -8.000000000000000000, 0.000000000000000000, 257.0000000000000000 ) ) ;
#273 = CIRCLE ( 'NONE', #257, 8.200000000000001066 ) ;
#274 = DIRECTION ( 'NONE',  ( -0.000000000000000000, -0.000000000000000000, -1.000000000000000000 ) ) ;
#275 =( LENGTH_UNIT ( ) NAMED_UNIT ( * ) SI_UNIT ( .MILLI., .METRE. ) );
#276 = EDGE_CURVE ( 'NONE', #254, #300, #245, .T. ) ;
#277 = CARTESIAN_POINT ( 'NONE',  ( -11.00000000000000000, 0.000000000000000000, 7.000000000000000000 ) ) ;
#278 = APPROVAL_DATE_TIME ( #93, #76 ) ;
#279 = ORIENTED_EDGE ( 'NONE', *, *, #34, .F. ) ;
#280 = CARTESIAN_POINT ( 'NONE',  ( 0.000000000000000000, 0.000000000000000000, 0.000000000000000000 ) ) ;
#281 = CIRCLE ( 'NONE', #225, 11.00000000000000000 ) ;
#282 = EDGE_LOOP ( 'NONE', ( #195, #256, #236, #92 ) ) ;
#283 = EDGE_CURVE ( 'NONE', #117, #259, #281, .T. ) ;
#284 = DIRECTION ( 'NONE',  ( 1.000000000000000000, 0.000000000000000000, 0.000000000000000000 ) ) ;
#285 = ORIENTED_EDGE ( 'NONE', *, *, #94, .F. ) ;
#286 = PERSON_AND_ORGANIZATION_ROLE ( 'creator' ) ;
#287 = CIRCLE ( 'NONE', #106, 11.00000000000000000 ) ;
#288 = DIRECTION ( 'NONE',  ( 0.000000000000000000, 0.000000000000000000, 1.000000000000000000 ) ) ;
#289 = CC_DESIGN_PERSON_AND_ORGANIZATION_ASSIGNMENT ( #80, #243, ( #184 ) ) ;
#290 = LOCAL_TIME ( 11, 24, 9.000000000000000000, #126 ) ;
#291 = APPROVAL ( #111, 'NEURÈENÝ' ) ;
#292 = CARTESIAN_POINT ( 'NONE',  ( 0.000000000000000000, 0.000000000000000000, 0.000000000000000000 ) ) ;
#293 = AXIS2_PLACEMENT_3D ( 'NONE', #63, #163, #250 ) ;
#294 = CARTESIAN_POINT ( 'NONE',  ( 0.000000000000000000, 0.000000000000000000, 7.200000000000011724 ) ) ;
#295 = CARTESIAN_POINT ( 'NONE',  ( 8.000000000000000000, 9.797174393178825657E-16, 7.200000000000011724 ) ) ;
#296 = CARTESIAN_POINT ( 'NONE',  ( 8.000000000000000000, 9.797174393178825657E-16, 257.0000000000000000 ) ) ;
#297 = EDGE_CURVE ( 'NONE', #101, #254, #91, .T. ) ;
#298 = DATE_TIME_ROLE ( 'creation_date' ) ;
#299 = ORIENTED_EDGE ( 'NONE', *, *, #118, .F. ) ;
#300 = VERTEX_POINT ( 'NONE', #295 ) ;
#301 = CARTESIAN_POINT ( 'NONE',  ( 11.00000000000000000, 1.347111479062088405E-15, 0.000000000000000000 ) ) ;
#302 = EDGE_CURVE ( 'NONE', #259, #117, #60, .T. ) ;
#303 = ORIENTED_EDGE ( 'NONE', *, *, #94, .T. ) ;
#304 = LOCAL_TIME ( 11, 24, 9.000000000000000000, #168 ) ;
#305 = VERTEX_POINT ( 'NONE', #301 ) ;
#306 = PRODUCT_RELATED_PRODUCT_CATEGORY ( 'detail', '', ( #270 ) ) ;
#307 = PERSON ( 'NEURÈENÝ', 'NEURÈENÝ', 'NEURÈENÝ', ('NEURÈENÝ'), ('NEURÈENÝ'), ('NEURÈENÝ') ) ;
ENDSEC;
END-ISO-10303-21;
