ISO-10303-21;
HEADER;
FILE_DESCRIPTION (( 'STEP AP203' ),
    '1' );
FILE_NAME ('a925.STEP',
    '2022-06-20T09:25:35',
    ( '' ),
    ( '' ),
    'SwSTEP 2.0',
    'SolidWorks 2019',
    '' );
FILE_SCHEMA (( 'CONFIG_CONTROL_DESIGN' ));
ENDSEC;

DATA;
#1 = FACE_OUTER_BOUND ( 'NONE', #249, .T. ) ;
#2 = APPROVAL_PERSON_ORGANIZATION ( #57, #305, #253 ) ;
#3 = EDGE_CURVE ( 'NONE', #221, #200, #137, .T. ) ;
#4 = DIRECTION ( 'NONE',  ( 1.000000000000000000, 0.000000000000000000, 0.000000000000000000 ) ) ;
#5 = CARTESIAN_POINT ( 'NONE',  ( 0.000000000000000000, 0.000000000000000000, 7.199999999999984190 ) ) ;
#6 = AXIS2_PLACEMENT_3D ( 'NONE', #164, #48, #103 ) ;
#7 = PERSON_AND_ORGANIZATION_ROLE ( 'design_owner' ) ;
#8 = CARTESIAN_POINT ( 'NONE',  ( 0.000000000000000000, 0.000000000000000000, 7.199999999999984190 ) ) ;
#9 = COORDINATED_UNIVERSAL_TIME_OFFSET ( 1, 0, .AHEAD. ) ;
#10 = VERTEX_POINT ( 'NONE', #35 ) ;
#11 = CIRCLE ( 'NONE', #182, 7.000000000000000888 ) ;
#12 = APPROVAL_ROLE ( '' ) ;
#13 = ORIENTED_EDGE ( 'NONE', *, *, #102, .F. ) ;
#14 = APPROVAL_DATE_TIME ( #222, #305 ) ;
#15 = VERTEX_POINT ( 'NONE', #281 ) ;
#16 = VECTOR ( 'NONE', #65, 1000.000000000000000 ) ;
#17 = ORIENTED_EDGE ( 'NONE', *, *, #173, .T. ) ;
#18 = CARTESIAN_POINT ( 'NONE',  ( 0.000000000000000000, 0.000000000000000000, 7.199999999999984190 ) ) ;
#19 = MANIFOLD_SOLID_BREP ( 'Zaoblit1', #127 ) ;
#20 = DIRECTION ( 'NONE',  ( -1.000000000000000000, 0.000000000000000000, 0.000000000000000000 ) ) ;
#21 = DIRECTION ( 'NONE',  ( 0.000000000000000000, 0.000000000000000000, 1.000000000000000000 ) ) ;
#22 = CYLINDRICAL_SURFACE ( 'NONE', #199, 7.000000000000000888 ) ;
#23 = ADVANCED_FACE ( 'NONE', ( #157 ), #39, .T. ) ;
#24 = CARTESIAN_POINT ( 'NONE',  ( 0.000000000000000000, 0.000000000000000000, 7.000000000000000000 ) ) ;
#25 = DIRECTION ( 'NONE',  ( -1.000000000000000000, 0.000000000000000000, 0.000000000000000000 ) ) ;
#26 = CIRCLE ( 'NONE', #191, 11.00000000000000000 ) ;
#27 = PRODUCT_DEFINITION_FORMATION_WITH_SPECIFIED_SOURCE ( 'LIBOVOLNÝ', '', #239, .NOT_KNOWN. ) ;
#28 = FACE_OUTER_BOUND ( 'NONE', #251, .T. ) ;
#29 = CALENDAR_DATE ( 2022, 20, 6 ) ;
#30 = CC_DESIGN_DATE_AND_TIME_ASSIGNMENT ( #169, #155, ( #181 ) ) ;
#31 = DESIGN_CONTEXT ( 'detailed design', #60, 'design' ) ;
#32 = ORIENTED_EDGE ( 'NONE', *, *, #3, .T. ) ;
#33 = AXIS2_PLACEMENT_3D ( 'NONE', #279, #21, #95 ) ;
#34 = COORDINATED_UNIVERSAL_TIME_OFFSET ( 1, 0, .AHEAD. ) ;
#35 = CARTESIAN_POINT ( 'NONE',  ( 11.00000000000000000, 1.347111479062088405E-15, 7.000000000000000000 ) ) ;
#36 = ORIENTED_EDGE ( 'NONE', *, *, #162, .F. ) ;
#37 = ORIENTED_EDGE ( 'NONE', *, *, #3, .F. ) ;
#38 = AXIS2_PLACEMENT_3D ( 'NONE', #270, #55, #151 ) ;
#39 = PLANE ( 'NONE',  #303 ) ;
#40 = CARTESIAN_POINT ( 'NONE',  ( 0.000000000000000000, 0.000000000000000000, 0.000000000000000000 ) ) ;
#41 = EDGE_CURVE ( 'NONE', #15, #156, #190, .T. ) ;
#42 = DIRECTION ( 'NONE',  ( 1.000000000000000000, 0.000000000000000000, -0.000000000000000000 ) ) ;
#43 = AXIS2_PLACEMENT_3D ( 'NONE', #70, #234, #25 ) ;
#44 = CARTESIAN_POINT ( 'NONE',  ( 7.000000000000000888, 8.572527594031474176E-16, 807.0000000000000000 ) ) ;
#45 = CC_DESIGN_PERSON_AND_ORGANIZATION_ASSIGNMENT ( #108, #198, ( #27 ) ) ;
#46 = DIRECTION ( 'NONE',  ( 0.000000000000000000, 0.000000000000000000, 1.000000000000000000 ) ) ;
#47 = CARTESIAN_POINT ( 'NONE',  ( 11.00000000000000000, 1.347111479062088405E-15, 7.000000000000000000 ) ) ;
#48 = DIRECTION ( 'NONE',  ( -0.000000000000000000, -0.000000000000000000, -1.000000000000000000 ) ) ;
#49 = ADVANCED_FACE ( 'NONE', ( #139 ), #22, .T. ) ;
#50 = CARTESIAN_POINT ( 'NONE',  ( 0.000000000000000000, 0.000000000000000000, 0.000000000000000000 ) ) ;
#51 = CARTESIAN_POINT ( 'NONE',  ( -7.000000000000000888, 0.000000000000000000, 807.0000000000000000 ) ) ;
#52 = SECURITY_CLASSIFICATION ( '', '', #244 ) ;
#53 = CALENDAR_DATE ( 2022, 20, 6 ) ;
#54 = EDGE_LOOP ( 'NONE', ( #32, #109 ) ) ;
#55 = DIRECTION ( 'NONE',  ( 0.000000000000000000, 0.000000000000000000, 1.000000000000000000 ) ) ;
#56 = ADVANCED_FACE ( 'NONE', ( #1 ), #134, .T. ) ;
#57 = PERSON_AND_ORGANIZATION ( #100, #183 ) ;
#58 = EDGE_LOOP ( 'NONE', ( #59, #223, #126, #272 ) ) ;
#59 = ORIENTED_EDGE ( 'NONE', *, *, #220, .F. ) ;
#60 = APPLICATION_CONTEXT ( 'configuration controlled 3d designs of mechanical parts and assemblies' ) ;
#61 = TOROIDAL_SURFACE ( 'NONE', #141, 7.200000000000001066, 0.2000000000000000111 ) ;
#62 = PERSON_AND_ORGANIZATION ( #100, #183 ) ;
#63 = ADVANCED_FACE ( 'NONE', ( #113 ), #69, .T. ) ;
#64 = CARTESIAN_POINT ( 'NONE',  ( 0.000000000000000000, 0.000000000000000000, 0.000000000000000000 ) ) ;
#65 = DIRECTION ( 'NONE',  ( -0.000000000000000000, -0.000000000000000000, -1.000000000000000000 ) ) ;
#66 = APPLICATION_CONTEXT ( 'configuration controlled 3d designs of mechanical parts and assemblies' ) ;
#67 = DIRECTION ( 'NONE',  ( 1.000000000000000000, 0.000000000000000000, -0.000000000000000000 ) ) ;
#68 = AXIS2_PLACEMENT_3D ( 'NONE', #161, #228, #89 ) ;
#69 = CYLINDRICAL_SURFACE ( 'NONE', #285, 11.00000000000000000 ) ;
#70 = CARTESIAN_POINT ( 'NONE',  ( 0.000000000000000000, 0.000000000000000000, 7.000000000000000000 ) ) ;
#71 = FACE_OUTER_BOUND ( 'NONE', #201, .T. ) ;
#72 = AXIS2_PLACEMENT_3D ( 'NONE', #40, #232, #304 ) ;
#73 = APPROVAL ( #80, 'NEURÈENÝ' ) ;
#74 = DIRECTION ( 'NONE',  ( 1.000000000000000000, 0.000000000000000000, 0.000000000000000000 ) ) ;
#75 = LOCAL_TIME ( 11, 25, 35.00000000000000000, #121 ) ;
#76 = CIRCLE ( 'NONE', #6, 7.200000000000001066 ) ;
#77 = AXIS2_PLACEMENT_3D ( 'NONE', #50, #143, #74 ) ;
#78 = PERSON_AND_ORGANIZATION ( #100, #183 ) ;
#79 = ORIENTED_EDGE ( 'NONE', *, *, #41, .F. ) ;
#80 = APPROVAL_STATUS ( 'not_yet_approved' ) ;
#81 = EDGE_CURVE ( 'NONE', #219, #254, #110, .T. ) ;
#82 = PERSON_AND_ORGANIZATION_ROLE ( 'creator' ) ;
#83 = ORIENTED_EDGE ( 'NONE', *, *, #129, .T. ) ;
#84 = DATE_AND_TIME ( #88, #75 ) ;
#85 = APPROVAL_DATE_TIME ( #248, #73 ) ;
#86 = ORIENTED_EDGE ( 'NONE', *, *, #206, .T. ) ;
#87 = ORIENTED_EDGE ( 'NONE', *, *, #166, .T. ) ;
#88 = CALENDAR_DATE ( 2022, 20, 6 ) ;
#89 = DIRECTION ( 'NONE',  ( 1.000000000000000000, 0.000000000000000000, 0.000000000000000000 ) ) ;
#90 = CARTESIAN_POINT ( 'NONE',  ( -11.00000000000000000, 0.000000000000000000, 7.000000000000000000 ) ) ;
#91 = ADVANCED_FACE ( 'NONE', ( #175 ), #61, .F. ) ;
#92 = DIRECTION ( 'NONE',  ( -0.000000000000000000, -0.000000000000000000, -1.000000000000000000 ) ) ;
#93 = DIRECTION ( 'NONE',  ( 1.000000000000000000, 0.000000000000000000, 0.000000000000000000 ) ) ;
#94 = AXIS2_PLACEMENT_3D ( 'NONE', #233, #207, #178 ) ;
#95 = DIRECTION ( 'NONE',  ( 1.000000000000000000, 0.000000000000000000, 0.000000000000000000 ) ) ;
#96 = APPROVAL_ROLE ( '' ) ;
#97 = FACE_BOUND ( 'NONE', #245, .T. ) ;
#98 = EDGE_CURVE ( 'NONE', #15, #295, #267, .T. ) ;
#99 = DIRECTION ( 'NONE',  ( 0.000000000000000000, 0.000000000000000000, 1.000000000000000000 ) ) ;
#100 = PERSON ( 'NEURÈENÝ', 'NEURÈENÝ', 'NEURÈENÝ', ('NEURÈENÝ'), ('NEURÈENÝ'), ('NEURÈENÝ') ) ;
#101 = CARTESIAN_POINT ( 'NONE',  ( -11.00000000000000000, 0.000000000000000000, 0.000000000000000000 ) ) ;
#102 = EDGE_CURVE ( 'NONE', #170, #219, #208, .T. ) ;
#103 = DIRECTION ( 'NONE',  ( 1.000000000000000000, 0.000000000000000000, 0.000000000000000000 ) ) ;
#104 = CALENDAR_DATE ( 2022, 20, 6 ) ;
#105 = ORIENTED_EDGE ( 'NONE', *, *, #173, .F. ) ;
#106 = APPROVAL ( #275, 'NEURÈENÝ' ) ;
#107 = ORIENTED_EDGE ( 'NONE', *, *, #196, .F. ) ;
#108 = PERSON_AND_ORGANIZATION ( #100, #183 ) ;
#109 = ORIENTED_EDGE ( 'NONE', *, *, #196, .T. ) ;
#110 = CIRCLE ( 'NONE', #68, 11.00000000000000000 ) ;
#111 = PRODUCT_RELATED_PRODUCT_CATEGORY ( 'detail', '', ( #239 ) ) ;
#112 = CARTESIAN_POINT ( 'NONE',  ( 0.000000000000000000, 0.000000000000000000, 7.199999999999984190 ) ) ;
#113 = FACE_OUTER_BOUND ( 'NONE', #58, .T. ) ;
#114 = VECTOR ( 'NONE', #266, 1000.000000000000000 ) ;
#115 = DIRECTION ( 'NONE',  ( 0.000000000000000000, 0.000000000000000000, -1.000000000000000000 ) ) ;
#116 = CARTESIAN_POINT ( 'NONE',  ( -7.000000000000000888, 0.000000000000000000, 807.0000000000000000 ) ) ;
#117 = DIRECTION ( 'NONE',  ( 1.000000000000000000, 0.000000000000000000, 0.000000000000000000 ) ) ;
#118 = AXIS2_PLACEMENT_3D ( 'NONE', #122, #99, #264 ) ;
#119 = DIRECTION ( 'NONE',  ( 0.000000000000000000, 0.000000000000000000, 1.000000000000000000 ) ) ;
#120 = CARTESIAN_POINT ( 'NONE',  ( 7.000000000000000888, 8.572527594031474176E-16, 7.199999999999984190 ) ) ;
#121 = COORDINATED_UNIVERSAL_TIME_OFFSET ( 1, 0, .AHEAD. ) ;
#122 = CARTESIAN_POINT ( 'NONE',  ( 0.000000000000000000, 0.000000000000000000, 7.000000000000000000 ) ) ;
#123 = CC_DESIGN_APPROVAL ( #73, ( #181 ) ) ;
#124 = PLANE ( 'NONE',  #118 ) ;
#125 = PERSON_AND_ORGANIZATION ( #100, #183 ) ;
#126 = ORIENTED_EDGE ( 'NONE', *, *, #102, .T. ) ;
#127 = CLOSED_SHELL ( 'NONE', ( #91, #56, #269, #63, #287, #154, #49, #23, #265 ) ) ;
#128 = ORIENTED_EDGE ( 'NONE', *, *, #98, .T. ) ;
#129 = EDGE_CURVE ( 'NONE', #10, #170, #229, .T. ) ;
#130 = ORIENTED_EDGE ( 'NONE', *, *, #226, .F. ) ;
#131 = ORIENTED_EDGE ( 'NONE', *, *, #166, .F. ) ;
#132 = EDGE_LOOP ( 'NONE', ( #195, #83 ) ) ;
#133 = VECTOR ( 'NONE', #165, 1000.000000000000000 ) ;
#134 = CYLINDRICAL_SURFACE ( 'NONE', #94, 7.000000000000000888 ) ;
#135 = CARTESIAN_POINT ( 'NONE',  ( 0.000000000000000000, 0.000000000000000000, 807.0000000000000000 ) ) ;
#136 = DIRECTION ( 'NONE',  ( 0.000000000000000000, -1.000000000000000000, 0.000000000000000000 ) ) ;
#137 = CIRCLE ( 'NONE', #38, 7.000000000000000888 ) ;
#138 = LINE ( 'NONE', #116, #114 ) ;
#139 = FACE_OUTER_BOUND ( 'NONE', #147, .T. ) ;
#140 = LINE ( 'NONE', #47, #133 ) ;
#141 = AXIS2_PLACEMENT_3D ( 'NONE', #18, #160, #93 ) ;
#142 = APPLICATION_PROTOCOL_DEFINITION ( 'international standard', 'config_control_design', 1994, #66 ) ;
#143 = DIRECTION ( 'NONE',  ( 0.000000000000000000, 0.000000000000000000, 1.000000000000000000 ) ) ;
#144 = AXIS2_PLACEMENT_3D ( 'NONE', #64, #258, #67 ) ;
#145 = CARTESIAN_POINT ( 'NONE',  ( 11.00000000000000000, 1.347111479062088405E-15, 0.000000000000000000 ) ) ;
#146 = PERSON_AND_ORGANIZATION_ROLE ( 'design_supplier' ) ;
#147 = EDGE_LOOP ( 'NONE', ( #36, #37, #86, #128 ) ) ;
#148 = VERTEX_POINT ( 'NONE', #184 ) ;
#149 = COORDINATED_UNIVERSAL_TIME_OFFSET ( 1, 0, .AHEAD. ) ;
#150 = AXIS2_PLACEMENT_3D ( 'NONE', #185, #243, #213 ) ;
#151 = DIRECTION ( 'NONE',  ( 1.000000000000000000, 0.000000000000000000, 0.000000000000000000 ) ) ;
#152 = APPROVAL_STATUS ( 'not_yet_approved' ) ;
#153 = ORIENTED_EDGE ( 'NONE', *, *, #81, .F. ) ;
#154 = ADVANCED_FACE ( 'NONE', ( #307 ), #259, .F. ) ;
#155 = DATE_TIME_ROLE ( 'creation_date' ) ;
#156 = VERTEX_POINT ( 'NONE', #203 ) ;
#157 = FACE_OUTER_BOUND ( 'NONE', #54, .T. ) ;
#158 = LINE ( 'NONE', #280, #16 ) ;
#159 = CARTESIAN_POINT ( 'NONE',  ( 7.200000000000001066, 0.000000000000000000, 7.199999999999984190 ) ) ;
#160 = DIRECTION ( 'NONE',  ( 0.000000000000000000, 0.000000000000000000, 1.000000000000000000 ) ) ;
#161 = CARTESIAN_POINT ( 'NONE',  ( 0.000000000000000000, 0.000000000000000000, 0.000000000000000000 ) ) ;
#162 = EDGE_CURVE ( 'NONE', #200, #295, #158, .T. ) ;
#163 = DIRECTION ( 'NONE',  ( 1.000000000000000000, 0.000000000000000000, 0.000000000000000000 ) ) ;
#164 = CARTESIAN_POINT ( 'NONE',  ( 0.000000000000000000, 0.000000000000000000, 7.000000000000000000 ) ) ;
#165 = DIRECTION ( 'NONE',  ( -0.000000000000000000, -0.000000000000000000, -1.000000000000000000 ) ) ;
#166 = EDGE_CURVE ( 'NONE', #254, #219, #204, .T. ) ;
#167 = PERSON_AND_ORGANIZATION ( #100, #183 ) ;
#168 = CIRCLE ( 'NONE', #150, 7.200000000000001066 ) ;
#169 = DATE_AND_TIME ( #29, #218 ) ;
#170 = VERTEX_POINT ( 'NONE', #90 ) ;
#171 = COORDINATED_UNIVERSAL_TIME_OFFSET ( 1, 0, .AHEAD. ) ;
#172 = ORIENTED_EDGE ( 'NONE', *, *, #98, .F. ) ;
#173 = EDGE_CURVE ( 'NONE', #295, #148, #290, .T. ) ;
#174 = ORIENTED_EDGE ( 'NONE', *, *, #41, .T. ) ;
#175 = FACE_OUTER_BOUND ( 'NONE', #300, .T. ) ;
#176 = AXIS2_PLACEMENT_3D ( 'NONE', #8, #284, #237 ) ;
#177 = CC_DESIGN_PERSON_AND_ORGANIZATION_ASSIGNMENT ( #214, #7, ( #239 ) ) ;
#178 = DIRECTION ( 'NONE',  ( -1.000000000000000000, 0.000000000000000000, 0.000000000000000000 ) ) ;
#179 = DIRECTION ( 'NONE',  ( -0.000000000000000000, -0.000000000000000000, -1.000000000000000000 ) ) ;
#180 = CARTESIAN_POINT ( 'NONE',  ( 0.000000000000000000, 0.000000000000000000, 807.0000000000000000 ) ) ;
#181 = PRODUCT_DEFINITION ( 'NEZNÁMÝ', '', #27, #31 ) ;
#182 = AXIS2_PLACEMENT_3D ( 'NONE', #205, #260, #306 ) ;
#183 = ORGANIZATION ( 'NEURÈENÝ', 'NEURÈENÝ', '' ) ;
#184 = CARTESIAN_POINT ( 'NONE',  ( 7.200000000000001066, 0.000000000000000000, 6.999999999999992006 ) ) ;
#185 = CARTESIAN_POINT ( 'NONE',  ( 0.000000000000000000, 0.000000000000000000, 7.000000000000000000 ) ) ;
#186 = DIRECTION ( 'NONE',  ( 0.000000000000000000, 0.000000000000000000, 1.000000000000000000 ) ) ;
#187 = PRODUCT_DEFINITION_SHAPE ( 'NONE', 'NONE',  #181 ) ;
#188 = CYLINDRICAL_SURFACE ( 'NONE', #43, 11.00000000000000000 ) ;
#189 = CC_DESIGN_PERSON_AND_ORGANIZATION_ASSIGNMENT ( #297, #146, ( #27 ) ) ;
#190 = CIRCLE ( 'NONE', #261, 0.1999999999999996503 ) ;
#191 = AXIS2_PLACEMENT_3D ( 'NONE', #215, #186, #163 ) ;
#192 = DATE_AND_TIME ( #104, #241 ) ;
#193 = LOCAL_TIME ( 11, 25, 35.00000000000000000, #171 ) ;
#194 = ORIENTED_EDGE ( 'NONE', *, *, #242, .T. ) ;
#195 = ORIENTED_EDGE ( 'NONE', *, *, #299, .T. ) ;
#196 = EDGE_CURVE ( 'NONE', #200, #221, #11, .T. ) ;
#197 = ORIENTED_EDGE ( 'NONE', *, *, #162, .T. ) ;
#198 = PERSON_AND_ORGANIZATION_ROLE ( 'creator' ) ;
#199 = AXIS2_PLACEMENT_3D ( 'NONE', #180, #92, #20 ) ;
#200 = VERTEX_POINT ( 'NONE', #44 ) ;
#201 = EDGE_LOOP ( 'NONE', ( #224, #293, #87, #13 ) ) ;
#202 = CARTESIAN_POINT ( 'NONE',  ( -11.00000000000000000, 0.000000000000000000, 7.000000000000000000 ) ) ;
#203 = CARTESIAN_POINT ( 'NONE',  ( -7.200000000000001066, 8.817456953860944275E-16, 6.999999999999992006 ) ) ;
#204 = CIRCLE ( 'NONE', #72, 11.00000000000000000 ) ;
#205 = CARTESIAN_POINT ( 'NONE',  ( 0.000000000000000000, 0.000000000000000000, 807.0000000000000000 ) ) ;
#206 = EDGE_CURVE ( 'NONE', #221, #15, #138, .T. ) ;
#207 = DIRECTION ( 'NONE',  ( -0.000000000000000000, -0.000000000000000000, -1.000000000000000000 ) ) ;
#208 = LINE ( 'NONE', #202, #235 ) ;
#209 = CIRCLE ( 'NONE', #271, 7.000000000000000888 ) ;
#210 = FACE_OUTER_BOUND ( 'NONE', #132, .T. ) ;
#211 =( NAMED_UNIT ( * ) SI_UNIT ( $, .STERADIAN. ) SOLID_ANGLE_UNIT ( ) );
#212 = CC_DESIGN_DATE_AND_TIME_ASSIGNMENT ( #192, #292, ( #52 ) ) ;
#213 = DIRECTION ( 'NONE',  ( 1.000000000000000000, 0.000000000000000000, 0.000000000000000000 ) ) ;
#214 = PERSON_AND_ORGANIZATION ( #100, #183 ) ;
#215 = CARTESIAN_POINT ( 'NONE',  ( 0.000000000000000000, 0.000000000000000000, 7.000000000000000000 ) ) ;
#216 = PERSON_AND_ORGANIZATION_ROLE ( 'classification_officer' ) ;
#217 = ORIENTED_EDGE ( 'NONE', *, *, #206, .F. ) ;
#218 = LOCAL_TIME ( 11, 25, 35.00000000000000000, #34 ) ;
#219 = VERTEX_POINT ( 'NONE', #101 ) ;
#220 = EDGE_CURVE ( 'NONE', #10, #254, #140, .T. ) ;
#221 = VERTEX_POINT ( 'NONE', #51 ) ;
#222 = DATE_AND_TIME ( #250, #193 ) ;
#223 = ORIENTED_EDGE ( 'NONE', *, *, #299, .F. ) ;
#224 = ORIENTED_EDGE ( 'NONE', *, *, #129, .F. ) ;
#225 = DIRECTION ( 'NONE',  ( 0.000000000000000000, 0.000000000000000000, 1.000000000000000000 ) ) ;
#226 = EDGE_CURVE ( 'NONE', #148, #156, #168, .T. ) ;
#227 = DIRECTION ( 'NONE',  ( -1.000000000000000000, 1.224646799147358384E-16, 0.000000000000000000 ) ) ;
#228 = DIRECTION ( 'NONE',  ( 0.000000000000000000, 0.000000000000000000, 1.000000000000000000 ) ) ;
#229 = CIRCLE ( 'NONE', #33, 11.00000000000000000 ) ;
#230 = APPROVAL_PERSON_ORGANIZATION ( #167, #73, #12 ) ;
#231 = CC_DESIGN_PERSON_AND_ORGANIZATION_ASSIGNMENT ( #125, #216, ( #52 ) ) ;
#232 = DIRECTION ( 'NONE',  ( 0.000000000000000000, 0.000000000000000000, 1.000000000000000000 ) ) ;
#233 = CARTESIAN_POINT ( 'NONE',  ( 0.000000000000000000, 0.000000000000000000, 807.0000000000000000 ) ) ;
#234 = DIRECTION ( 'NONE',  ( -0.000000000000000000, -0.000000000000000000, -1.000000000000000000 ) ) ;
#235 = VECTOR ( 'NONE', #302, 1000.000000000000000 ) ;
#236 = APPROVAL_PERSON_ORGANIZATION ( #62, #106, #96 ) ;
#237 = DIRECTION ( 'NONE',  ( 1.000000000000000000, 0.000000000000000000, 0.000000000000000000 ) ) ;
#238 = MECHANICAL_CONTEXT ( 'NONE', #66, 'mechanical' ) ;
#239 = PRODUCT ( 'a925', 'a925', '', ( #238 ) ) ;
#240 = AXIS2_PLACEMENT_3D ( 'NONE', #112, #46, #117 ) ;
#241 = LOCAL_TIME ( 11, 25, 35.00000000000000000, #9 ) ;
#242 = EDGE_CURVE ( 'NONE', #295, #15, #209, .T. ) ;
#243 = DIRECTION ( 'NONE',  ( -0.000000000000000000, -0.000000000000000000, -1.000000000000000000 ) ) ;
#244 = SECURITY_CLASSIFICATION_LEVEL ( 'unclassified' ) ;
#245 = EDGE_LOOP ( 'NONE', ( #294, #298 ) ) ;
#246 = AXIS2_PLACEMENT_3D ( 'NONE', #159, #136, #115 ) ;
#247 = LOCAL_TIME ( 11, 25, 35.00000000000000000, #149 ) ;
#248 = DATE_AND_TIME ( #53, #247 ) ;
#249 = EDGE_LOOP ( 'NONE', ( #107, #197, #194, #217 ) ) ;
#250 = CALENDAR_DATE ( 2022, 20, 6 ) ;
#251 = EDGE_LOOP ( 'NONE', ( #79, #273, #17, #276 ) ) ;
#252 = APPROVAL_DATE_TIME ( #84, #106 ) ;
#253 = APPROVAL_ROLE ( '' ) ;
#254 = VERTEX_POINT ( 'NONE', #145 ) ;
#255 = EDGE_CURVE ( 'NONE', #156, #148, #76, .T. ) ;
#256 = TOROIDAL_SURFACE ( 'NONE', #176, 7.200000000000001066, 0.2000000000000000111 ) ;
#257 = DIRECTION ( 'NONE',  ( -1.000000000000000000, 0.000000000000000000, 0.000000000000000000 ) ) ;
#258 = DIRECTION ( 'NONE',  ( 0.000000000000000000, 0.000000000000000000, 1.000000000000000000 ) ) ;
#259 = PLANE ( 'NONE',  #144 ) ;
#260 = DIRECTION ( 'NONE',  ( 0.000000000000000000, 0.000000000000000000, 1.000000000000000000 ) ) ;
#261 = AXIS2_PLACEMENT_3D ( 'NONE', #263, #282, #227 ) ;
#262 = CC_DESIGN_SECURITY_CLASSIFICATION ( #52, ( #27 ) ) ;
#263 = CARTESIAN_POINT ( 'NONE',  ( -7.200000000000001066, 8.817456953860944275E-16, 7.199999999999984190 ) ) ;
#264 = DIRECTION ( 'NONE',  ( 1.000000000000000000, 0.000000000000000000, -0.000000000000000000 ) ) ;
#265 = ADVANCED_FACE ( 'NONE', ( #28 ), #256, .F. ) ;
#266 = DIRECTION ( 'NONE',  ( -0.000000000000000000, -0.000000000000000000, -1.000000000000000000 ) ) ;
#267 = CIRCLE ( 'NONE', #240, 7.000000000000000888 ) ;
#268 = EDGE_LOOP ( 'NONE', ( #153, #131 ) ) ;
#269 = ADVANCED_FACE ( 'NONE', ( #71 ), #188, .T. ) ;
#270 = CARTESIAN_POINT ( 'NONE',  ( 0.000000000000000000, 0.000000000000000000, 807.0000000000000000 ) ) ;
#271 = AXIS2_PLACEMENT_3D ( 'NONE', #5, #119, #4 ) ;
#272 = ORIENTED_EDGE ( 'NONE', *, *, #81, .T. ) ;
#273 = ORIENTED_EDGE ( 'NONE', *, *, #242, .F. ) ;
#274 = CC_DESIGN_PERSON_AND_ORGANIZATION_ASSIGNMENT ( #78, #82, ( #181 ) ) ;
#275 = APPROVAL_STATUS ( 'not_yet_approved' ) ;
#276 = ORIENTED_EDGE ( 'NONE', *, *, #255, .F. ) ;
#277 = SHAPE_DEFINITION_REPRESENTATION ( #187, #288 ) ;
#278 = CC_DESIGN_APPROVAL ( #305, ( #27 ) ) ;
#279 = CARTESIAN_POINT ( 'NONE',  ( 0.000000000000000000, 0.000000000000000000, 7.000000000000000000 ) ) ;
#280 = CARTESIAN_POINT ( 'NONE',  ( 7.000000000000000888, 8.572527594031474176E-16, 807.0000000000000000 ) ) ;
#281 = CARTESIAN_POINT ( 'NONE',  ( -7.000000000000000888, 0.000000000000000000, 7.199999999999984190 ) ) ;
#282 = DIRECTION ( 'NONE',  ( 1.224646799147353207E-16, 1.000000000000000000, -0.000000000000000000 ) ) ;
#283 =( NAMED_UNIT ( * ) PLANE_ANGLE_UNIT ( ) SI_UNIT ( $, .RADIAN. ) );
#284 = DIRECTION ( 'NONE',  ( 0.000000000000000000, 0.000000000000000000, 1.000000000000000000 ) ) ;
#285 = AXIS2_PLACEMENT_3D ( 'NONE', #24, #179, #257 ) ;
#286 =( LENGTH_UNIT ( ) NAMED_UNIT ( * ) SI_UNIT ( .MILLI., .METRE. ) );
#287 = ADVANCED_FACE ( 'NONE', ( #97, #210 ), #124, .T. ) ;
#288 = ADVANCED_BREP_SHAPE_REPRESENTATION ( 'a925', ( #19, #77 ), #291 ) ;
#289 = APPLICATION_PROTOCOL_DEFINITION ( 'international standard', 'config_control_design', 1994, #60 ) ;
#290 = CIRCLE ( 'NONE', #246, 0.1999999999999996503 ) ;
#291 =( GEOMETRIC_REPRESENTATION_CONTEXT ( 3 ) GLOBAL_UNCERTAINTY_ASSIGNED_CONTEXT ( ( #301 ) ) GLOBAL_UNIT_ASSIGNED_CONTEXT ( ( #286, #283, #211 ) ) REPRESENTATION_CONTEXT ( 'NONE', 'WORKASPACE' ) );
#292 = DATE_TIME_ROLE ( 'classification_date' ) ;
#293 = ORIENTED_EDGE ( 'NONE', *, *, #220, .T. ) ;
#294 = ORIENTED_EDGE ( 'NONE', *, *, #226, .T. ) ;
#295 = VERTEX_POINT ( 'NONE', #120 ) ;
#296 = CC_DESIGN_APPROVAL ( #106, ( #52 ) ) ;
#297 = PERSON_AND_ORGANIZATION ( #100, #183 ) ;
#298 = ORIENTED_EDGE ( 'NONE', *, *, #255, .T. ) ;
#299 = EDGE_CURVE ( 'NONE', #170, #10, #26, .T. ) ;
#300 = EDGE_LOOP ( 'NONE', ( #172, #174, #130, #105 ) ) ;
#301 = UNCERTAINTY_MEASURE_WITH_UNIT (LENGTH_MEASURE( 1.000000000000000082E-05 ), #286, 'distance_accuracy_value', 'NONE');
#302 = DIRECTION ( 'NONE',  ( -0.000000000000000000, -0.000000000000000000, -1.000000000000000000 ) ) ;
#303 = AXIS2_PLACEMENT_3D ( 'NONE', #135, #225, #42 ) ;
#304 = DIRECTION ( 'NONE',  ( 1.000000000000000000, 0.000000000000000000, 0.000000000000000000 ) ) ;
#305 = APPROVAL ( #152, 'NEURÈENÝ' ) ;
#306 = DIRECTION ( 'NONE',  ( 1.000000000000000000, 0.000000000000000000, 0.000000000000000000 ) ) ;
#307 = FACE_OUTER_BOUND ( 'NONE', #268, .T. ) ;
ENDSEC;
END-ISO-10303-21;
