ISO-10303-21;
HEADER;
FILE_DESCRIPTION (( 'STEP AP203' ),
    '1' );
FILE_NAME ('f173.STEP',
    '2022-06-20T10:18:17',
    ( '' ),
    ( '' ),
    'SwSTEP 2.0',
    'SolidWorks 2019',
    '' );
FILE_SCHEMA (( 'CONFIG_CONTROL_DESIGN' ));
ENDSEC;

DATA;
#1 = DIRECTION ( 'NONE',  ( 0.000000000000000000, 0.000000000000000000, 1.000000000000000000 ) ) ;
#2 = DIRECTION ( 'NONE',  ( 1.000000000000000000, 0.000000000000000000, 0.000000000000000000 ) ) ;
#3 = CARTESIAN_POINT ( 'NONE',  ( -1.250000000000000000, 0.000000000000000000, 2.199999999999993516 ) ) ;
#4 = CARTESIAN_POINT ( 'NONE',  ( 1.250000000000000000, 1.530808498934191571E-16, 102.0000000000000142 ) ) ;
#5 = EDGE_LOOP ( 'NONE', ( #275, #145, #88, #17 ) ) ;
#6 = EDGE_CURVE ( 'NONE', #144, #291, #48, .T. ) ;
#7 = AXIS2_PLACEMENT_3D ( 'NONE', #189, #266, #220 ) ;
#8 = DIRECTION ( 'NONE',  ( 1.000000000000000000, 0.000000000000000000, 0.000000000000000000 ) ) ;
#9 = CARTESIAN_POINT ( 'NONE',  ( 0.000000000000000000, 0.000000000000000000, 2.000000000000000000 ) ) ;
#10 = CARTESIAN_POINT ( 'NONE',  ( 0.000000000000000000, 0.000000000000000000, 102.0000000000000142 ) ) ;
#11 = COORDINATED_UNIVERSAL_TIME_OFFSET ( 1, 0, .AHEAD. ) ;
#12 = PERSON_AND_ORGANIZATION ( #166, #165 ) ;
#13 = DATE_AND_TIME ( #182, #210 ) ;
#14 = AXIS2_PLACEMENT_3D ( 'NONE', #231, #119, #51 ) ;
#15 = DIRECTION ( 'NONE',  ( 0.000000000000000000, 0.000000000000000000, 1.000000000000000000 ) ) ;
#16 = DIRECTION ( 'NONE',  ( 0.000000000000000000, 0.000000000000000000, 1.000000000000000000 ) ) ;
#17 = ORIENTED_EDGE ( 'NONE', *, *, #84, .T. ) ;
#18 = APPROVAL_PERSON_ORGANIZATION ( #193, #209, #66 ) ;
#19 = DIRECTION ( 'NONE',  ( 0.000000000000000000, 0.000000000000000000, 1.000000000000000000 ) ) ;
#20 = DESIGN_CONTEXT ( 'detailed design', #141, 'design' ) ;
#21 = ADVANCED_FACE ( 'NONE', ( #228 ), #195, .T. ) ;
#22 = ADVANCED_FACE ( 'NONE', ( #53 ), #26, .F. ) ;
#23 = AXIS2_PLACEMENT_3D ( 'NONE', #27, #226, #2 ) ;
#24 = VERTEX_POINT ( 'NONE', #290 ) ;
#25 = PERSON_AND_ORGANIZATION ( #166, #165 ) ;
#26 = PLANE ( 'NONE',  #261 ) ;
#27 = CARTESIAN_POINT ( 'NONE',  ( 0.000000000000000000, 0.000000000000000000, 0.000000000000000000 ) ) ;
#28 = AXIS2_PLACEMENT_3D ( 'NONE', #234, #40, #129 ) ;
#29 = EDGE_LOOP ( 'NONE', ( #273, #307, #184, #246 ) ) ;
#30 = PRODUCT_DEFINITION_FORMATION_WITH_SPECIFIED_SOURCE ( 'LIBOVOLNÝ', '', #140, .NOT_KNOWN. ) ;
#31 = DIRECTION ( 'NONE',  ( -0.000000000000000000, -0.000000000000000000, -1.000000000000000000 ) ) ;
#32 = ORIENTED_EDGE ( 'NONE', *, *, #191, .T. ) ;
#33 = VECTOR ( 'NONE', #265, 1000.000000000000000 ) ;
#34 = CYLINDRICAL_SURFACE ( 'NONE', #28, 2.500000000000000000 ) ;
#35 = PERSON_AND_ORGANIZATION ( #166, #165 ) ;
#36 = DIRECTION ( 'NONE',  ( 1.000000000000000000, 0.000000000000000000, 0.000000000000000000 ) ) ;
#37 = CIRCLE ( 'NONE', #14, 1.250000000000000000 ) ;
#38 = DIRECTION ( 'NONE',  ( 0.000000000000000000, 0.000000000000000000, 1.000000000000000000 ) ) ;
#39 = CARTESIAN_POINT ( 'NONE',  ( 0.000000000000000000, 0.000000000000000000, 2.199999999999993516 ) ) ;
#40 = DIRECTION ( 'NONE',  ( -0.000000000000000000, -0.000000000000000000, -1.000000000000000000 ) ) ;
#41 = EDGE_CURVE ( 'NONE', #291, #149, #116, .T. ) ;
#42 = ORIENTED_EDGE ( 'NONE', *, *, #303, .F. ) ;
#43 = AXIS2_PLACEMENT_3D ( 'NONE', #10, #58, #159 ) ;
#44 = DIRECTION ( 'NONE',  ( 0.000000000000000000, 0.000000000000000000, 1.000000000000000000 ) ) ;
#45 = CARTESIAN_POINT ( 'NONE',  ( -2.500000000000000000, 0.000000000000000000, 0.000000000000000000 ) ) ;
#46 = ORIENTED_EDGE ( 'NONE', *, *, #160, .T. ) ;
#47 = CIRCLE ( 'NONE', #186, 1.250000000000000000 ) ;
#48 = CIRCLE ( 'NONE', #79, 1.250000000000000000 ) ;
#49 = DIRECTION ( 'NONE',  ( 1.000000000000000000, 0.000000000000000000, -0.000000000000000000 ) ) ;
#50 = FACE_OUTER_BOUND ( 'NONE', #5, .T. ) ;
#51 = DIRECTION ( 'NONE',  ( 1.000000000000000000, 0.000000000000000000, 0.000000000000000000 ) ) ;
#52 = PRODUCT_DEFINITION_SHAPE ( 'NONE', 'NONE',  #223 ) ;
#53 = FACE_OUTER_BOUND ( 'NONE', #171, .T. ) ;
#54 = CIRCLE ( 'NONE', #151, 1.450000000000000178 ) ;
#55 = CARTESIAN_POINT ( 'NONE',  ( -1.250000000000000000, 0.000000000000000000, 102.0000000000000142 ) ) ;
#56 = ADVANCED_FACE ( 'NONE', ( #50 ), #148, .T. ) ;
#57 = VERTEX_POINT ( 'NONE', #251 ) ;
#58 = DIRECTION ( 'NONE',  ( 0.000000000000000000, 0.000000000000000000, 1.000000000000000000 ) ) ;
#59 = PERSON_AND_ORGANIZATION ( #166, #165 ) ;
#60 =( NAMED_UNIT ( * ) SI_UNIT ( $, .STERADIAN. ) SOLID_ANGLE_UNIT ( ) );
#61 = DATE_AND_TIME ( #279, #96 ) ;
#62 = ORIENTED_EDGE ( 'NONE', *, *, #41, .F. ) ;
#63 = PLANE ( 'NONE',  #43 ) ;
#64 = EDGE_LOOP ( 'NONE', ( #94, #46, #67, #62 ) ) ;
#65 = AXIS2_PLACEMENT_3D ( 'NONE', #77, #16, #8 ) ;
#66 = APPROVAL_ROLE ( '' ) ;
#67 = ORIENTED_EDGE ( 'NONE', *, *, #305, .T. ) ;
#68 = COORDINATED_UNIVERSAL_TIME_OFFSET ( 1, 0, .AHEAD. ) ;
#69 = EDGE_CURVE ( 'NONE', #291, #144, #178, .T. ) ;
#70 = APPROVAL_PERSON_ORGANIZATION ( #12, #134, #212 ) ;
#71 = ORIENTED_EDGE ( 'NONE', *, *, #248, .T. ) ;
#72 = EDGE_LOOP ( 'NONE', ( #300, #32 ) ) ;
#73 = APPROVAL ( #153, 'NEURÈENÝ' ) ;
#74 = DIRECTION ( 'NONE',  ( 0.000000000000000000, 0.000000000000000000, 1.000000000000000000 ) ) ;
#75 = CARTESIAN_POINT ( 'NONE',  ( 2.500000000000000000, 3.061616997868383141E-16, 0.000000000000000000 ) ) ;
#76 = ORIENTED_EDGE ( 'NONE', *, *, #91, .T. ) ;
#77 = CARTESIAN_POINT ( 'NONE',  ( 0.000000000000000000, 0.000000000000000000, 0.000000000000000000 ) ) ;
#78 = CARTESIAN_POINT ( 'NONE',  ( 0.000000000000000000, 0.000000000000000000, 0.000000000000000000 ) ) ;
#79 = AXIS2_PLACEMENT_3D ( 'NONE', #122, #74, #167 ) ;
#80 = DATE_AND_TIME ( #211, #127 ) ;
#81 = CIRCLE ( 'NONE', #7, 0.2000000000000000944 ) ;
#82 = PERSON_AND_ORGANIZATION ( #166, #165 ) ;
#83 = COORDINATED_UNIVERSAL_TIME_OFFSET ( 1, 0, .AHEAD. ) ;
#84 = EDGE_CURVE ( 'NONE', #149, #217, #37, .T. ) ;
#85 = CARTESIAN_POINT ( 'NONE',  ( 0.000000000000000000, 0.000000000000000000, 2.000000000000000000 ) ) ;
#86 = PERSON_AND_ORGANIZATION_ROLE ( 'design_owner' ) ;
#87 = CC_DESIGN_APPROVAL ( #209, ( #232 ) ) ;
#88 = ORIENTED_EDGE ( 'NONE', *, *, #41, .T. ) ;
#89 = CC_DESIGN_PERSON_AND_ORGANIZATION_ASSIGNMENT ( #25, #135, ( #232 ) ) ;
#90 = ORIENTED_EDGE ( 'NONE', *, *, #175, .F. ) ;
#91 = EDGE_CURVE ( 'NONE', #57, #221, #173, .T. ) ;
#92 = APPROVAL_DATE_TIME ( #298, #209 ) ;
#93 = CARTESIAN_POINT ( 'NONE',  ( 0.000000000000000000, 0.000000000000000000, 2.199999999999993516 ) ) ;
#94 = ORIENTED_EDGE ( 'NONE', *, *, #6, .F. ) ;
#95 = AXIS2_PLACEMENT_3D ( 'NONE', #85, #19, #257 ) ;
#96 = LOCAL_TIME ( 12, 18, 17.00000000000000000, #181 ) ;
#97 = CARTESIAN_POINT ( 'NONE',  ( -1.250000000000000000, 0.000000000000000000, 102.0000000000000142 ) ) ;
#98 = LINE ( 'NONE', #100, #200 ) ;
#99 = DIRECTION ( 'NONE',  ( -0.000000000000000000, -0.000000000000000000, -1.000000000000000000 ) ) ;
#100 = CARTESIAN_POINT ( 'NONE',  ( 1.250000000000000000, 1.530808498934191571E-16, 102.0000000000000142 ) ) ;
#101 = DIRECTION ( 'NONE',  ( 0.000000000000000000, 0.000000000000000000, 1.000000000000000000 ) ) ;
#102 = DIRECTION ( 'NONE',  ( 0.000000000000000000, 0.000000000000000000, 1.000000000000000000 ) ) ;
#103 = CIRCLE ( 'NONE', #95, 2.500000000000000000 ) ;
#104 = AXIS2_PLACEMENT_3D ( 'NONE', #93, #44, #168 ) ;
#105 = APPLICATION_PROTOCOL_DEFINITION ( 'international standard', 'config_control_design', 1994, #141 ) ;
#106 = CC_DESIGN_PERSON_AND_ORGANIZATION_ASSIGNMENT ( #108, #213, ( #30 ) ) ;
#107 = APPROVAL_STATUS ( 'not_yet_approved' ) ;
#108 = PERSON_AND_ORGANIZATION ( #166, #165 ) ;
#109 = ORIENTED_EDGE ( 'NONE', *, *, #286, .F. ) ;
#110 = DIRECTION ( 'NONE',  ( -0.000000000000000000, -0.000000000000000000, -1.000000000000000000 ) ) ;
#111 = ORIENTED_EDGE ( 'NONE', *, *, #84, .F. ) ;
#112 = CARTESIAN_POINT ( 'NONE',  ( 1.250000000000000000, 1.530808498934191571E-16, 2.199999999999993516 ) ) ;
#113 = CALENDAR_DATE ( 2022, 20, 6 ) ;
#114 = ORIENTED_EDGE ( 'NONE', *, *, #278, .T. ) ;
#115 = COORDINATED_UNIVERSAL_TIME_OFFSET ( 1, 0, .AHEAD. ) ;
#116 = LINE ( 'NONE', #97, #33 ) ;
#117 = TOROIDAL_SURFACE ( 'NONE', #104, 1.450000000000000178, 0.2000000000000000111 ) ;
#118 = AXIS2_PLACEMENT_3D ( 'NONE', #123, #102, #271 ) ;
#119 = DIRECTION ( 'NONE',  ( 0.000000000000000000, 0.000000000000000000, 1.000000000000000000 ) ) ;
#120 = CARTESIAN_POINT ( 'NONE',  ( 2.500000000000000000, 3.061616997868383141E-16, 2.000000000000000000 ) ) ;
#121 = DIRECTION ( 'NONE',  ( -1.000000000000000000, 0.000000000000000000, 0.000000000000000000 ) ) ;
#122 = CARTESIAN_POINT ( 'NONE',  ( 0.000000000000000000, 0.000000000000000000, 102.0000000000000142 ) ) ;
#123 = CARTESIAN_POINT ( 'NONE',  ( 0.000000000000000000, 0.000000000000000000, 2.000000000000000000 ) ) ;
#124 =( LENGTH_UNIT ( ) NAMED_UNIT ( * ) SI_UNIT ( .MILLI., .METRE. ) );
#125 = DIRECTION ( 'NONE',  ( 1.000000000000000000, 0.000000000000000000, 0.000000000000000000 ) ) ;
#126 = AXIS2_PLACEMENT_3D ( 'NONE', #205, #155, #137 ) ;
#127 = LOCAL_TIME ( 12, 18, 17.00000000000000000, #11 ) ;
#128 = PERSON_AND_ORGANIZATION_ROLE ( 'creator' ) ;
#129 = DIRECTION ( 'NONE',  ( -1.000000000000000000, 0.000000000000000000, 0.000000000000000000 ) ) ;
#130 = DIRECTION ( 'NONE',  ( -0.000000000000000000, -0.000000000000000000, -1.000000000000000000 ) ) ;
#131 = APPLICATION_CONTEXT ( 'configuration controlled 3d designs of mechanical parts and assemblies' ) ;
#132 = CLOSED_SHELL ( 'NONE', ( #297, #177, #216, #21, #272, #22, #56, #172, #237 ) ) ;
#133 = CYLINDRICAL_SURFACE ( 'NONE', #126, 1.250000000000000000 ) ;
#134 = APPROVAL ( #107, 'NEURÈENÝ' ) ;
#135 = PERSON_AND_ORGANIZATION_ROLE ( 'classification_officer' ) ;
#136 = CIRCLE ( 'NONE', #304, 1.450000000000000178 ) ;
#137 = DIRECTION ( 'NONE',  ( -1.000000000000000000, 0.000000000000000000, 0.000000000000000000 ) ) ;
#138 = ORIENTED_EDGE ( 'NONE', *, *, #6, .T. ) ;
#139 = UNCERTAINTY_MEASURE_WITH_UNIT (LENGTH_MEASURE( 1.000000000000000082E-05 ), #124, 'distance_accuracy_value', 'NONE');
#140 = PRODUCT ( 'f173', 'f173', '', ( #235 ) ) ;
#141 = APPLICATION_CONTEXT ( 'configuration controlled 3d designs of mechanical parts and assemblies' ) ;
#142 = CC_DESIGN_DATE_AND_TIME_ASSIGNMENT ( #61, #236, ( #223 ) ) ;
#143 = AXIS2_PLACEMENT_3D ( 'NONE', #250, #229, #206 ) ;
#144 = VERTEX_POINT ( 'NONE', #4 ) ;
#145 = ORIENTED_EDGE ( 'NONE', *, *, #69, .F. ) ;
#146 = EDGE_LOOP ( 'NONE', ( #109, #249, #76, #114 ) ) ;
#147 = AXIS2_PLACEMENT_3D ( 'NONE', #78, #38, #125 ) ;
#148 = CYLINDRICAL_SURFACE ( 'NONE', #264, 1.250000000000000000 ) ;
#149 = VERTEX_POINT ( 'NONE', #3 ) ;
#150 = FACE_BOUND ( 'NONE', #72, .T. ) ;
#151 = AXIS2_PLACEMENT_3D ( 'NONE', #154, #130, #36 ) ;
#152 = FACE_OUTER_BOUND ( 'NONE', #282, .T. ) ;
#153 = APPROVAL_STATUS ( 'not_yet_approved' ) ;
#154 = CARTESIAN_POINT ( 'NONE',  ( 0.000000000000000000, 0.000000000000000000, 2.000000000000000000 ) ) ;
#155 = DIRECTION ( 'NONE',  ( -0.000000000000000000, -0.000000000000000000, -1.000000000000000000 ) ) ;
#156 = ORIENTED_EDGE ( 'NONE', *, *, #305, .F. ) ;
#157 = CARTESIAN_POINT ( 'NONE',  ( 0.000000000000000000, 0.000000000000000000, 2.199999999999993516 ) ) ;
#158 = PRODUCT_RELATED_PRODUCT_CATEGORY ( 'detail', '', ( #140 ) ) ;
#159 = DIRECTION ( 'NONE',  ( 1.000000000000000000, 0.000000000000000000, -0.000000000000000000 ) ) ;
#160 = EDGE_CURVE ( 'NONE', #144, #217, #98, .T. ) ;
#161 = EDGE_LOOP ( 'NONE', ( #224, #174 ) ) ;
#162 = DATE_AND_TIME ( #113, #203 ) ;
#163 = DIRECTION ( 'NONE',  ( 1.000000000000000000, 0.000000000000000000, 0.000000000000000000 ) ) ;
#164 = EDGE_LOOP ( 'NONE', ( #111, #71, #42, #242 ) ) ;
#165 = ORGANIZATION ( 'NEURÈENÝ', 'NEURÈENÝ', '' ) ;
#166 = PERSON ( 'NEURÈENÝ', 'NEURÈENÝ', 'NEURÈENÝ', ('NEURÈENÝ'), ('NEURÈENÝ'), ('NEURÈENÝ') ) ;
#167 = DIRECTION ( 'NONE',  ( 1.000000000000000000, 0.000000000000000000, 0.000000000000000000 ) ) ;
#168 = DIRECTION ( 'NONE',  ( 1.000000000000000000, 0.000000000000000000, 0.000000000000000000 ) ) ;
#169 = CC_DESIGN_APPROVAL ( #73, ( #223 ) ) ;
#170 = CARTESIAN_POINT ( 'NONE',  ( 0.000000000000000000, 0.000000000000000000, 2.000000000000000000 ) ) ;
#171 = EDGE_LOOP ( 'NONE', ( #301, #90 ) ) ;
#172 = ADVANCED_FACE ( 'NONE', ( #152 ), #63, .T. ) ;
#173 = LINE ( 'NONE', #253, #194 ) ;
#174 = ORIENTED_EDGE ( 'NONE', *, *, #267, .T. ) ;
#175 = EDGE_CURVE ( 'NONE', #288, #221, #207, .T. ) ;
#176 = DIRECTION ( 'NONE',  ( 0.000000000000000000, 0.000000000000000000, 1.000000000000000000 ) ) ;
#177 = ADVANCED_FACE ( 'NONE', ( #260 ), #133, .T. ) ;
#178 = CIRCLE ( 'NONE', #215, 1.250000000000000000 ) ;
#179 = APPLICATION_PROTOCOL_DEFINITION ( 'international standard', 'config_control_design', 1994, #131 ) ;
#180 = LOCAL_TIME ( 12, 18, 17.00000000000000000, #68 ) ;
#181 = COORDINATED_UNIVERSAL_TIME_OFFSET ( 1, 0, .AHEAD. ) ;
#182 = CALENDAR_DATE ( 2022, 20, 6 ) ;
#183 = DIRECTION ( 'NONE',  ( -0.000000000000000000, -0.000000000000000000, -1.000000000000000000 ) ) ;
#184 = ORIENTED_EDGE ( 'NONE', *, *, #175, .T. ) ;
#185 = CC_DESIGN_PERSON_AND_ORGANIZATION_ASSIGNMENT ( #302, #306, ( #30 ) ) ;
#186 = AXIS2_PLACEMENT_3D ( 'NONE', #157, #15, #240 ) ;
#187 = EDGE_CURVE ( 'NONE', #57, #259, #103, .T. ) ;
#188 = EDGE_LOOP ( 'NONE', ( #289, #156, #283, #196 ) ) ;
#189 = CARTESIAN_POINT ( 'NONE',  ( -1.450000000000000178, 1.775737858763662163E-16, 2.199999999999993516 ) ) ;
#190 = CC_DESIGN_APPROVAL ( #134, ( #30 ) ) ;
#191 = EDGE_CURVE ( 'NONE', #225, #24, #136, .T. ) ;
#192 = DATE_TIME_ROLE ( 'classification_date' ) ;
#193 = PERSON_AND_ORGANIZATION ( #166, #165 ) ;
#194 = VECTOR ( 'NONE', #230, 1000.000000000000000 ) ;
#195 = CYLINDRICAL_SURFACE ( 'NONE', #214, 2.500000000000000000 ) ;
#196 = ORIENTED_EDGE ( 'NONE', *, *, #191, .F. ) ;
#197 = LINE ( 'NONE', #120, #296 ) ;
#198 = DIRECTION ( 'NONE',  ( -1.000000000000000000, 0.000000000000000000, 0.000000000000000000 ) ) ;
#199 = CC_DESIGN_PERSON_AND_ORGANIZATION_ASSIGNMENT ( #82, #128, ( #223 ) ) ;
#200 = VECTOR ( 'NONE', #110, 1000.000000000000000 ) ;
#201 = CARTESIAN_POINT ( 'NONE',  ( 0.000000000000000000, 0.000000000000000000, 102.0000000000000142 ) ) ;
#202 = PLANE ( 'NONE',  #118 ) ;
#203 = LOCAL_TIME ( 12, 18, 17.00000000000000000, #115 ) ;
#204 = DIRECTION ( 'NONE',  ( 1.000000000000000000, 0.000000000000000000, 0.000000000000000000 ) ) ;
#205 = CARTESIAN_POINT ( 'NONE',  ( 0.000000000000000000, 0.000000000000000000, 102.0000000000000142 ) ) ;
#206 = DIRECTION ( 'NONE',  ( 0.000000000000000000, 0.000000000000000000, -1.000000000000000000 ) ) ;
#207 = CIRCLE ( 'NONE', #65, 2.500000000000000000 ) ;
#208 = DIRECTION ( 'NONE',  ( 1.000000000000000000, 0.000000000000000000, 0.000000000000000000 ) ) ;
#209 = APPROVAL ( #287, 'NEURÈENÝ' ) ;
#210 = LOCAL_TIME ( 12, 18, 17.00000000000000000, #83 ) ;
#211 = CALENDAR_DATE ( 2022, 20, 6 ) ;
#212 = APPROVAL_ROLE ( '' ) ;
#213 = PERSON_AND_ORGANIZATION_ROLE ( 'creator' ) ;
#214 = AXIS2_PLACEMENT_3D ( 'NONE', #170, #31, #121 ) ;
#215 = AXIS2_PLACEMENT_3D ( 'NONE', #201, #101, #204 ) ;
#216 = ADVANCED_FACE ( 'NONE', ( #241 ), #34, .T. ) ;
#217 = VERTEX_POINT ( 'NONE', #112 ) ;
#218 = CIRCLE ( 'NONE', #227, 2.500000000000000000 ) ;
#219 = CARTESIAN_POINT ( 'NONE',  ( -1.450000000000000178, 1.775737858763662409E-16, 1.999999999999996669 ) ) ;
#220 = DIRECTION ( 'NONE',  ( -1.000000000000000000, 1.224646799147353207E-16, 0.000000000000000000 ) ) ;
#221 = VERTEX_POINT ( 'NONE', #45 ) ;
#222 = ADVANCED_BREP_SHAPE_REPRESENTATION ( 'f173', ( #238, #147 ), #263 ) ;
#223 = PRODUCT_DEFINITION ( 'NEZNÁMÝ', '', #30, #20 ) ;
#224 = ORIENTED_EDGE ( 'NONE', *, *, #187, .T. ) ;
#225 = VERTEX_POINT ( 'NONE', #219 ) ;
#226 = DIRECTION ( 'NONE',  ( 0.000000000000000000, 0.000000000000000000, 1.000000000000000000 ) ) ;
#227 = AXIS2_PLACEMENT_3D ( 'NONE', #9, #176, #269 ) ;
#228 = FACE_OUTER_BOUND ( 'NONE', #146, .T. ) ;
#229 = DIRECTION ( 'NONE',  ( 0.000000000000000000, -1.000000000000000000, 0.000000000000000000 ) ) ;
#230 = DIRECTION ( 'NONE',  ( -0.000000000000000000, -0.000000000000000000, -1.000000000000000000 ) ) ;
#231 = CARTESIAN_POINT ( 'NONE',  ( 0.000000000000000000, 0.000000000000000000, 2.199999999999993516 ) ) ;
#232 = SECURITY_CLASSIFICATION ( '', '', #247 ) ;
#233 = CIRCLE ( 'NONE', #23, 2.500000000000000000 ) ;
#234 = CARTESIAN_POINT ( 'NONE',  ( 0.000000000000000000, 0.000000000000000000, 2.000000000000000000 ) ) ;
#235 = MECHANICAL_CONTEXT ( 'NONE', #131, 'mechanical' ) ;
#236 = DATE_TIME_ROLE ( 'creation_date' ) ;
#237 = ADVANCED_FACE ( 'NONE', ( #299 ), #117, .F. ) ;
#238 = MANIFOLD_SOLID_BREP ( 'Zaoblit1', #132 ) ;
#239 = APPROVAL_DATE_TIME ( #13, #134 ) ;
#240 = DIRECTION ( 'NONE',  ( 1.000000000000000000, 0.000000000000000000, 0.000000000000000000 ) ) ;
#241 = FACE_OUTER_BOUND ( 'NONE', #29, .T. ) ;
#242 = ORIENTED_EDGE ( 'NONE', *, *, #276, .F. ) ;
#243 = CC_DESIGN_SECURITY_CLASSIFICATION ( #232, ( #30 ) ) ;
#244 = CARTESIAN_POINT ( 'NONE',  ( 2.500000000000000000, 3.061616997868383141E-16, 2.000000000000000000 ) ) ;
#245 = CALENDAR_DATE ( 2022, 20, 6 ) ;
#246 = ORIENTED_EDGE ( 'NONE', *, *, #91, .F. ) ;
#247 = SECURITY_CLASSIFICATION_LEVEL ( 'unclassified' ) ;
#248 = EDGE_CURVE ( 'NONE', #149, #225, #81, .T. ) ;
#249 = ORIENTED_EDGE ( 'NONE', *, *, #187, .F. ) ;
#250 = CARTESIAN_POINT ( 'NONE',  ( 1.450000000000000178, 0.000000000000000000, 2.199999999999993516 ) ) ;
#251 = CARTESIAN_POINT ( 'NONE',  ( -2.500000000000000000, 0.000000000000000000, 2.000000000000000000 ) ) ;
#252 = TOROIDAL_SURFACE ( 'NONE', #293, 1.450000000000000178, 0.2000000000000000111 ) ;
#253 = CARTESIAN_POINT ( 'NONE',  ( -2.500000000000000000, 0.000000000000000000, 2.000000000000000000 ) ) ;
#254 = CARTESIAN_POINT ( 'NONE',  ( 0.000000000000000000, 0.000000000000000000, 102.0000000000000142 ) ) ;
#255 = FACE_OUTER_BOUND ( 'NONE', #161, .T. ) ;
#256 = CC_DESIGN_DATE_AND_TIME_ASSIGNMENT ( #162, #192, ( #232 ) ) ;
#257 = DIRECTION ( 'NONE',  ( 1.000000000000000000, 0.000000000000000000, 0.000000000000000000 ) ) ;
#258 = APPROVAL_ROLE ( '' ) ;
#259 = VERTEX_POINT ( 'NONE', #244 ) ;
#260 = FACE_OUTER_BOUND ( 'NONE', #64, .T. ) ;
#261 = AXIS2_PLACEMENT_3D ( 'NONE', #268, #1, #49 ) ;
#262 = CARTESIAN_POINT ( 'NONE',  ( 0.000000000000000000, 0.000000000000000000, 2.000000000000000000 ) ) ;
#263 =( GEOMETRIC_REPRESENTATION_CONTEXT ( 3 ) GLOBAL_UNCERTAINTY_ASSIGNED_CONTEXT ( ( #139 ) ) GLOBAL_UNIT_ASSIGNED_CONTEXT ( ( #124, #295, #60 ) ) REPRESENTATION_CONTEXT ( 'NONE', 'WORKASPACE' ) );
#264 = AXIS2_PLACEMENT_3D ( 'NONE', #254, #270, #198 ) ;
#265 = DIRECTION ( 'NONE',  ( -0.000000000000000000, -0.000000000000000000, -1.000000000000000000 ) ) ;
#266 = DIRECTION ( 'NONE',  ( 1.224646799147353207E-16, 1.000000000000000000, -0.000000000000000000 ) ) ;
#267 = EDGE_CURVE ( 'NONE', #259, #57, #218, .T. ) ;
#268 = CARTESIAN_POINT ( 'NONE',  ( 0.000000000000000000, 0.000000000000000000, 0.000000000000000000 ) ) ;
#269 = DIRECTION ( 'NONE',  ( 1.000000000000000000, 0.000000000000000000, 0.000000000000000000 ) ) ;
#270 = DIRECTION ( 'NONE',  ( -0.000000000000000000, -0.000000000000000000, -1.000000000000000000 ) ) ;
#271 = DIRECTION ( 'NONE',  ( 1.000000000000000000, 0.000000000000000000, -0.000000000000000000 ) ) ;
#272 = ADVANCED_FACE ( 'NONE', ( #150, #255 ), #202, .T. ) ;
#273 = ORIENTED_EDGE ( 'NONE', *, *, #267, .F. ) ;
#274 = CIRCLE ( 'NONE', #143, 0.2000000000000000944 ) ;
#275 = ORIENTED_EDGE ( 'NONE', *, *, #160, .F. ) ;
#276 = EDGE_CURVE ( 'NONE', #217, #24, #274, .T. ) ;
#277 = CC_DESIGN_PERSON_AND_ORGANIZATION_ASSIGNMENT ( #59, #86, ( #140 ) ) ;
#278 = EDGE_CURVE ( 'NONE', #221, #288, #233, .T. ) ;
#279 = CALENDAR_DATE ( 2022, 20, 6 ) ;
#280 = ORIENTED_EDGE ( 'NONE', *, *, #69, .T. ) ;
#281 = DIRECTION ( 'NONE',  ( 0.000000000000000000, 0.000000000000000000, 1.000000000000000000 ) ) ;
#282 = EDGE_LOOP ( 'NONE', ( #280, #138 ) ) ;
#283 = ORIENTED_EDGE ( 'NONE', *, *, #276, .T. ) ;
#284 = SHAPE_DEFINITION_REPRESENTATION ( #52, #222 ) ;
#285 = APPROVAL_PERSON_ORGANIZATION ( #35, #73, #258 ) ;
#286 = EDGE_CURVE ( 'NONE', #259, #288, #197, .T. ) ;
#287 = APPROVAL_STATUS ( 'not_yet_approved' ) ;
#288 = VERTEX_POINT ( 'NONE', #75 ) ;
#289 = ORIENTED_EDGE ( 'NONE', *, *, #248, .F. ) ;
#290 = CARTESIAN_POINT ( 'NONE',  ( 1.450000000000000178, 0.000000000000000000, 1.999999999999996669 ) ) ;
#291 = VERTEX_POINT ( 'NONE', #55 ) ;
#292 = FACE_OUTER_BOUND ( 'NONE', #164, .T. ) ;
#293 = AXIS2_PLACEMENT_3D ( 'NONE', #39, #281, #208 ) ;
#294 = APPROVAL_DATE_TIME ( #80, #73 ) ;
#295 =( NAMED_UNIT ( * ) PLANE_ANGLE_UNIT ( ) SI_UNIT ( $, .RADIAN. ) );
#296 = VECTOR ( 'NONE', #99, 1000.000000000000000 ) ;
#297 = ADVANCED_FACE ( 'NONE', ( #292 ), #252, .F. ) ;
#298 = DATE_AND_TIME ( #245, #180 ) ;
#299 = FACE_OUTER_BOUND ( 'NONE', #188, .T. ) ;
#300 = ORIENTED_EDGE ( 'NONE', *, *, #303, .T. ) ;
#301 = ORIENTED_EDGE ( 'NONE', *, *, #278, .F. ) ;
#302 = PERSON_AND_ORGANIZATION ( #166, #165 ) ;
#303 = EDGE_CURVE ( 'NONE', #24, #225, #54, .T. ) ;
#304 = AXIS2_PLACEMENT_3D ( 'NONE', #262, #183, #163 ) ;
#305 = EDGE_CURVE ( 'NONE', #217, #149, #47, .T. ) ;
#306 = PERSON_AND_ORGANIZATION_ROLE ( 'design_supplier' ) ;
#307 = ORIENTED_EDGE ( 'NONE', *, *, #286, .T. ) ;
ENDSEC;
END-ISO-10303-21;
