ISO-10303-21;
HEADER;
FILE_DESCRIPTION (( 'STEP AP203' ),
    '1' );
FILE_NAME ('bc53.STEP',
    '2022-06-20T10:29:53',
    ( '' ),
    ( '' ),
    'SwSTEP 2.0',
    'SolidWorks 2019',
    '' );
FILE_SCHEMA (( 'CONFIG_CONTROL_DESIGN' ));
ENDSEC;

DATA;
#1 = CALENDAR_DATE ( 2022, 20, 6 ) ;
#2 = CIRCLE ( 'NONE', #114, 0.1999999999999999833 ) ;
#3 = AXIS2_PLACEMENT_3D ( 'NONE', #253, #256, #137 ) ;
#4 = VECTOR ( 'NONE', #273, 1000.000000000000000 ) ;
#5 = PLANE ( 'NONE',  #161 ) ;
#6 = ORIENTED_EDGE ( 'NONE', *, *, #112, .F. ) ;
#7 = AXIS2_PLACEMENT_3D ( 'NONE', #205, #302, #185 ) ;
#8 = CARTESIAN_POINT ( 'NONE',  ( -0.6999999999999999556, 8.572527594031473190E-17, 1.199999999999999289 ) ) ;
#9 = ORIENTED_EDGE ( 'NONE', *, *, #59, .T. ) ;
#10 = DIRECTION ( 'NONE',  ( 1.000000000000000000, 0.000000000000000000, -0.000000000000000000 ) ) ;
#11 = ORIENTED_EDGE ( 'NONE', *, *, #285, .T. ) ;
#12 = FACE_OUTER_BOUND ( 'NONE', #150, .T. ) ;
#13 = FACE_OUTER_BOUND ( 'NONE', #225, .T. ) ;
#14 = LOCAL_TIME ( 12, 29, 53.00000000000000000, #168 ) ;
#15 = DIRECTION ( 'NONE',  ( 0.000000000000000000, 0.000000000000000000, 1.000000000000000000 ) ) ;
#16 = CARTESIAN_POINT ( 'NONE',  ( 0.6999999999999999556, 0.000000000000000000, 1.399999999999998579 ) ) ;
#17 = CARTESIAN_POINT ( 'NONE',  ( 0.000000000000000000, 0.000000000000000000, 1.199999999999999956 ) ) ;
#18 = EDGE_CURVE ( 'NONE', #80, #156, #118, .T. ) ;
#19 = CIRCLE ( 'NONE', #177, 0.2000000000000000944 ) ;
#20 = PRODUCT_DEFINITION_SHAPE ( 'NONE', 'NONE',  #236 ) ;
#21 = DESIGN_CONTEXT ( 'detailed design', #119, 'design' ) ;
#22 = DATE_TIME_ROLE ( 'creation_date' ) ;
#23 = COORDINATED_UNIVERSAL_TIME_OFFSET ( 1, 0, .AHEAD. ) ;
#24 = COORDINATED_UNIVERSAL_TIME_OFFSET ( 1, 0, .AHEAD. ) ;
#25 = ORIENTED_EDGE ( 'NONE', *, *, #145, .T. ) ;
#26 = AXIS2_PLACEMENT_3D ( 'NONE', #100, #77, #249 ) ;
#27 = ADVANCED_FACE ( 'NONE', ( #13 ), #202, .F. ) ;
#28 = CC_DESIGN_APPROVAL ( #269, ( #298 ) ) ;
#29 = DIRECTION ( 'NONE',  ( 1.000000000000000000, 0.000000000000000000, -0.000000000000000000 ) ) ;
#30 = EDGE_LOOP ( 'NONE', ( #195, #98 ) ) ;
#31 = DIRECTION ( 'NONE',  ( 1.000000000000000000, 0.000000000000000000, 0.000000000000000000 ) ) ;
#32 = ADVANCED_FACE ( 'NONE', ( #122, #218 ), #5, .T. ) ;
#33 = ORIENTED_EDGE ( 'NONE', *, *, #147, .F. ) ;
#34 = FACE_OUTER_BOUND ( 'NONE', #219, .T. ) ;
#35 = VERTEX_POINT ( 'NONE', #208 ) ;
#36 = APPROVAL ( #307, 'NEURÈENÝ' ) ;
#37 = CARTESIAN_POINT ( 'NONE',  ( 0.000000000000000000, 0.000000000000000000, 1.399999999999998579 ) ) ;
#38 = DIRECTION ( 'NONE',  ( 1.000000000000000000, 0.000000000000000000, 0.000000000000000000 ) ) ;
#39 = EDGE_CURVE ( 'NONE', #156, #80, #215, .T. ) ;
#40 = LINE ( 'NONE', #172, #4 ) ;
#41 = DIRECTION ( 'NONE',  ( -0.000000000000000000, -0.000000000000000000, -1.000000000000000000 ) ) ;
#42 = CARTESIAN_POINT ( 'NONE',  ( 0.000000000000000000, 0.000000000000000000, 101.2000000000000171 ) ) ;
#43 = PERSON_AND_ORGANIZATION ( #229, #282 ) ;
#44 = DIRECTION ( 'NONE',  ( 1.000000000000000000, 0.000000000000000000, 0.000000000000000000 ) ) ;
#45 = APPROVAL_STATUS ( 'not_yet_approved' ) ;
#46 = LOCAL_TIME ( 12, 29, 53.00000000000000000, #105 ) ;
#47 = CALENDAR_DATE ( 2022, 20, 6 ) ;
#48 = DATE_AND_TIME ( #266, #14 ) ;
#49 = EDGE_CURVE ( 'NONE', #295, #80, #204, .T. ) ;
#50 = APPROVAL_DATE_TIME ( #71, #36 ) ;
#51 = ORIENTED_EDGE ( 'NONE', *, *, #259, .T. ) ;
#52 = EDGE_CURVE ( 'NONE', #152, #156, #111, .T. ) ;
#53 = ORIENTED_EDGE ( 'NONE', *, *, #259, .F. ) ;
#54 = CARTESIAN_POINT ( 'NONE',  ( -0.5000000000000000000, 0.000000000000000000, 1.399999999999998579 ) ) ;
#55 = ORIENTED_EDGE ( 'NONE', *, *, #145, .F. ) ;
#56 = DIRECTION ( 'NONE',  ( -1.000000000000000000, 1.224646799147352714E-16, 0.000000000000000000 ) ) ;
#57 = LOCAL_TIME ( 12, 29, 53.00000000000000000, #24 ) ;
#58 = EDGE_LOOP ( 'NONE', ( #289, #223, #148, #291 ) ) ;
#59 = EDGE_CURVE ( 'NONE', #128, #221, #231, .T. ) ;
#60 = DIRECTION ( 'NONE',  ( -1.000000000000000000, 0.000000000000000000, 0.000000000000000000 ) ) ;
#61 = DIRECTION ( 'NONE',  ( 0.000000000000000000, 0.000000000000000000, 1.000000000000000000 ) ) ;
#62 = CARTESIAN_POINT ( 'NONE',  ( 0.000000000000000000, 0.000000000000000000, 101.2000000000000171 ) ) ;
#63 = FACE_OUTER_BOUND ( 'NONE', #250, .T. ) ;
#64 = DIRECTION ( 'NONE',  ( 0.000000000000000000, 0.000000000000000000, 1.000000000000000000 ) ) ;
#65 = PERSON_AND_ORGANIZATION_ROLE ( 'design_supplier' ) ;
#66 = CALENDAR_DATE ( 2022, 20, 6 ) ;
#67 =( LENGTH_UNIT ( ) NAMED_UNIT ( * ) SI_UNIT ( .MILLI., .METRE. ) );
#68 = AXIS2_PLACEMENT_3D ( 'NONE', #17, #41, #31 ) ;
#69 = AXIS2_PLACEMENT_3D ( 'NONE', #258, #95, #306 ) ;
#70 = APPROVAL_ROLE ( '' ) ;
#71 = DATE_AND_TIME ( #73, #57 ) ;
#72 = AXIS2_PLACEMENT_3D ( 'NONE', #183, #151, #103 ) ;
#73 = CALENDAR_DATE ( 2022, 20, 6 ) ;
#74 = AXIS2_PLACEMENT_3D ( 'NONE', #278, #61, #29 ) ;
#75 = EDGE_LOOP ( 'NONE', ( #277, #51, #6, #197 ) ) ;
#76 = ORIENTED_EDGE ( 'NONE', *, *, #89, .F. ) ;
#77 = DIRECTION ( 'NONE',  ( 0.000000000000000000, 0.000000000000000000, 1.000000000000000000 ) ) ;
#78 = EDGE_LOOP ( 'NONE', ( #271, #97 ) ) ;
#79 = FACE_OUTER_BOUND ( 'NONE', #293, .T. ) ;
#80 = VERTEX_POINT ( 'NONE', #109 ) ;
#81 = AXIS2_PLACEMENT_3D ( 'NONE', #134, #64, #158 ) ;
#82 = PLANE ( 'NONE',  #270 ) ;
#83 = ORIENTED_EDGE ( 'NONE', *, *, #18, .T. ) ;
#84 = CYLINDRICAL_SURFACE ( 'NONE', #257, 0.5000000000000000000 ) ;
#85 = CARTESIAN_POINT ( 'NONE',  ( 1.250000000000000000, 1.530808498934191571E-16, 1.199999999999999956 ) ) ;
#86 = DIRECTION ( 'NONE',  ( -0.000000000000000000, -0.000000000000000000, -1.000000000000000000 ) ) ;
#87 = CARTESIAN_POINT ( 'NONE',  ( -1.250000000000000000, 0.000000000000000000, 1.199999999999999956 ) ) ;
#88 = CIRCLE ( 'NONE', #3, 0.6999999999999999556 ) ;
#89 = EDGE_CURVE ( 'NONE', #297, #106, #275, .T. ) ;
#90 = MECHANICAL_CONTEXT ( 'NONE', #240, 'mechanical' ) ;
#91 = CC_DESIGN_DATE_AND_TIME_ASSIGNMENT ( #142, #22, ( #236 ) ) ;
#92 = EDGE_CURVE ( 'NONE', #246, #35, #88, .T. ) ;
#93 = APPROVAL_ROLE ( '' ) ;
#94 = CIRCLE ( 'NONE', #196, 0.5000000000000000000 ) ;
#95 = DIRECTION ( 'NONE',  ( 0.000000000000000000, 0.000000000000000000, 1.000000000000000000 ) ) ;
#96 = APPROVAL_PERSON_ORGANIZATION ( #233, #36, #189 ) ;
#97 = ORIENTED_EDGE ( 'NONE', *, *, #92, .T. ) ;
#98 = ORIENTED_EDGE ( 'NONE', *, *, #89, .T. ) ;
#99 = CC_DESIGN_PERSON_AND_ORGANIZATION_ASSIGNMENT ( #264, #187, ( #141 ) ) ;
#100 = CARTESIAN_POINT ( 'NONE',  ( 0.000000000000000000, 0.000000000000000000, 1.399999999999998579 ) ) ;
#101 = EDGE_LOOP ( 'NONE', ( #25, #193 ) ) ;
#102 = DIRECTION ( 'NONE',  ( 1.000000000000000000, 0.000000000000000000, 0.000000000000000000 ) ) ;
#103 = DIRECTION ( 'NONE',  ( -1.000000000000000000, 0.000000000000000000, 0.000000000000000000 ) ) ;
#104 = CC_DESIGN_PERSON_AND_ORGANIZATION_ASSIGNMENT ( #125, #200, ( #203 ) ) ;
#105 = COORDINATED_UNIVERSAL_TIME_OFFSET ( 1, 0, .AHEAD. ) ;
#106 = VERTEX_POINT ( 'NONE', #230 ) ;
#107 = CARTESIAN_POINT ( 'NONE',  ( 0.000000000000000000, 0.000000000000000000, 1.199999999999999956 ) ) ;
#108 = LOCAL_TIME ( 12, 29, 53.00000000000000000, #283 ) ;
#109 = CARTESIAN_POINT ( 'NONE',  ( -1.250000000000000000, 0.000000000000000000, 0.000000000000000000 ) ) ;
#110 = FACE_OUTER_BOUND ( 'NONE', #58, .T. ) ;
#111 = LINE ( 'NONE', #85, #144 ) ;
#112 = EDGE_CURVE ( 'NONE', #35, #246, #175, .T. ) ;
#113 = CLOSED_SHELL ( 'NONE', ( #127, #192, #239, #251, #32, #27, #146, #139, #263 ) ) ;
#114 = AXIS2_PLACEMENT_3D ( 'NONE', #220, #276, #56 ) ;
#115 =( NAMED_UNIT ( * ) PLANE_ANGLE_UNIT ( ) SI_UNIT ( $, .RADIAN. ) );
#116 = DIRECTION ( 'NONE',  ( 0.000000000000000000, 0.000000000000000000, -1.000000000000000000 ) ) ;
#117 = AXIS2_PLACEMENT_3D ( 'NONE', #124, #15, #154 ) ;
#118 = CIRCLE ( 'NONE', #286, 1.250000000000000000 ) ;
#119 = APPLICATION_CONTEXT ( 'configuration controlled 3d designs of mechanical parts and assemblies' ) ;
#120 = CC_DESIGN_APPROVAL ( #198, ( #236 ) ) ;
#121 = EDGE_CURVE ( 'NONE', #152, #295, #262, .T. ) ;
#122 = FACE_BOUND ( 'NONE', #78, .T. ) ;
#123 = CARTESIAN_POINT ( 'NONE',  ( 0.000000000000000000, 0.000000000000000000, 0.000000000000000000 ) ) ;
#124 = CARTESIAN_POINT ( 'NONE',  ( 0.000000000000000000, 0.000000000000000000, 101.2000000000000171 ) ) ;
#125 = PERSON_AND_ORGANIZATION ( #229, #282 ) ;
#126 = ORIENTED_EDGE ( 'NONE', *, *, #92, .F. ) ;
#127 = ADVANCED_FACE ( 'NONE', ( #252 ), #267, .F. ) ;
#128 = VERTEX_POINT ( 'NONE', #296 ) ;
#129 = DIRECTION ( 'NONE',  ( -0.000000000000000000, -0.000000000000000000, -1.000000000000000000 ) ) ;
#130 = DIRECTION ( 'NONE',  ( 0.000000000000000000, 0.000000000000000000, 1.000000000000000000 ) ) ;
#131 = CARTESIAN_POINT ( 'NONE',  ( 0.000000000000000000, 0.000000000000000000, 101.2000000000000171 ) ) ;
#132 = CARTESIAN_POINT ( 'NONE',  ( 0.000000000000000000, 0.000000000000000000, 1.199999999999999956 ) ) ;
#133 = CIRCLE ( 'NONE', #140, 1.250000000000000000 ) ;
#134 = CARTESIAN_POINT ( 'NONE',  ( 0.000000000000000000, 0.000000000000000000, 0.000000000000000000 ) ) ;
#135 = PERSON_AND_ORGANIZATION ( #229, #282 ) ;
#136 = CC_DESIGN_PERSON_AND_ORGANIZATION_ASSIGNMENT ( #284, #212, ( #236 ) ) ;
#137 = DIRECTION ( 'NONE',  ( 1.000000000000000000, 0.000000000000000000, 0.000000000000000000 ) ) ;
#138 = DIRECTION ( 'NONE',  ( 0.000000000000000000, -1.000000000000000000, 0.000000000000000000 ) ) ;
#139 = ADVANCED_FACE ( 'NONE', ( #149 ), #82, .T. ) ;
#140 = AXIS2_PLACEMENT_3D ( 'NONE', #132, #299, #102 ) ;
#141 = PRODUCT ( 'bc53', 'bc53', '', ( #90 ) ) ;
#142 = DATE_AND_TIME ( #47, #108 ) ;
#143 = APPROVAL_DATE_TIME ( #48, #269 ) ;
#144 = VECTOR ( 'NONE', #181, 1000.000000000000000 ) ;
#145 = EDGE_CURVE ( 'NONE', #295, #152, #133, .T. ) ;
#146 = ADVANCED_FACE ( 'NONE', ( #12 ), #84, .T. ) ;
#147 = EDGE_CURVE ( 'NONE', #297, #128, #40, .T. ) ;
#148 = ORIENTED_EDGE ( 'NONE', *, *, #39, .T. ) ;
#149 = FACE_OUTER_BOUND ( 'NONE', #30, .T. ) ;
#150 = EDGE_LOOP ( 'NONE', ( #33, #179, #169, #248 ) ) ;
#151 = DIRECTION ( 'NONE',  ( -0.000000000000000000, -0.000000000000000000, -1.000000000000000000 ) ) ;
#152 = VERTEX_POINT ( 'NONE', #178 ) ;
#153 = TOROIDAL_SURFACE ( 'NONE', #69, 0.6999999999999999556, 0.2000000000000000111 ) ;
#154 = DIRECTION ( 'NONE',  ( 1.000000000000000000, 0.000000000000000000, 0.000000000000000000 ) ) ;
#155 = CC_DESIGN_SECURITY_CLASSIFICATION ( #203, ( #298 ) ) ;
#156 = VERTEX_POINT ( 'NONE', #159 ) ;
#157 = CARTESIAN_POINT ( 'NONE',  ( 0.000000000000000000, 0.000000000000000000, 1.199999999999999956 ) ) ;
#158 = DIRECTION ( 'NONE',  ( 1.000000000000000000, 0.000000000000000000, 0.000000000000000000 ) ) ;
#159 = CARTESIAN_POINT ( 'NONE',  ( 1.250000000000000000, 1.530808498934191571E-16, 0.000000000000000000 ) ) ;
#160 = DIRECTION ( 'NONE',  ( 0.000000000000000000, 0.000000000000000000, 1.000000000000000000 ) ) ;
#161 = AXIS2_PLACEMENT_3D ( 'NONE', #279, #160, #300 ) ;
#162 = PERSON_AND_ORGANIZATION_ROLE ( 'creator' ) ;
#163 = DIRECTION ( 'NONE',  ( -0.000000000000000000, -0.000000000000000000, -1.000000000000000000 ) ) ;
#164 = APPLICATION_PROTOCOL_DEFINITION ( 'international standard', 'config_control_design', 1994, #119 ) ;
#165 = CC_DESIGN_DATE_AND_TIME_ASSIGNMENT ( #305, #188, ( #203 ) ) ;
#166 = CARTESIAN_POINT ( 'NONE',  ( -1.250000000000000000, 0.000000000000000000, 1.199999999999999956 ) ) ;
#167 = APPROVAL_PERSON_ORGANIZATION ( #135, #269, #70 ) ;
#168 = COORDINATED_UNIVERSAL_TIME_OFFSET ( 1, 0, .AHEAD. ) ;
#169 = ORIENTED_EDGE ( 'NONE', *, *, #243, .T. ) ;
#170 = LOCAL_TIME ( 12, 29, 53.00000000000000000, #23 ) ;
#171 = ORIENTED_EDGE ( 'NONE', *, *, #243, .F. ) ;
#172 = CARTESIAN_POINT ( 'NONE',  ( 0.5000000000000000000, 6.123233995736766036E-17, 101.2000000000000171 ) ) ;
#173 = ORIENTED_EDGE ( 'NONE', *, *, #147, .T. ) ;
#174 = DIRECTION ( 'NONE',  ( -1.000000000000000000, 0.000000000000000000, 0.000000000000000000 ) ) ;
#175 = CIRCLE ( 'NONE', #68, 0.6999999999999999556 ) ;
#176 = ORIENTED_EDGE ( 'NONE', *, *, #39, .F. ) ;
#177 = AXIS2_PLACEMENT_3D ( 'NONE', #16, #138, #116 ) ;
#178 = CARTESIAN_POINT ( 'NONE',  ( 1.250000000000000000, 1.530808498934191571E-16, 1.199999999999999956 ) ) ;
#179 = ORIENTED_EDGE ( 'NONE', *, *, #214, .F. ) ;
#180 = CARTESIAN_POINT ( 'NONE',  ( 0.000000000000000000, 0.000000000000000000, 101.2000000000000171 ) ) ;
#181 = DIRECTION ( 'NONE',  ( -0.000000000000000000, -0.000000000000000000, -1.000000000000000000 ) ) ;
#182 = CC_DESIGN_PERSON_AND_ORGANIZATION_ASSIGNMENT ( #43, #65, ( #298 ) ) ;
#183 = CARTESIAN_POINT ( 'NONE',  ( 0.000000000000000000, 0.000000000000000000, 1.199999999999999956 ) ) ;
#184 = AXIS2_PLACEMENT_3D ( 'NONE', #62, #281, #260 ) ;
#185 = DIRECTION ( 'NONE',  ( 1.000000000000000000, 0.000000000000000000, 0.000000000000000000 ) ) ;
#186 =( NAMED_UNIT ( * ) SI_UNIT ( $, .STERADIAN. ) SOLID_ANGLE_UNIT ( ) );
#187 = PERSON_AND_ORGANIZATION_ROLE ( 'design_owner' ) ;
#188 = DATE_TIME_ROLE ( 'classification_date' ) ;
#189 = APPROVAL_ROLE ( '' ) ;
#190 = APPROVAL_STATUS ( 'not_yet_approved' ) ;
#191 = DIRECTION ( 'NONE',  ( 0.000000000000000000, 0.000000000000000000, 1.000000000000000000 ) ) ;
#192 = ADVANCED_FACE ( 'NONE', ( #79 ), #254, .T. ) ;
#193 = ORIENTED_EDGE ( 'NONE', *, *, #121, .T. ) ;
#194 = VECTOR ( 'NONE', #163, 1000.000000000000000 ) ;
#195 = ORIENTED_EDGE ( 'NONE', *, *, #214, .T. ) ;
#196 = AXIS2_PLACEMENT_3D ( 'NONE', #37, #224, #234 ) ;
#197 = ORIENTED_EDGE ( 'NONE', *, *, #285, .F. ) ;
#198 = APPROVAL ( #45, 'NEURÈENÝ' ) ;
#199 = CARTESIAN_POINT ( 'NONE',  ( -0.5000000000000000000, 0.000000000000000000, 101.2000000000000171 ) ) ;
#200 = PERSON_AND_ORGANIZATION_ROLE ( 'classification_officer' ) ;
#201 = DIRECTION ( 'NONE',  ( -0.000000000000000000, -0.000000000000000000, -1.000000000000000000 ) ) ;
#202 = PLANE ( 'NONE',  #74 ) ;
#203 = SECURITY_CLASSIFICATION ( '', '', #290 ) ;
#204 = LINE ( 'NONE', #87, #194 ) ;
#205 = CARTESIAN_POINT ( 'NONE',  ( 0.000000000000000000, 0.000000000000000000, 1.399999999999998579 ) ) ;
#206 = APPLICATION_PROTOCOL_DEFINITION ( 'international standard', 'config_control_design', 1994, #240 ) ;
#207 = MANIFOLD_SOLID_BREP ( 'Zaoblit1', #113 ) ;
#208 = CARTESIAN_POINT ( 'NONE',  ( 0.6999999999999999556, 0.000000000000000000, 1.199999999999999289 ) ) ;
#209 = CC_DESIGN_PERSON_AND_ORGANIZATION_ASSIGNMENT ( #235, #162, ( #298 ) ) ;
#210 = VECTOR ( 'NONE', #129, 1000.000000000000000 ) ;
#211 = APPROVAL_DATE_TIME ( #303, #198 ) ;
#212 = PERSON_AND_ORGANIZATION_ROLE ( 'creator' ) ;
#213 = CARTESIAN_POINT ( 'NONE',  ( 0.000000000000000000, 0.000000000000000000, 0.000000000000000000 ) ) ;
#214 = EDGE_CURVE ( 'NONE', #106, #297, #228, .T. ) ;
#215 = CIRCLE ( 'NONE', #81, 1.250000000000000000 ) ;
#216 =( GEOMETRIC_REPRESENTATION_CONTEXT ( 3 ) GLOBAL_UNCERTAINTY_ASSIGNED_CONTEXT ( ( #226 ) ) GLOBAL_UNIT_ASSIGNED_CONTEXT ( ( #67, #115, #186 ) ) REPRESENTATION_CONTEXT ( 'NONE', 'WORKASPACE' ) );
#217 = CC_DESIGN_APPROVAL ( #36, ( #203 ) ) ;
#218 = FACE_OUTER_BOUND ( 'NONE', #101, .T. ) ;
#219 = EDGE_LOOP ( 'NONE', ( #272, #55, #244, #83 ) ) ;
#220 = CARTESIAN_POINT ( 'NONE',  ( -0.6999999999999999556, 8.572527594031471957E-17, 1.399999999999998579 ) ) ;
#221 = VERTEX_POINT ( 'NONE', #54 ) ;
#222 = DIRECTION ( 'NONE',  ( 0.000000000000000000, 0.000000000000000000, 1.000000000000000000 ) ) ;
#223 = ORIENTED_EDGE ( 'NONE', *, *, #52, .T. ) ;
#224 = DIRECTION ( 'NONE',  ( 0.000000000000000000, 0.000000000000000000, 1.000000000000000000 ) ) ;
#225 = EDGE_LOOP ( 'NONE', ( #274, #176 ) ) ;
#226 = UNCERTAINTY_MEASURE_WITH_UNIT (LENGTH_MEASURE( 1.000000000000000082E-05 ), #67, 'distance_accuracy_value', 'NONE');
#227 = DIRECTION ( 'NONE',  ( 1.000000000000000000, 0.000000000000000000, 0.000000000000000000 ) ) ;
#228 = CIRCLE ( 'NONE', #117, 0.5000000000000000000 ) ;
#229 = PERSON ( 'NEURÈENÝ', 'NEURÈENÝ', 'NEURÈENÝ', ('NEURÈENÝ'), ('NEURÈENÝ'), ('NEURÈENÝ') ) ;
#230 = CARTESIAN_POINT ( 'NONE',  ( -0.5000000000000000000, 0.000000000000000000, 101.2000000000000171 ) ) ;
#231 = CIRCLE ( 'NONE', #7, 0.5000000000000000000 ) ;
#232 = PERSON_AND_ORGANIZATION ( #229, #282 ) ;
#233 = PERSON_AND_ORGANIZATION ( #229, #282 ) ;
#234 = DIRECTION ( 'NONE',  ( 1.000000000000000000, 0.000000000000000000, 0.000000000000000000 ) ) ;
#235 = PERSON_AND_ORGANIZATION ( #229, #282 ) ;
#236 = PRODUCT_DEFINITION ( 'NEZNÁMÝ', '', #298, #21 ) ;
#237 = SHAPE_DEFINITION_REPRESENTATION ( #20, #255 ) ;
#238 = AXIS2_PLACEMENT_3D ( 'NONE', #213, #191, #44 ) ;
#239 = ADVANCED_FACE ( 'NONE', ( #110 ), #301, .T. ) ;
#240 = APPLICATION_CONTEXT ( 'configuration controlled 3d designs of mechanical parts and assemblies' ) ;
#241 = AXIS2_PLACEMENT_3D ( 'NONE', #107, #222, #227 ) ;
#242 = ORIENTED_EDGE ( 'NONE', *, *, #59, .F. ) ;
#243 = EDGE_CURVE ( 'NONE', #106, #221, #280, .T. ) ;
#244 = ORIENTED_EDGE ( 'NONE', *, *, #49, .T. ) ;
#245 = DIRECTION ( 'NONE',  ( -0.000000000000000000, -0.000000000000000000, -1.000000000000000000 ) ) ;
#246 = VERTEX_POINT ( 'NONE', #8 ) ;
#247 = DIRECTION ( 'NONE',  ( -1.000000000000000000, 0.000000000000000000, 0.000000000000000000 ) ) ;
#248 = ORIENTED_EDGE ( 'NONE', *, *, #261, .T. ) ;
#249 = DIRECTION ( 'NONE',  ( 1.000000000000000000, 0.000000000000000000, 0.000000000000000000 ) ) ;
#250 = EDGE_LOOP ( 'NONE', ( #53, #242, #11, #126 ) ) ;
#251 = ADVANCED_FACE ( 'NONE', ( #34 ), #294, .T. ) ;
#252 = FACE_OUTER_BOUND ( 'NONE', #75, .T. ) ;
#253 = CARTESIAN_POINT ( 'NONE',  ( 0.000000000000000000, 0.000000000000000000, 1.199999999999999956 ) ) ;
#254 = CYLINDRICAL_SURFACE ( 'NONE', #268, 0.5000000000000000000 ) ;
#255 = ADVANCED_BREP_SHAPE_REPRESENTATION ( 'bc53', ( #207, #238 ), #216 ) ;
#256 = DIRECTION ( 'NONE',  ( -0.000000000000000000, -0.000000000000000000, -1.000000000000000000 ) ) ;
#257 = AXIS2_PLACEMENT_3D ( 'NONE', #180, #201, #247 ) ;
#258 = CARTESIAN_POINT ( 'NONE',  ( 0.000000000000000000, 0.000000000000000000, 1.399999999999998579 ) ) ;
#259 = EDGE_CURVE ( 'NONE', #221, #246, #2, .T. ) ;
#260 = DIRECTION ( 'NONE',  ( 1.000000000000000000, 0.000000000000000000, 0.000000000000000000 ) ) ;
#261 = EDGE_CURVE ( 'NONE', #221, #128, #94, .T. ) ;
#262 = CIRCLE ( 'NONE', #241, 1.250000000000000000 ) ;
#263 = ADVANCED_FACE ( 'NONE', ( #63 ), #153, .F. ) ;
#264 = PERSON_AND_ORGANIZATION ( #229, #282 ) ;
#265 = APPROVAL_PERSON_ORGANIZATION ( #232, #198, #93 ) ;
#266 = CALENDAR_DATE ( 2022, 20, 6 ) ;
#267 = TOROIDAL_SURFACE ( 'NONE', #26, 0.6999999999999999556, 0.2000000000000000111 ) ;
#268 = AXIS2_PLACEMENT_3D ( 'NONE', #42, #86, #60 ) ;
#269 = APPROVAL ( #190, 'NEURÈENÝ' ) ;
#270 = AXIS2_PLACEMENT_3D ( 'NONE', #131, #292, #10 ) ;
#271 = ORIENTED_EDGE ( 'NONE', *, *, #112, .T. ) ;
#272 = ORIENTED_EDGE ( 'NONE', *, *, #52, .F. ) ;
#273 = DIRECTION ( 'NONE',  ( -0.000000000000000000, -0.000000000000000000, -1.000000000000000000 ) ) ;
#274 = ORIENTED_EDGE ( 'NONE', *, *, #18, .F. ) ;
#275 = CIRCLE ( 'NONE', #184, 0.5000000000000000000 ) ;
#276 = DIRECTION ( 'NONE',  ( 1.224646799147353207E-16, 1.000000000000000000, -0.000000000000000000 ) ) ;
#277 = ORIENTED_EDGE ( 'NONE', *, *, #261, .F. ) ;
#278 = CARTESIAN_POINT ( 'NONE',  ( 0.000000000000000000, 0.000000000000000000, 0.000000000000000000 ) ) ;
#279 = CARTESIAN_POINT ( 'NONE',  ( 0.000000000000000000, 0.000000000000000000, 1.199999999999999956 ) ) ;
#280 = LINE ( 'NONE', #199, #210 ) ;
#281 = DIRECTION ( 'NONE',  ( 0.000000000000000000, 0.000000000000000000, 1.000000000000000000 ) ) ;
#282 = ORGANIZATION ( 'NEURÈENÝ', 'NEURÈENÝ', '' ) ;
#283 = COORDINATED_UNIVERSAL_TIME_OFFSET ( 1, 0, .AHEAD. ) ;
#284 = PERSON_AND_ORGANIZATION ( #229, #282 ) ;
#285 = EDGE_CURVE ( 'NONE', #128, #35, #19, .T. ) ;
#286 = AXIS2_PLACEMENT_3D ( 'NONE', #123, #130, #38 ) ;
#287 = PRODUCT_RELATED_PRODUCT_CATEGORY ( 'detail', '', ( #141 ) ) ;
#288 = AXIS2_PLACEMENT_3D ( 'NONE', #157, #245, #174 ) ;
#289 = ORIENTED_EDGE ( 'NONE', *, *, #121, .F. ) ;
#290 = SECURITY_CLASSIFICATION_LEVEL ( 'unclassified' ) ;
#291 = ORIENTED_EDGE ( 'NONE', *, *, #49, .F. ) ;
#292 = DIRECTION ( 'NONE',  ( 0.000000000000000000, 0.000000000000000000, 1.000000000000000000 ) ) ;
#293 = EDGE_LOOP ( 'NONE', ( #76, #173, #9, #171 ) ) ;
#294 = CYLINDRICAL_SURFACE ( 'NONE', #288, 1.250000000000000000 ) ;
#295 = VERTEX_POINT ( 'NONE', #166 ) ;
#296 = CARTESIAN_POINT ( 'NONE',  ( 0.5000000000000000000, 6.123233995736766036E-17, 1.399999999999998579 ) ) ;
#297 = VERTEX_POINT ( 'NONE', #304 ) ;
#298 = PRODUCT_DEFINITION_FORMATION_WITH_SPECIFIED_SOURCE ( 'LIBOVOLNÝ', '', #141, .NOT_KNOWN. ) ;
#299 = DIRECTION ( 'NONE',  ( 0.000000000000000000, 0.000000000000000000, 1.000000000000000000 ) ) ;
#300 = DIRECTION ( 'NONE',  ( 1.000000000000000000, 0.000000000000000000, -0.000000000000000000 ) ) ;
#301 = CYLINDRICAL_SURFACE ( 'NONE', #72, 1.250000000000000000 ) ;
#302 = DIRECTION ( 'NONE',  ( 0.000000000000000000, 0.000000000000000000, 1.000000000000000000 ) ) ;
#303 = DATE_AND_TIME ( #1, #170 ) ;
#304 = CARTESIAN_POINT ( 'NONE',  ( 0.5000000000000000000, 6.123233995736766036E-17, 101.2000000000000171 ) ) ;
#305 = DATE_AND_TIME ( #66, #46 ) ;
#306 = DIRECTION ( 'NONE',  ( 1.000000000000000000, 0.000000000000000000, 0.000000000000000000 ) ) ;
#307 = APPROVAL_STATUS ( 'not_yet_approved' ) ;
ENDSEC;
END-ISO-10303-21;
